  0
SECTION
  2
HEADER
  9
$ACADVER
  1
AC1006
  9
$EXTMIN
 10
3.107280
 20
0.400400
  9
$EXTMAX
 10
8.100400
 20
4.004000
  9
$LTSCALE
 40
0.044000
  9
$PDMODE
 70
    35
  9
$PDSIZE
 40
0.035200
  0
ENDSEC
  0
SECTION
  2
TABLES
  0
TABLE
  2
LTYPE
 70
     9
  0
LTYPE
  2
CONTINUOUS
 70
    64
  3
Solid line
 72
    65
 73
     0
 40
0.000000
  0
LTYPE
  2
DASHED
 70
    64
  3
__ __ __ __ __ __ __ __ __ __ __ __ __ __ __
 72
    65
 73
     2
 40
0.000330
 49
0.000220
 49
-0.000110
  0
LTYPE
  2
HIDDEN
 70
    64
  3
 _ _ _ _ _ _ _ _ _ _ _ _ _ _ _ _ _ _ _ _ _ _
 72
    65
 73
     2
 40
0.000165
 49
0.000110
 49
-0.000055
  0
LTYPE
  2
CENTER
 70
    64
  3
____ _ ____ _ ____ _ ____ _ ____ _ ____ _ ____
 72
    65
 73
     4
 40
0.000880
 49
0.000550
 49
-0.000110
 49
0.000110
 49
-0.000110
  0
LTYPE
  2
PHANTOM
 70
    64
  3
_____ _ _ _____ _ _ _____ _ _ _____ _ _ ____
 72
    65
 73
     6
 40
0.001100
 49
0.000550
 49
-0.000110
 49
0.000110
 49
-0.000110
 49
0.000110
 49
-0.000110
  0
LTYPE
  2
DOT
 70
    64
  3
...............................................
 72
    65
 73
     2
 40
0.000110
 49
0.000000
 49
-0.000110
  0
LTYPE
  2
DASHDOT
 70
    64
  3
__ . __ . __ . __ . __ . __ . __ . __ . __ . __
 72
    65
 73
     4
 40
0.000440
 49
0.000220
 49
-0.000110
 49
0.000000
 49
-0.000110
  0
LTYPE
  2
BORDER
 70
    64
  3
__ __ . __ __ . __ __ . __ __ . __ __ . __ __
 72
    65
 73
     6
 40
0.000770
 49
0.000220
 49
-0.000110
 49
0.000220
 49
-0.000110
 49
0.000000
 49
-0.000110
  0
LTYPE
  2
DIVIDE
 70
    64
  3
__ . . __ . . __ . . __ . . __ . . __ . . __
 72
    65
 73
     6
 40
0.000550
 49
0.000220
 49
-0.000110
 49
0.000000
 49
-0.000110
 49
0.000000
 49
-0.000110
  0
LTYPE
  2
DOTDOT
 70
    64
  3
 . .  . .  . .  . .  . .  . . 
 72
    65
 73
     5
 40
0.000242
 49
-0.000110
 49
0.000000
 49
-0.000110
 49
0.000000
 49
-0.000110
  0
ENDTAB
  0
TABLE
  2
STYLE
 70
     2
  0
STYLE
 70
     0
  2
SN0
 40
0.000000
 41
0.000440
 50
0.000000
 71
     0
 42
0.000000
  3
ROMAND
  0
STYLE
 70
    68
  2
SV0
 40
0.000000
 41
0.000440
 50
0.000000
 71
     0
 42
0.000000
  3
ROMAND
  0
ENDTAB
  0
TABLE
  2
LAYER
 70
     3
  0
LAYER
  2
FOREGROUND
 70
    64
 62
     7
  6
CONTINUOUS
  0
LAYER
  2
BACKGROUND
 70
    65
 62
    -7
  6
CONTINUOUS
  0
LAYER
  2
0
 70
    64
 62
     7
  6
CONTINUOUS
  0
ENDTAB
  0
ENDSEC
  0
SECTION
  2
ENTITIES
  0
POLYLINE
  8
FOREGROUND
  6
CONTINUOUS
 66
     1
 40
0.000000
 41
0.000000
  0
VERTEX
  8
FOREGROUND
  6
CONTINUOUS
 10
0.000000
 20
4.404400
  0
VERTEX
  8
FOREGROUND
  6
CONTINUOUS
 10
8.499920
 20
4.404400
  0
VERTEX
  8
FOREGROUND
  6
CONTINUOUS
 10
8.499920
 20
-6.595600
  0
VERTEX
  8
FOREGROUND
  6
CONTINUOUS
 10
0.000000
 20
-6.595600
  0
VERTEX
  8
FOREGROUND
  6
CONTINUOUS
 10
0.000000
 20
4.404400
  0
SEQEND
  8
0
  0
POLYLINE
  8
FOREGROUND
  6
CONTINUOUS
 66
     1
 40
0.000000
 41
0.000000
  0
VERTEX
  8
FOREGROUND
  6
CONTINUOUS
 10
0.000000
 20
4.404400
  0
VERTEX
  8
FOREGROUND
  6
CONTINUOUS
 10
8.499920
 20
4.404400
  0
VERTEX
  8
FOREGROUND
  6
CONTINUOUS
 10
8.499920
 20
-6.595600
  0
VERTEX
  8
FOREGROUND
  6
CONTINUOUS
 10
0.000000
 20
-6.595600
  0
VERTEX
  8
FOREGROUND
  6
CONTINUOUS
 10
0.000000
 20
4.404400
  0
SEQEND
  8
0
  0
POLYLINE
  8
0
  6
CONTINUOUS
 66
     1
 40
0.000000
 41
0.000000
  0
VERTEX
  8
0
  6
CONTINUOUS
 10
3.293840
 20
2.961640
  0
VERTEX
  8
0
  6
CONTINUOUS
 10
3.248520
 20
2.961640
  0
VERTEX
  8
0
  6
CONTINUOUS
 10
3.249400
 20
2.961640
  0
VERTEX
  8
0
  6
CONTINUOUS
 10
3.249400
 20
3.251600
  0
VERTEX
  8
0
  6
CONTINUOUS
 10
3.578960
 20
3.251600
  0
VERTEX
  8
0
  6
CONTINUOUS
 10
3.578960
 20
3.483920
  0
VERTEX
  8
0
  6
CONTINUOUS
 10
3.249400
 20
3.483920
  0
VERTEX
  8
0
  6
CONTINUOUS
 10
3.248080
 20
3.484800
  0
VERTEX
  8
0
  6
CONTINUOUS
 10
3.249840
 20
3.972320
  0
VERTEX
  8
0
  6
CONTINUOUS
 10
5.728360
 20
3.969240
  0
VERTEX
  8
0
  6
CONTINUOUS
 10
6.282760
 20
3.573240
  0
VERTEX
  8
0
  6
CONTINUOUS
 10
6.284080
 20
3.570600
  0
VERTEX
  8
0
  6
CONTINUOUS
 10
6.284080
 20
3.482600
  0
VERTEX
  8
0
  6
CONTINUOUS
 10
6.496160
 20
3.477320
  0
VERTEX
  8
0
  6
CONTINUOUS
 10
6.497480
 20
3.478640
  0
VERTEX
  8
0
  6
CONTINUOUS
 10
6.519480
 20
3.476440
  0
VERTEX
  8
0
  6
CONTINUOUS
 10
6.540600
 20
3.469400
  0
VERTEX
  8
0
  6
CONTINUOUS
 10
6.559520
 20
3.458840
  0
VERTEX
  8
0
  6
CONTINUOUS
 10
6.576240
 20
3.444760
  0
VERTEX
  8
0
  6
CONTINUOUS
 10
6.589880
 20
3.428040
  0
VERTEX
  8
0
  6
CONTINUOUS
 10
6.600440
 20
3.409120
  0
VERTEX
  8
0
  6
CONTINUOUS
 10
6.607480
 20
3.388440
  0
VERTEX
  8
0
  6
CONTINUOUS
 10
6.609680
 20
3.366440
  0
VERTEX
  8
0
  6
CONTINUOUS
 10
6.607480
 20
3.344440
  0
VERTEX
  8
0
  6
CONTINUOUS
 10
6.600880
 20
3.323760
  0
VERTEX
  8
0
  6
CONTINUOUS
 10
6.590760
 20
3.305280
  0
VERTEX
  8
0
  6
CONTINUOUS
 10
6.577560
 20
3.288560
  0
VERTEX
  8
0
  6
CONTINUOUS
 10
6.561280
 20
3.275360
  0
VERTEX
  8
0
  6
CONTINUOUS
 10
6.542800
 20
3.264800
  0
VERTEX
  8
0
  6
CONTINUOUS
 10
6.522120
 20
3.258200
  0
VERTEX
  8
0
  6
CONTINUOUS
 10
6.500120
 20
3.256000
  0
VERTEX
  8
0
  6
CONTINUOUS
 10
6.501440
 20
3.254240
  0
VERTEX
  8
0
  6
CONTINUOUS
 10
6.281440
 20
3.253360
  0
VERTEX
  8
0
  6
CONTINUOUS
 10
6.281440
 20
2.961200
  0
VERTEX
  8
0
  6
CONTINUOUS
 10
6.282760
 20
2.959880
  0
VERTEX
  8
0
  6
CONTINUOUS
 10
3.259960
 20
2.961640
  0
VERTEX
  8
0
  6
CONTINUOUS
 10
3.293840
 20
2.961640
  0
SEQEND
  8
0
  0
SOLID
  8
0
 62
    15
 10
6.360200
 20
1.177440
 11
6.361520
 21
1.916640
 12
6.361960
 22
1.176120
 13
6.362840
 23
1.915320
  0
POLYLINE
  8
0
  6
CONTINUOUS
 66
     1
 40
0.000000
 41
0.000000
  0
VERTEX
  8
0
  6
CONTINUOUS
 10
6.360200
 20
1.177440
  0
VERTEX
  8
0
  6
CONTINUOUS
 10
6.361520
 20
1.916640
  0
VERTEX
  8
0
  6
CONTINUOUS
 10
6.362840
 20
1.915320
  0
VERTEX
  8
0
  6
CONTINUOUS
 10
6.361960
 20
1.176120
  0
VERTEX
  8
0
  6
CONTINUOUS
 10
6.360200
 20
1.177440
  0
SEQEND
  8
0
  0
SOLID
  8
0
 62
    15
 10
3.108160
 20
1.406240
 11
3.109040
 21
2.145440
 12
3.109920
 22
1.894200
 13
3.110800
 23
2.633400
  0
POLYLINE
  8
0
  6
CONTINUOUS
 66
     1
 40
0.000000
 41
0.000000
  0
VERTEX
  8
0
  6
CONTINUOUS
 10
3.108160
 20
1.406240
  0
VERTEX
  8
0
  6
CONTINUOUS
 10
3.109040
 20
2.145440
  0
VERTEX
  8
0
  6
CONTINUOUS
 10
3.110800
 20
2.633400
  0
VERTEX
  8
0
  6
CONTINUOUS
 10
3.109920
 20
1.894200
  0
VERTEX
  8
0
  6
CONTINUOUS
 10
3.108160
 20
1.406240
  0
SEQEND
  8
0
  0
SOLID
  8
0
 62
    15
 10
3.120040
 20
0.883520
 11
3.120920
 21
1.622720
 12
3.153920
 22
0.883520
 13
3.154800
 23
1.622720
  0
POLYLINE
  8
0
  6
CONTINUOUS
 66
     1
 40
0.000000
 41
0.000000
  0
VERTEX
  8
0
  6
CONTINUOUS
 10
3.120040
 20
0.883520
  0
VERTEX
  8
0
  6
CONTINUOUS
 10
3.120920
 20
1.622720
  0
VERTEX
  8
0
  6
CONTINUOUS
 10
3.154800
 20
1.622720
  0
VERTEX
  8
0
  6
CONTINUOUS
 10
3.153920
 20
0.883520
  0
VERTEX
  8
0
  6
CONTINUOUS
 10
3.120040
 20
0.883520
  0
SEQEND
  8
0
  0
SOLID
  8
0
 62
    15
 10
6.141960
 20
0.883080
 11
6.142840
 21
1.622280
 12
6.143280
 22
0.881760
 13
6.144160
 23
1.620960
  0
POLYLINE
  8
0
  6
CONTINUOUS
 66
     1
 40
0.000000
 41
0.000000
  0
VERTEX
  8
0
  6
CONTINUOUS
 10
6.141960
 20
0.883080
  0
VERTEX
  8
0
  6
CONTINUOUS
 10
6.142840
 20
1.622280
  0
VERTEX
  8
0
  6
CONTINUOUS
 10
6.144160
 20
1.620960
  0
VERTEX
  8
0
  6
CONTINUOUS
 10
6.143280
 20
0.881760
  0
VERTEX
  8
0
  6
CONTINUOUS
 10
6.141960
 20
0.883080
  0
SEQEND
  8
0
  0
SOLID
  8
0
 62
    15
 10
6.144600
 20
1.404040
 11
6.145480
 21
2.143680
 12
6.356240
 22
1.398760
 13
6.357120
 23
2.137960
  0
POLYLINE
  8
0
  6
CONTINUOUS
 66
     1
 40
0.000000
 41
0.000000
  0
VERTEX
  8
0
  6
CONTINUOUS
 10
6.144600
 20
1.404040
  0
VERTEX
  8
0
  6
CONTINUOUS
 10
6.145480
 20
2.143680
  0
VERTEX
  8
0
  6
CONTINUOUS
 10
6.357120
 20
2.137960
  0
VERTEX
  8
0
  6
CONTINUOUS
 10
6.356240
 20
1.398760
  0
VERTEX
  8
0
  6
CONTINUOUS
 10
6.144600
 20
1.404040
  0
SEQEND
  8
0
  0
SOLID
  8
0
 62
    15
 10
6.144600
 20
1.492040
 11
6.145480
 21
2.231680
 12
6.144600
 22
1.404040
 13
6.145480
 23
2.143680
  0
POLYLINE
  8
0
  6
CONTINUOUS
 66
     1
 40
0.000000
 41
0.000000
  0
VERTEX
  8
0
  6
CONTINUOUS
 10
6.144600
 20
1.492040
  0
VERTEX
  8
0
  6
CONTINUOUS
 10
6.145480
 20
2.231680
  0
VERTEX
  8
0
  6
CONTINUOUS
 10
6.145480
 20
2.143680
  0
VERTEX
  8
0
  6
CONTINUOUS
 10
6.144600
 20
1.404040
  0
VERTEX
  8
0
  6
CONTINUOUS
 10
6.144600
 20
1.492040
  0
SEQEND
  8
0
  0
SOLID
  8
0
 62
    15
 10
6.143280
 20
1.495120
 11
6.144160
 21
2.234320
 12
6.144600
 22
1.492040
 13
6.145480
 23
2.231680
  0
POLYLINE
  8
0
  6
CONTINUOUS
 66
     1
 40
0.000000
 41
0.000000
  0
VERTEX
  8
0
  6
CONTINUOUS
 10
6.143280
 20
1.495120
  0
VERTEX
  8
0
  6
CONTINUOUS
 10
6.144160
 20
2.234320
  0
VERTEX
  8
0
  6
CONTINUOUS
 10
6.145480
 20
2.231680
  0
VERTEX
  8
0
  6
CONTINUOUS
 10
6.144600
 20
1.492040
  0
VERTEX
  8
0
  6
CONTINUOUS
 10
6.143280
 20
1.495120
  0
SEQEND
  8
0
  0
SOLID
  8
0
 62
    15
 10
6.356240
 20
1.398760
 11
6.357120
 21
2.137960
 12
6.357560
 22
1.400080
 13
6.358880
 23
2.139280
  0
POLYLINE
  8
0
  6
CONTINUOUS
 66
     1
 40
0.000000
 41
0.000000
  0
VERTEX
  8
0
  6
CONTINUOUS
 10
6.356240
 20
1.398760
  0
VERTEX
  8
0
  6
CONTINUOUS
 10
6.357120
 20
2.137960
  0
VERTEX
  8
0
  6
CONTINUOUS
 10
6.358880
 20
2.139280
  0
VERTEX
  8
0
  6
CONTINUOUS
 10
6.357560
 20
1.400080
  0
VERTEX
  8
0
  6
CONTINUOUS
 10
6.356240
 20
1.398760
  0
SEQEND
  8
0
  0
SOLID
  8
0
 62
    15
 10
3.109920
 20
1.173480
 11
3.110800
 21
1.912680
 12
3.439040
 22
1.173480
 13
3.439920
 23
1.912680
  0
POLYLINE
  8
0
  6
CONTINUOUS
 66
     1
 40
0.000000
 41
0.000000
  0
VERTEX
  8
0
  6
CONTINUOUS
 10
3.109920
 20
1.173480
  0
VERTEX
  8
0
  6
CONTINUOUS
 10
3.110800
 20
1.912680
  0
VERTEX
  8
0
  6
CONTINUOUS
 10
3.439920
 20
1.912680
  0
VERTEX
  8
0
  6
CONTINUOUS
 10
3.439040
 20
1.173480
  0
VERTEX
  8
0
  6
CONTINUOUS
 10
3.109920
 20
1.173480
  0
SEQEND
  8
0
  0
SOLID
  8
0
 62
    15
 10
6.400680
 20
1.391280
 11
6.401560
 21
2.130480
 12
6.436320
 22
1.366640
 13
6.437200
 23
2.105840
  0
POLYLINE
  8
0
  6
CONTINUOUS
 66
     1
 40
0.000000
 41
0.000000
  0
VERTEX
  8
0
  6
CONTINUOUS
 10
6.400680
 20
1.391280
  0
VERTEX
  8
0
  6
CONTINUOUS
 10
6.401560
 20
2.130480
  0
VERTEX
  8
0
  6
CONTINUOUS
 10
6.437200
 20
2.105840
  0
VERTEX
  8
0
  6
CONTINUOUS
 10
6.436320
 20
1.366640
  0
VERTEX
  8
0
  6
CONTINUOUS
 10
6.400680
 20
1.391280
  0
SEQEND
  8
0
  0
SOLID
  8
0
 62
    15
 10
6.460520
 20
1.331000
 11
6.461400
 21
2.070200
 12
6.469760
 22
1.288320
 13
6.470640
 23
2.027520
  0
POLYLINE
  8
0
  6
CONTINUOUS
 66
     1
 40
0.000000
 41
0.000000
  0
VERTEX
  8
0
  6
CONTINUOUS
 10
6.460520
 20
1.331000
  0
VERTEX
  8
0
  6
CONTINUOUS
 10
6.461400
 20
2.070200
  0
VERTEX
  8
0
  6
CONTINUOUS
 10
6.470640
 20
2.027520
  0
VERTEX
  8
0
  6
CONTINUOUS
 10
6.469760
 20
1.288320
  0
VERTEX
  8
0
  6
CONTINUOUS
 10
6.460520
 20
1.331000
  0
SEQEND
  8
0
  0
SOLID
  8
0
 62
    15
 10
6.436320
 20
1.366640
 11
6.437200
 21
2.105840
 12
6.460520
 22
1.331000
 13
6.461400
 23
2.070200
  0
POLYLINE
  8
0
  6
CONTINUOUS
 66
     1
 40
0.000000
 41
0.000000
  0
VERTEX
  8
0
  6
CONTINUOUS
 10
6.436320
 20
1.366640
  0
VERTEX
  8
0
  6
CONTINUOUS
 10
6.437200
 20
2.105840
  0
VERTEX
  8
0
  6
CONTINUOUS
 10
6.461400
 20
2.070200
  0
VERTEX
  8
0
  6
CONTINUOUS
 10
6.460520
 20
1.331000
  0
VERTEX
  8
0
  6
CONTINUOUS
 10
6.436320
 20
1.366640
  0
SEQEND
  8
0
  0
SOLID
  8
0
 62
    15
 10
6.357560
 20
1.400080
 11
6.358880
 21
2.139280
 12
6.400680
 22
1.391280
 13
6.401560
 23
2.130480
  0
POLYLINE
  8
0
  6
CONTINUOUS
 66
     1
 40
0.000000
 41
0.000000
  0
VERTEX
  8
0
  6
CONTINUOUS
 10
6.357560
 20
1.400080
  0
VERTEX
  8
0
  6
CONTINUOUS
 10
6.358880
 20
2.139280
  0
VERTEX
  8
0
  6
CONTINUOUS
 10
6.401560
 20
2.130480
  0
VERTEX
  8
0
  6
CONTINUOUS
 10
6.400680
 20
1.391280
  0
VERTEX
  8
0
  6
CONTINUOUS
 10
6.357560
 20
1.400080
  0
SEQEND
  8
0
  0
SOLID
  8
0
 62
    15
 10
6.141960
 20
1.174800
 11
6.142840
 21
1.914000
 12
6.141960
 22
0.883080
 13
6.142840
 23
1.622280
  0
POLYLINE
  8
0
  6
CONTINUOUS
 66
     1
 40
0.000000
 41
0.000000
  0
VERTEX
  8
0
  6
CONTINUOUS
 10
6.141960
 20
1.174800
  0
VERTEX
  8
0
  6
CONTINUOUS
 10
6.142840
 20
1.914000
  0
VERTEX
  8
0
  6
CONTINUOUS
 10
6.142840
 20
1.622280
  0
VERTEX
  8
0
  6
CONTINUOUS
 10
6.141960
 20
0.883080
  0
VERTEX
  8
0
  6
CONTINUOUS
 10
6.141960
 20
1.174800
  0
SEQEND
  8
0
  0
SOLID
  8
0
 62
    15
 10
5.588440
 20
1.890680
 11
5.589320
 21
2.630320
 12
6.143280
 22
1.495120
 13
6.144160
 23
2.234320
  0
POLYLINE
  8
0
  6
CONTINUOUS
 66
     1
 40
0.000000
 41
0.000000
  0
VERTEX
  8
0
  6
CONTINUOUS
 10
5.588440
 20
1.890680
  0
VERTEX
  8
0
  6
CONTINUOUS
 10
5.589320
 20
2.630320
  0
VERTEX
  8
0
  6
CONTINUOUS
 10
6.144160
 20
2.234320
  0
VERTEX
  8
0
  6
CONTINUOUS
 10
6.143280
 20
1.495120
  0
VERTEX
  8
0
  6
CONTINUOUS
 10
5.588440
 20
1.890680
  0
SEQEND
  8
0
  0
SOLID
  8
0
 62
    15
 10
3.109920
 20
1.894200
 11
3.110800
 21
2.633400
 12
5.588440
 22
1.890680
 13
5.589320
 23
2.630320
  0
POLYLINE
  8
0
  6
CONTINUOUS
 66
     1
 40
0.000000
 41
0.000000
  0
VERTEX
  8
0
  6
CONTINUOUS
 10
3.109920
 20
1.894200
  0
VERTEX
  8
0
  6
CONTINUOUS
 10
3.110800
 20
2.633400
  0
VERTEX
  8
0
  6
CONTINUOUS
 10
5.589320
 20
2.630320
  0
VERTEX
  8
0
  6
CONTINUOUS
 10
5.588440
 20
1.890680
  0
VERTEX
  8
0
  6
CONTINUOUS
 10
3.109920
 20
1.894200
  0
SEQEND
  8
0
  0
POLYLINE
  8
0
  6
CONTINUOUS
 66
     1
 40
0.000000
 41
0.000000
  0
VERTEX
  8
0
  6
CONTINUOUS
 10
3.153920
 20
0.883520
  0
VERTEX
  8
0
  6
CONTINUOUS
 10
3.109920
 20
0.883520
  0
VERTEX
  8
0
  6
CONTINUOUS
 10
3.109920
 20
1.173480
  0
VERTEX
  8
0
  6
CONTINUOUS
 10
3.439040
 20
1.173480
  0
VERTEX
  8
0
  6
CONTINUOUS
 10
3.439040
 20
1.405800
  0
VERTEX
  8
0
  6
CONTINUOUS
 10
3.109920
 20
1.405800
  0
VERTEX
  8
0
  6
CONTINUOUS
 10
3.108160
 20
1.406240
  0
VERTEX
  8
0
  6
CONTINUOUS
 10
3.109920
 20
1.894200
  0
VERTEX
  8
0
  6
CONTINUOUS
 10
5.588440
 20
1.890680
  0
VERTEX
  8
0
  6
CONTINUOUS
 10
6.143280
 20
1.495120
  0
VERTEX
  8
0
  6
CONTINUOUS
 10
6.144600
 20
1.492040
  0
VERTEX
  8
0
  6
CONTINUOUS
 10
6.144600
 20
1.404040
  0
VERTEX
  8
0
  6
CONTINUOUS
 10
6.356240
 20
1.398760
  0
VERTEX
  8
0
  6
CONTINUOUS
 10
6.357560
 20
1.400080
  0
VERTEX
  8
0
  6
CONTINUOUS
 10
6.400680
 20
1.391280
  0
VERTEX
  8
0
  6
CONTINUOUS
 10
6.436320
 20
1.366640
  0
VERTEX
  8
0
  6
CONTINUOUS
 10
6.460520
 20
1.331000
  0
VERTEX
  8
0
  6
CONTINUOUS
 10
6.469760
 20
1.288320
  0
VERTEX
  8
0
  6
CONTINUOUS
 10
6.460960
 20
1.245640
  0
VERTEX
  8
0
  6
CONTINUOUS
 10
6.437640
 20
1.210440
  0
VERTEX
  8
0
  6
CONTINUOUS
 10
6.402880
 20
1.186680
  0
VERTEX
  8
0
  6
CONTINUOUS
 10
6.360200
 20
1.177440
  0
VERTEX
  8
0
  6
CONTINUOUS
 10
6.361960
 20
1.176120
  0
VERTEX
  8
0
  6
CONTINUOUS
 10
6.141960
 20
1.174800
  0
VERTEX
  8
0
  6
CONTINUOUS
 10
6.141960
 20
0.883080
  0
VERTEX
  8
0
  6
CONTINUOUS
 10
6.143280
 20
0.881760
  0
VERTEX
  8
0
  6
CONTINUOUS
 10
3.120040
 20
0.883520
  0
VERTEX
  8
0
  6
CONTINUOUS
 10
3.153920
 20
0.883520
  0
SEQEND
  8
0
  0
TEXT
  8
0
 10
4.549160
 20
0.635800
 40
0.138231
  1
BA  79
 41
1.000000
  7
SN0
 71
     0
 72
     5
 11
5.047723
 21
0.635800
  0
TEXT
  8
0
 10
4.370080
 20
0.444400
 40
0.138231
  1
1" x 1-5/16"
 41
1.000000
  7
SN0
 71
     0
 72
     5
 11
5.226150
 21
0.444400
  0
TEXT
  8
0
 10
7.104240
 20
3.852640
 40
0.138231
  1
panel/flooring
 41
1.000000
  7
SN0
 71
     0
 72
     5
 11
8.100617
 21
3.852640
  0
TEXT
  8
0
 10
7.509920
 20
3.661240
 40
0.138231
  1
79
 41
1.000000
  7
SN0
 71
     0
 72
     5
 11
7.694915
 21
3.661240
  0
ENDSEC
  0
EOF
