  0
SECTION
  2
HEADER
  9
$ACADVER
  1
AC1006
  9
$EXTMIN
 10
3.081320
 20
1.952720
  9
$EXTMAX
 10
4.971120
 20
5.206520
  9
$LTSCALE
 40
0.044000
  9
$PDMODE
 70
    35
  9
$PDSIZE
 40
0.035200
  0
ENDSEC
  0
SECTION
  2
TABLES
  0
TABLE
  2
LTYPE
 70
     9
  0
LTYPE
  2
CONTINUOUS
 70
    64
  3
Solid line
 72
    65
 73
     0
 40
0.000000
  0
LTYPE
  2
DASHED
 70
    64
  3
__ __ __ __ __ __ __ __ __ __ __ __ __ __ __
 72
    65
 73
     2
 40
0.000330
 49
0.000220
 49
-0.000110
  0
LTYPE
  2
HIDDEN
 70
    64
  3
 _ _ _ _ _ _ _ _ _ _ _ _ _ _ _ _ _ _ _ _ _ _
 72
    65
 73
     2
 40
0.000165
 49
0.000110
 49
-0.000055
  0
LTYPE
  2
CENTER
 70
    64
  3
____ _ ____ _ ____ _ ____ _ ____ _ ____ _ ____
 72
    65
 73
     4
 40
0.000880
 49
0.000550
 49
-0.000110
 49
0.000110
 49
-0.000110
  0
LTYPE
  2
PHANTOM
 70
    64
  3
_____ _ _ _____ _ _ _____ _ _ _____ _ _ ____
 72
    65
 73
     6
 40
0.001100
 49
0.000550
 49
-0.000110
 49
0.000110
 49
-0.000110
 49
0.000110
 49
-0.000110
  0
LTYPE
  2
DOT
 70
    64
  3
...............................................
 72
    65
 73
     2
 40
0.000110
 49
0.000000
 49
-0.000110
  0
LTYPE
  2
DASHDOT
 70
    64
  3
__ . __ . __ . __ . __ . __ . __ . __ . __ . __
 72
    65
 73
     4
 40
0.000440
 49
0.000220
 49
-0.000110
 49
0.000000
 49
-0.000110
  0
LTYPE
  2
BORDER
 70
    64
  3
__ __ . __ __ . __ __ . __ __ . __ __ . __ __
 72
    65
 73
     6
 40
0.000770
 49
0.000220
 49
-0.000110
 49
0.000220
 49
-0.000110
 49
0.000000
 49
-0.000110
  0
LTYPE
  2
DIVIDE
 70
    64
  3
__ . . __ . . __ . . __ . . __ . . __ . . __
 72
    65
 73
     6
 40
0.000550
 49
0.000220
 49
-0.000110
 49
0.000000
 49
-0.000110
 49
0.000000
 49
-0.000110
  0
LTYPE
  2
DOTDOT
 70
    64
  3
 . .  . .  . .  . .  . .  . . 
 72
    65
 73
     5
 40
0.000242
 49
-0.000110
 49
0.000000
 49
-0.000110
 49
0.000000
 49
-0.000110
  0
ENDTAB
  0
TABLE
  2
STYLE
 70
     2
  0
STYLE
 70
     0
  2
SN0
 40
0.000000
 41
0.000440
 50
0.000000
 71
     0
 42
0.000000
  3
ROMAND
  0
STYLE
 70
    68
  2
SV0
 40
0.000000
 41
0.000440
 50
0.000000
 71
     0
 42
0.000000
  3
ROMAND
  0
ENDTAB
  0
TABLE
  2
LAYER
 70
     3
  0
LAYER
  2
FOREGROUND
 70
    64
 62
     7
  6
CONTINUOUS
  0
LAYER
  2
BACKGROUND
 70
    65
 62
    -7
  6
CONTINUOUS
  0
LAYER
  2
0
 70
    64
 62
     7
  6
CONTINUOUS
  0
ENDTAB
  0
ENDSEC
  0
SECTION
  2
ENTITIES
  0
POLYLINE
  8
FOREGROUND
  6
CONTINUOUS
 66
     1
 40
0.000000
 41
0.000000
  0
VERTEX
  8
FOREGROUND
  6
CONTINUOUS
 10
0.000000
 20
7.159240
  0
VERTEX
  8
FOREGROUND
  6
CONTINUOUS
 10
8.499920
 20
7.159240
  0
VERTEX
  8
FOREGROUND
  6
CONTINUOUS
 10
8.499920
 20
-3.840760
  0
VERTEX
  8
FOREGROUND
  6
CONTINUOUS
 10
0.000000
 20
-3.840760
  0
VERTEX
  8
FOREGROUND
  6
CONTINUOUS
 10
0.000000
 20
7.159240
  0
SEQEND
  8
0
  0
POLYLINE
  8
FOREGROUND
  6
CONTINUOUS
 66
     1
 40
0.000000
 41
0.000000
  0
VERTEX
  8
FOREGROUND
  6
CONTINUOUS
 10
0.000000
 20
7.159240
  0
VERTEX
  8
FOREGROUND
  6
CONTINUOUS
 10
8.499920
 20
7.159240
  0
VERTEX
  8
FOREGROUND
  6
CONTINUOUS
 10
8.499920
 20
-3.840760
  0
VERTEX
  8
FOREGROUND
  6
CONTINUOUS
 10
0.000000
 20
-3.840760
  0
VERTEX
  8
FOREGROUND
  6
CONTINUOUS
 10
0.000000
 20
7.159240
  0
SEQEND
  8
0
  0
POLYLINE
  8
0
  6
CONTINUOUS
 66
     1
 40
0.014080
 41
0.014080
  0
VERTEX
  8
0
  6
CONTINUOUS
 10
4.964080
 20
4.569840
  0
VERTEX
  8
0
  6
CONTINUOUS
 10
4.964080
 20
4.577760
  0
VERTEX
  8
0
  6
CONTINUOUS
 10
4.964080
 20
4.397800
  0
VERTEX
  8
0
  6
CONTINUOUS
 10
3.112120
 20
4.397800
  0
VERTEX
  8
0
  6
CONTINUOUS
 10
3.112120
 20
4.659160
  0
VERTEX
  8
0
  6
CONTINUOUS
 10
3.116960
 20
4.677640
  0
VERTEX
  8
0
  6
CONTINUOUS
 10
3.128400
 20
4.696560
  0
VERTEX
  8
0
  6
CONTINUOUS
 10
3.146000
 20
4.714160
  0
VERTEX
  8
0
  6
CONTINUOUS
 10
3.168000
 20
4.730880
  0
VERTEX
  8
0
  6
CONTINUOUS
 10
3.193960
 20
4.744960
  0
VERTEX
  8
0
  6
CONTINUOUS
 10
3.222560
 20
4.756840
  0
VERTEX
  8
0
  6
CONTINUOUS
 10
3.253800
 20
4.764760
  0
VERTEX
  8
0
  6
CONTINUOUS
 10
3.285480
 20
4.768720
  0
VERTEX
  8
0
  6
CONTINUOUS
 10
3.301760
 20
4.769160
  0
VERTEX
  8
0
  6
CONTINUOUS
 10
3.333440
 20
4.766080
  0
VERTEX
  8
0
  6
CONTINUOUS
 10
3.364240
 20
4.756840
  0
VERTEX
  8
0
  6
CONTINUOUS
 10
3.392400
 20
4.741440
  0
VERTEX
  8
0
  6
CONTINUOUS
 10
3.405600
 20
4.730880
  0
VERTEX
  8
0
  6
CONTINUOUS
 10
3.417920
 20
4.718560
  0
VERTEX
  8
0
  6
CONTINUOUS
 10
3.428920
 20
4.704480
  0
VERTEX
  8
0
  6
CONTINUOUS
 10
3.443440
 20
4.679400
  0
VERTEX
  8
0
  6
CONTINUOUS
 10
3.455320
 20
4.649480
  0
VERTEX
  8
0
  6
CONTINUOUS
 10
3.463680
 20
4.614280
  0
VERTEX
  8
0
  6
CONTINUOUS
 10
3.468080
 20
4.573800
  0
VERTEX
  8
0
  6
CONTINUOUS
 10
3.468080
 20
4.572480
  0
VERTEX
  8
0
  6
CONTINUOUS
 10
3.474680
 20
4.572480
  0
VERTEX
  8
0
  6
CONTINUOUS
 10
3.533200
 20
4.590520
  0
VERTEX
  8
0
  6
CONTINUOUS
 10
3.590400
 20
4.616040
  0
VERTEX
  8
0
  6
CONTINUOUS
 10
3.632640
 20
4.641560
  0
VERTEX
  8
0
  6
CONTINUOUS
 10
3.673560
 20
4.672360
  0
VERTEX
  8
0
  6
CONTINUOUS
 10
3.699520
 20
4.696120
  0
VERTEX
  8
0
  6
CONTINUOUS
 10
3.734720
 20
4.737040
  0
VERTEX
  8
0
  6
CONTINUOUS
 10
3.755400
 20
4.767840
  0
VERTEX
  8
0
  6
CONTINUOUS
 10
3.773440
 20
4.801280
  0
VERTEX
  8
0
  6
CONTINUOUS
 10
3.788400
 20
4.837800
  0
VERTEX
  8
0
  6
CONTINUOUS
 10
3.800280
 20
4.876960
  0
VERTEX
  8
0
  6
CONTINUOUS
 10
3.808200
 20
4.919640
  0
VERTEX
  8
0
  6
CONTINUOUS
 10
3.812160
 20
4.965400
  0
VERTEX
  8
0
  6
CONTINUOUS
 10
3.812160
 20
4.992240
  0
VERTEX
  8
0
  6
CONTINUOUS
 10
3.982880
 20
4.992240
  0
VERTEX
  8
0
  6
CONTINUOUS
 10
3.982880
 20
5.199040
  0
VERTEX
  8
0
  6
CONTINUOUS
 10
4.315960
 20
5.199040
  0
VERTEX
  8
0
  6
CONTINUOUS
 10
4.323880
 20
5.157680
  0
VERTEX
  8
0
  6
CONTINUOUS
 10
4.334440
 20
5.118960
  0
VERTEX
  8
0
  6
CONTINUOUS
 10
4.347640
 20
5.083320
  0
VERTEX
  8
0
  6
CONTINUOUS
 10
4.363480
 20
5.050760
  0
VERTEX
  8
0
  6
CONTINUOUS
 10
4.391640
 20
5.007640
  0
VERTEX
  8
0
  6
CONTINUOUS
 10
4.424640
 20
4.970680
  0
VERTEX
  8
0
  6
CONTINUOUS
 10
4.461160
 20
4.940320
  0
VERTEX
  8
0
  6
CONTINUOUS
 10
4.501640
 20
4.916560
  0
VERTEX
  8
0
  6
CONTINUOUS
 10
4.544320
 20
4.898960
  0
VERTEX
  8
0
  6
CONTINUOUS
 10
4.589640
 20
4.887960
  0
VERTEX
  8
0
  6
CONTINUOUS
 10
4.620880
 20
4.884000
  0
VERTEX
  8
0
  6
CONTINUOUS
 10
4.652120
 20
4.882680
  0
VERTEX
  8
0
  6
CONTINUOUS
 10
4.686880
 20
4.884440
  0
VERTEX
  8
0
  6
CONTINUOUS
 10
4.686880
 20
4.787200
  0
VERTEX
  8
0
  6
CONTINUOUS
 10
4.701400
 20
4.787200
  0
VERTEX
  8
0
  6
CONTINUOUS
 10
4.693480
 20
4.787200
  0
VERTEX
  8
0
  6
CONTINUOUS
 10
4.801280
 20
4.787200
  0
VERTEX
  8
0
  6
CONTINUOUS
 10
4.803920
 20
4.759480
  0
VERTEX
  8
0
  6
CONTINUOUS
 10
4.807440
 20
4.737480
  0
VERTEX
  8
0
  6
CONTINUOUS
 10
4.818440
 20
4.698320
  0
VERTEX
  8
0
  6
CONTINUOUS
 10
4.833400
 20
4.664880
  0
VERTEX
  8
0
  6
CONTINUOUS
 10
4.852760
 20
4.637600
  0
VERTEX
  8
0
  6
CONTINUOUS
 10
4.875200
 20
4.615160
  0
VERTEX
  8
0
  6
CONTINUOUS
 10
4.900720
 20
4.598000
  0
VERTEX
  8
0
  6
CONTINUOUS
 10
4.928880
 20
4.585680
  0
VERTEX
  8
0
  6
CONTINUOUS
 10
4.958800
 20
4.577760
  0
VERTEX
  8
0
  6
CONTINUOUS
 10
4.964080
 20
4.569840
  0
SEQEND
  8
0
  0
SOLID
  8
0
 62
    15
 10
4.251280
 20
2.867040
 11
4.253920
 21
3.797640
 12
4.264480
 22
2.829200
 13
4.267120
 23
3.759800
  0
POLYLINE
  8
0
  6
CONTINUOUS
 66
     1
 40
0.000000
 41
0.000000
  0
VERTEX
  8
0
  6
CONTINUOUS
 10
4.251280
 20
2.867040
  0
VERTEX
  8
0
  6
CONTINUOUS
 10
4.253920
 20
3.797640
  0
VERTEX
  8
0
  6
CONTINUOUS
 10
4.267120
 20
3.759800
  0
VERTEX
  8
0
  6
CONTINUOUS
 10
4.264480
 20
2.829200
  0
VERTEX
  8
0
  6
CONTINUOUS
 10
4.251280
 20
2.867040
  0
SEQEND
  8
0
  0
SOLID
  8
0
 62
    15
 10
3.117400
 20
2.596000
 11
3.120040
 21
3.526600
 12
3.145120
 22
2.608320
 13
3.148200
 23
3.538920
  0
POLYLINE
  8
0
  6
CONTINUOUS
 66
     1
 40
0.000000
 41
0.000000
  0
VERTEX
  8
0
  6
CONTINUOUS
 10
3.117400
 20
2.596000
  0
VERTEX
  8
0
  6
CONTINUOUS
 10
3.120040
 20
3.526600
  0
VERTEX
  8
0
  6
CONTINUOUS
 10
3.148200
 20
3.538920
  0
VERTEX
  8
0
  6
CONTINUOUS
 10
3.145120
 20
2.608320
  0
VERTEX
  8
0
  6
CONTINUOUS
 10
3.117400
 20
2.596000
  0
SEQEND
  8
0
  0
SOLID
  8
0
 62
    15
 10
3.145120
 20
2.608320
 11
3.148200
 21
3.538920
 12
3.170640
 22
2.625480
 13
3.173720
 23
3.556080
  0
POLYLINE
  8
0
  6
CONTINUOUS
 66
     1
 40
0.000000
 41
0.000000
  0
VERTEX
  8
0
  6
CONTINUOUS
 10
3.145120
 20
2.608320
  0
VERTEX
  8
0
  6
CONTINUOUS
 10
3.148200
 20
3.538920
  0
VERTEX
  8
0
  6
CONTINUOUS
 10
3.173720
 20
3.556080
  0
VERTEX
  8
0
  6
CONTINUOUS
 10
3.170640
 20
2.625480
  0
VERTEX
  8
0
  6
CONTINUOUS
 10
3.145120
 20
2.608320
  0
SEQEND
  8
0
  0
SOLID
  8
0
 62
    15
 10
3.170640
 20
2.625480
 11
3.173720
 21
3.556080
 12
3.193520
 22
2.647480
 13
3.196160
 23
3.578080
  0
POLYLINE
  8
0
  6
CONTINUOUS
 66
     1
 40
0.000000
 41
0.000000
  0
VERTEX
  8
0
  6
CONTINUOUS
 10
3.170640
 20
2.625480
  0
VERTEX
  8
0
  6
CONTINUOUS
 10
3.173720
 20
3.556080
  0
VERTEX
  8
0
  6
CONTINUOUS
 10
3.196160
 20
3.578080
  0
VERTEX
  8
0
  6
CONTINUOUS
 10
3.193520
 20
2.647480
  0
VERTEX
  8
0
  6
CONTINUOUS
 10
3.170640
 20
2.625480
  0
SEQEND
  8
0
  0
SOLID
  8
0
 62
    15
 10
3.193520
 20
2.647480
 11
3.196160
 21
3.578080
 12
3.212440
 22
2.675200
 13
3.215080
 23
3.605360
  0
POLYLINE
  8
0
  6
CONTINUOUS
 66
     1
 40
0.000000
 41
0.000000
  0
VERTEX
  8
0
  6
CONTINUOUS
 10
3.193520
 20
2.647480
  0
VERTEX
  8
0
  6
CONTINUOUS
 10
3.196160
 20
3.578080
  0
VERTEX
  8
0
  6
CONTINUOUS
 10
3.215080
 20
3.605360
  0
VERTEX
  8
0
  6
CONTINUOUS
 10
3.212440
 20
2.675200
  0
VERTEX
  8
0
  6
CONTINUOUS
 10
3.193520
 20
2.647480
  0
SEQEND
  8
0
  0
SOLID
  8
0
 62
    15
 10
3.212440
 20
2.675200
 11
3.215080
 21
3.605360
 12
3.227400
 22
2.708200
 13
3.230480
 23
3.638800
  0
POLYLINE
  8
0
  6
CONTINUOUS
 66
     1
 40
0.000000
 41
0.000000
  0
VERTEX
  8
0
  6
CONTINUOUS
 10
3.212440
 20
2.675200
  0
VERTEX
  8
0
  6
CONTINUOUS
 10
3.215080
 20
3.605360
  0
VERTEX
  8
0
  6
CONTINUOUS
 10
3.230480
 20
3.638800
  0
VERTEX
  8
0
  6
CONTINUOUS
 10
3.227400
 20
2.708200
  0
VERTEX
  8
0
  6
CONTINUOUS
 10
3.212440
 20
2.675200
  0
SEQEND
  8
0
  0
SOLID
  8
0
 62
    15
 10
3.227400
 20
2.708200
 11
3.230480
 21
3.638800
 12
3.238400
 22
2.747360
 13
3.241040
 23
3.677960
  0
POLYLINE
  8
0
  6
CONTINUOUS
 66
     1
 40
0.000000
 41
0.000000
  0
VERTEX
  8
0
  6
CONTINUOUS
 10
3.227400
 20
2.708200
  0
VERTEX
  8
0
  6
CONTINUOUS
 10
3.230480
 20
3.638800
  0
VERTEX
  8
0
  6
CONTINUOUS
 10
3.241040
 20
3.677960
  0
VERTEX
  8
0
  6
CONTINUOUS
 10
3.238400
 20
2.747360
  0
VERTEX
  8
0
  6
CONTINUOUS
 10
3.227400
 20
2.708200
  0
SEQEND
  8
0
  0
SOLID
  8
0
 62
    15
 10
3.238400
 20
2.747360
 11
3.241040
 21
3.677960
 12
3.244560
 22
2.793120
 13
3.247200
 23
3.723720
  0
POLYLINE
  8
0
  6
CONTINUOUS
 66
     1
 40
0.000000
 41
0.000000
  0
VERTEX
  8
0
  6
CONTINUOUS
 10
3.238400
 20
2.747360
  0
VERTEX
  8
0
  6
CONTINUOUS
 10
3.241040
 20
3.677960
  0
VERTEX
  8
0
  6
CONTINUOUS
 10
3.247200
 20
3.723720
  0
VERTEX
  8
0
  6
CONTINUOUS
 10
3.244560
 20
2.793120
  0
VERTEX
  8
0
  6
CONTINUOUS
 10
3.238400
 20
2.747360
  0
SEQEND
  8
0
  0
SOLID
  8
0
 62
    15
 10
3.244560
 20
2.797080
 11
3.247200
 21
3.727680
 12
3.358960
 22
2.797080
 13
3.362040
 23
3.727680
  0
POLYLINE
  8
0
  6
CONTINUOUS
 66
     1
 40
0.000000
 41
0.000000
  0
VERTEX
  8
0
  6
CONTINUOUS
 10
3.244560
 20
2.797080
  0
VERTEX
  8
0
  6
CONTINUOUS
 10
3.247200
 20
3.727680
  0
VERTEX
  8
0
  6
CONTINUOUS
 10
3.362040
 20
3.727680
  0
VERTEX
  8
0
  6
CONTINUOUS
 10
3.358960
 20
2.797080
  0
VERTEX
  8
0
  6
CONTINUOUS
 10
3.244560
 20
2.797080
  0
SEQEND
  8
0
  0
SOLID
  8
0
 62
    15
 10
3.358960
 20
2.894320
 11
3.362040
 21
3.824920
 12
3.361600
 22
2.894320
 13
3.364680
 23
3.824920
  0
POLYLINE
  8
0
  6
CONTINUOUS
 66
     1
 40
0.000000
 41
0.000000
  0
VERTEX
  8
0
  6
CONTINUOUS
 10
3.358960
 20
2.894320
  0
VERTEX
  8
0
  6
CONTINUOUS
 10
3.362040
 20
3.824920
  0
VERTEX
  8
0
  6
CONTINUOUS
 10
3.364680
 20
3.824920
  0
VERTEX
  8
0
  6
CONTINUOUS
 10
3.361600
 20
2.894320
  0
VERTEX
  8
0
  6
CONTINUOUS
 10
3.358960
 20
2.894320
  0
SEQEND
  8
0
  0
SOLID
  8
0
 62
    15
 10
3.361600
 20
2.894320
 11
3.364680
 21
3.824920
 12
3.425400
 22
2.893880
 13
3.428040
 23
3.824480
  0
POLYLINE
  8
0
  6
CONTINUOUS
 66
     1
 40
0.000000
 41
0.000000
  0
VERTEX
  8
0
  6
CONTINUOUS
 10
3.361600
 20
2.894320
  0
VERTEX
  8
0
  6
CONTINUOUS
 10
3.364680
 20
3.824920
  0
VERTEX
  8
0
  6
CONTINUOUS
 10
3.428040
 20
3.824480
  0
VERTEX
  8
0
  6
CONTINUOUS
 10
3.425400
 20
2.893880
  0
VERTEX
  8
0
  6
CONTINUOUS
 10
3.361600
 20
2.894320
  0
SEQEND
  8
0
  0
SOLID
  8
0
 62
    15
 10
3.425400
 20
2.893880
 11
3.428040
 21
3.824480
 12
3.486560
 22
2.904440
 13
3.489200
 23
3.835040
  0
POLYLINE
  8
0
  6
CONTINUOUS
 66
     1
 40
0.000000
 41
0.000000
  0
VERTEX
  8
0
  6
CONTINUOUS
 10
3.425400
 20
2.893880
  0
VERTEX
  8
0
  6
CONTINUOUS
 10
3.428040
 20
3.824480
  0
VERTEX
  8
0
  6
CONTINUOUS
 10
3.489200
 20
3.835040
  0
VERTEX
  8
0
  6
CONTINUOUS
 10
3.486560
 20
2.904440
  0
VERTEX
  8
0
  6
CONTINUOUS
 10
3.425400
 20
2.893880
  0
SEQEND
  8
0
  0
SOLID
  8
0
 62
    15
 10
3.486560
 20
2.904440
 11
3.489200
 21
3.835040
 12
3.544640
 22
2.926440
 13
3.547280
 23
3.857040
  0
POLYLINE
  8
0
  6
CONTINUOUS
 66
     1
 40
0.000000
 41
0.000000
  0
VERTEX
  8
0
  6
CONTINUOUS
 10
3.486560
 20
2.904440
  0
VERTEX
  8
0
  6
CONTINUOUS
 10
3.489200
 20
3.835040
  0
VERTEX
  8
0
  6
CONTINUOUS
 10
3.547280
 20
3.857040
  0
VERTEX
  8
0
  6
CONTINUOUS
 10
3.544640
 20
2.926440
  0
VERTEX
  8
0
  6
CONTINUOUS
 10
3.486560
 20
2.904440
  0
SEQEND
  8
0
  0
SOLID
  8
0
 62
    15
 10
3.544640
 20
2.926440
 11
3.547280
 21
3.857040
 12
3.597440
 22
2.959880
 13
3.600080
 23
3.890480
  0
POLYLINE
  8
0
  6
CONTINUOUS
 66
     1
 40
0.000000
 41
0.000000
  0
VERTEX
  8
0
  6
CONTINUOUS
 10
3.544640
 20
2.926440
  0
VERTEX
  8
0
  6
CONTINUOUS
 10
3.547280
 20
3.857040
  0
VERTEX
  8
0
  6
CONTINUOUS
 10
3.600080
 20
3.890480
  0
VERTEX
  8
0
  6
CONTINUOUS
 10
3.597440
 20
2.959880
  0
VERTEX
  8
0
  6
CONTINUOUS
 10
3.544640
 20
2.926440
  0
SEQEND
  8
0
  0
SOLID
  8
0
 62
    15
 10
3.597440
 20
2.959880
 11
3.600080
 21
3.890480
 12
3.643640
 22
3.004760
 13
3.646280
 23
3.934920
  0
POLYLINE
  8
0
  6
CONTINUOUS
 66
     1
 40
0.000000
 41
0.000000
  0
VERTEX
  8
0
  6
CONTINUOUS
 10
3.597440
 20
2.959880
  0
VERTEX
  8
0
  6
CONTINUOUS
 10
3.600080
 20
3.890480
  0
VERTEX
  8
0
  6
CONTINUOUS
 10
3.646280
 20
3.934920
  0
VERTEX
  8
0
  6
CONTINUOUS
 10
3.643640
 20
3.004760
  0
VERTEX
  8
0
  6
CONTINUOUS
 10
3.597440
 20
2.959880
  0
SEQEND
  8
0
  0
SOLID
  8
0
 62
    15
 10
3.643640
 20
3.004760
 11
3.646280
 21
3.934920
 12
3.682360
 22
3.061080
 13
3.685000
 23
3.991680
  0
POLYLINE
  8
0
  6
CONTINUOUS
 66
     1
 40
0.000000
 41
0.000000
  0
VERTEX
  8
0
  6
CONTINUOUS
 10
3.643640
 20
3.004760
  0
VERTEX
  8
0
  6
CONTINUOUS
 10
3.646280
 20
3.934920
  0
VERTEX
  8
0
  6
CONTINUOUS
 10
3.685000
 20
3.991680
  0
VERTEX
  8
0
  6
CONTINUOUS
 10
3.682360
 20
3.061080
  0
VERTEX
  8
0
  6
CONTINUOUS
 10
3.643640
 20
3.004760
  0
SEQEND
  8
0
  0
SOLID
  8
0
 62
    15
 10
3.682360
 20
3.061080
 11
3.685000
 21
3.991680
 12
3.698200
 22
3.093640
 13
3.700840
 23
4.024240
  0
POLYLINE
  8
0
  6
CONTINUOUS
 66
     1
 40
0.000000
 41
0.000000
  0
VERTEX
  8
0
  6
CONTINUOUS
 10
3.682360
 20
3.061080
  0
VERTEX
  8
0
  6
CONTINUOUS
 10
3.685000
 20
3.991680
  0
VERTEX
  8
0
  6
CONTINUOUS
 10
3.700840
 20
4.024240
  0
VERTEX
  8
0
  6
CONTINUOUS
 10
3.698200
 20
3.093640
  0
VERTEX
  8
0
  6
CONTINUOUS
 10
3.682360
 20
3.061080
  0
SEQEND
  8
0
  0
SOLID
  8
0
 62
    15
 10
3.698200
 20
3.093640
 11
3.700840
 21
4.024240
 12
3.711400
 22
3.129280
 13
3.714040
 23
4.059440
  0
POLYLINE
  8
0
  6
CONTINUOUS
 66
     1
 40
0.000000
 41
0.000000
  0
VERTEX
  8
0
  6
CONTINUOUS
 10
3.698200
 20
3.093640
  0
VERTEX
  8
0
  6
CONTINUOUS
 10
3.700840
 20
4.024240
  0
VERTEX
  8
0
  6
CONTINUOUS
 10
3.714040
 20
4.059440
  0
VERTEX
  8
0
  6
CONTINUOUS
 10
3.711400
 20
3.129280
  0
VERTEX
  8
0
  6
CONTINUOUS
 10
3.698200
 20
3.093640
  0
SEQEND
  8
0
  0
SOLID
  8
0
 62
    15
 10
3.711400
 20
3.129280
 11
3.714040
 21
4.059440
 12
3.721960
 22
3.167560
 13
3.724600
 23
4.098160
  0
POLYLINE
  8
0
  6
CONTINUOUS
 66
     1
 40
0.000000
 41
0.000000
  0
VERTEX
  8
0
  6
CONTINUOUS
 10
3.711400
 20
3.129280
  0
VERTEX
  8
0
  6
CONTINUOUS
 10
3.714040
 20
4.059440
  0
VERTEX
  8
0
  6
CONTINUOUS
 10
3.724600
 20
4.098160
  0
VERTEX
  8
0
  6
CONTINUOUS
 10
3.721960
 20
3.167560
  0
VERTEX
  8
0
  6
CONTINUOUS
 10
3.711400
 20
3.129280
  0
SEQEND
  8
0
  0
SOLID
  8
0
 62
    15
 10
3.721960
 20
3.167560
 11
3.724600
 21
4.098160
 12
3.729880
 22
3.208920
 13
3.732520
 23
4.139520
  0
POLYLINE
  8
0
  6
CONTINUOUS
 66
     1
 40
0.000000
 41
0.000000
  0
VERTEX
  8
0
  6
CONTINUOUS
 10
3.721960
 20
3.167560
  0
VERTEX
  8
0
  6
CONTINUOUS
 10
3.724600
 20
4.098160
  0
VERTEX
  8
0
  6
CONTINUOUS
 10
3.732520
 20
4.139520
  0
VERTEX
  8
0
  6
CONTINUOUS
 10
3.729880
 20
3.208920
  0
VERTEX
  8
0
  6
CONTINUOUS
 10
3.721960
 20
3.167560
  0
SEQEND
  8
0
  0
SOLID
  8
0
 62
    15
 10
4.062960
 20
3.002560
 11
4.066040
 21
3.933160
 12
4.233680
 22
3.002560
 13
4.236320
 23
3.933160
  0
POLYLINE
  8
0
  6
CONTINUOUS
 66
     1
 40
0.000000
 41
0.000000
  0
VERTEX
  8
0
  6
CONTINUOUS
 10
4.062960
 20
3.002560
  0
VERTEX
  8
0
  6
CONTINUOUS
 10
4.066040
 20
3.933160
  0
VERTEX
  8
0
  6
CONTINUOUS
 10
4.236320
 20
3.933160
  0
VERTEX
  8
0
  6
CONTINUOUS
 10
4.233680
 20
3.002560
  0
VERTEX
  8
0
  6
CONTINUOUS
 10
4.062960
 20
3.002560
  0
SEQEND
  8
0
  0
SOLID
  8
0
 62
    15
 10
4.062960
 20
3.208920
 11
4.066040
 21
4.139520
 12
4.062960
 22
3.002560
 13
4.066040
 23
3.933160
  0
POLYLINE
  8
0
  6
CONTINUOUS
 66
     1
 40
0.000000
 41
0.000000
  0
VERTEX
  8
0
  6
CONTINUOUS
 10
4.062960
 20
3.208920
  0
VERTEX
  8
0
  6
CONTINUOUS
 10
4.066040
 20
4.139520
  0
VERTEX
  8
0
  6
CONTINUOUS
 10
4.066040
 20
3.933160
  0
VERTEX
  8
0
  6
CONTINUOUS
 10
4.062960
 20
3.002560
  0
VERTEX
  8
0
  6
CONTINUOUS
 10
4.062960
 20
3.208920
  0
SEQEND
  8
0
  0
SOLID
  8
0
 62
    15
 10
3.729880
 20
3.208920
 11
3.732520
 21
4.139520
 12
4.062960
 22
3.208920
 13
4.066040
 23
4.139520
  0
POLYLINE
  8
0
  6
CONTINUOUS
 66
     1
 40
0.000000
 41
0.000000
  0
VERTEX
  8
0
  6
CONTINUOUS
 10
3.729880
 20
3.208920
  0
VERTEX
  8
0
  6
CONTINUOUS
 10
3.732520
 20
4.139520
  0
VERTEX
  8
0
  6
CONTINUOUS
 10
4.066040
 20
4.139520
  0
VERTEX
  8
0
  6
CONTINUOUS
 10
4.062960
 20
3.208920
  0
VERTEX
  8
0
  6
CONTINUOUS
 10
3.729880
 20
3.208920
  0
SEQEND
  8
0
  0
SOLID
  8
0
 62
    15
 10
4.233680
 20
3.002560
 11
4.236320
 21
3.933160
 12
4.233680
 22
2.999920
 13
4.236760
 23
3.930520
  0
POLYLINE
  8
0
  6
CONTINUOUS
 66
     1
 40
0.000000
 41
0.000000
  0
VERTEX
  8
0
  6
CONTINUOUS
 10
4.233680
 20
3.002560
  0
VERTEX
  8
0
  6
CONTINUOUS
 10
4.236320
 20
3.933160
  0
VERTEX
  8
0
  6
CONTINUOUS
 10
4.236760
 20
3.930520
  0
VERTEX
  8
0
  6
CONTINUOUS
 10
4.233680
 20
2.999920
  0
VERTEX
  8
0
  6
CONTINUOUS
 10
4.233680
 20
3.002560
  0
SEQEND
  8
0
  0
SOLID
  8
0
 62
    15
 10
4.233680
 20
2.999920
 11
4.236760
 21
3.930520
 12
4.235440
 22
2.952400
 13
4.238080
 23
3.883000
  0
POLYLINE
  8
0
  6
CONTINUOUS
 66
     1
 40
0.000000
 41
0.000000
  0
VERTEX
  8
0
  6
CONTINUOUS
 10
4.233680
 20
2.999920
  0
VERTEX
  8
0
  6
CONTINUOUS
 10
4.236760
 20
3.930520
  0
VERTEX
  8
0
  6
CONTINUOUS
 10
4.238080
 20
3.883000
  0
VERTEX
  8
0
  6
CONTINUOUS
 10
4.235440
 20
2.952400
  0
VERTEX
  8
0
  6
CONTINUOUS
 10
4.233680
 20
2.999920
  0
SEQEND
  8
0
  0
SOLID
  8
0
 62
    15
 10
4.235440
 20
2.952400
 11
4.238080
 21
3.883000
 12
4.241160
 22
2.908400
 13
4.243800
 23
3.838560
  0
POLYLINE
  8
0
  6
CONTINUOUS
 66
     1
 40
0.000000
 41
0.000000
  0
VERTEX
  8
0
  6
CONTINUOUS
 10
4.235440
 20
2.952400
  0
VERTEX
  8
0
  6
CONTINUOUS
 10
4.238080
 20
3.883000
  0
VERTEX
  8
0
  6
CONTINUOUS
 10
4.243800
 20
3.838560
  0
VERTEX
  8
0
  6
CONTINUOUS
 10
4.241160
 20
2.908400
  0
VERTEX
  8
0
  6
CONTINUOUS
 10
4.235440
 20
2.952400
  0
SEQEND
  8
0
  0
SOLID
  8
0
 62
    15
 10
4.241160
 20
2.908400
 11
4.243800
 21
3.838560
 12
4.251280
 22
2.867040
 13
4.253920
 23
3.797640
  0
POLYLINE
  8
0
  6
CONTINUOUS
 66
     1
 40
0.000000
 41
0.000000
  0
VERTEX
  8
0
  6
CONTINUOUS
 10
4.241160
 20
2.908400
  0
VERTEX
  8
0
  6
CONTINUOUS
 10
4.243800
 20
3.838560
  0
VERTEX
  8
0
  6
CONTINUOUS
 10
4.253920
 20
3.797640
  0
VERTEX
  8
0
  6
CONTINUOUS
 10
4.251280
 20
2.867040
  0
VERTEX
  8
0
  6
CONTINUOUS
 10
4.241160
 20
2.908400
  0
SEQEND
  8
0
  0
SOLID
  8
0
 62
    15
 10
3.087040
 20
2.587640
 11
3.089680
 21
3.518240
 12
3.117400
 22
2.596000
 13
3.120040
 23
3.526600
  0
POLYLINE
  8
0
  6
CONTINUOUS
 66
     1
 40
0.000000
 41
0.000000
  0
VERTEX
  8
0
  6
CONTINUOUS
 10
3.087040
 20
2.587640
  0
VERTEX
  8
0
  6
CONTINUOUS
 10
3.089680
 20
3.518240
  0
VERTEX
  8
0
  6
CONTINUOUS
 10
3.120040
 20
3.526600
  0
VERTEX
  8
0
  6
CONTINUOUS
 10
3.117400
 20
2.596000
  0
VERTEX
  8
0
  6
CONTINUOUS
 10
3.087040
 20
2.587640
  0
SEQEND
  8
0
  0
SOLID
  8
0
 62
    15
 10
4.264480
 20
2.829200
 11
4.267120
 21
3.759800
 12
4.281200
 22
2.794440
 13
4.283840
 23
3.724600
  0
POLYLINE
  8
0
  6
CONTINUOUS
 66
     1
 40
0.000000
 41
0.000000
  0
VERTEX
  8
0
  6
CONTINUOUS
 10
4.264480
 20
2.829200
  0
VERTEX
  8
0
  6
CONTINUOUS
 10
4.267120
 20
3.759800
  0
VERTEX
  8
0
  6
CONTINUOUS
 10
4.283840
 20
3.724600
  0
VERTEX
  8
0
  6
CONTINUOUS
 10
4.281200
 20
2.794440
  0
VERTEX
  8
0
  6
CONTINUOUS
 10
4.264480
 20
2.829200
  0
SEQEND
  8
0
  0
SOLID
  8
0
 62
    15
 10
4.281200
 20
2.794440
 11
4.283840
 21
3.724600
 12
4.300560
 22
2.762320
 13
4.303200
 23
3.692480
  0
POLYLINE
  8
0
  6
CONTINUOUS
 66
     1
 40
0.000000
 41
0.000000
  0
VERTEX
  8
0
  6
CONTINUOUS
 10
4.281200
 20
2.794440
  0
VERTEX
  8
0
  6
CONTINUOUS
 10
4.283840
 20
3.724600
  0
VERTEX
  8
0
  6
CONTINUOUS
 10
4.303200
 20
3.692480
  0
VERTEX
  8
0
  6
CONTINUOUS
 10
4.300560
 20
2.762320
  0
VERTEX
  8
0
  6
CONTINUOUS
 10
4.281200
 20
2.794440
  0
SEQEND
  8
0
  0
SOLID
  8
0
 62
    15
 10
4.300560
 20
2.762320
 11
4.303200
 21
3.692480
 12
4.346320
 22
2.706440
 13
4.349400
 23
3.637040
  0
POLYLINE
  8
0
  6
CONTINUOUS
 66
     1
 40
0.000000
 41
0.000000
  0
VERTEX
  8
0
  6
CONTINUOUS
 10
4.300560
 20
2.762320
  0
VERTEX
  8
0
  6
CONTINUOUS
 10
4.303200
 20
3.692480
  0
VERTEX
  8
0
  6
CONTINUOUS
 10
4.349400
 20
3.637040
  0
VERTEX
  8
0
  6
CONTINUOUS
 10
4.346320
 20
2.706440
  0
VERTEX
  8
0
  6
CONTINUOUS
 10
4.300560
 20
2.762320
  0
SEQEND
  8
0
  0
SOLID
  8
0
 62
    15
 10
4.346320
 20
2.706440
 11
4.349400
 21
3.637040
 12
4.399120
 22
2.661120
 13
4.401760
 23
3.591720
  0
POLYLINE
  8
0
  6
CONTINUOUS
 66
     1
 40
0.000000
 41
0.000000
  0
VERTEX
  8
0
  6
CONTINUOUS
 10
4.346320
 20
2.706440
  0
VERTEX
  8
0
  6
CONTINUOUS
 10
4.349400
 20
3.637040
  0
VERTEX
  8
0
  6
CONTINUOUS
 10
4.401760
 20
3.591720
  0
VERTEX
  8
0
  6
CONTINUOUS
 10
4.399120
 20
2.661120
  0
VERTEX
  8
0
  6
CONTINUOUS
 10
4.346320
 20
2.706440
  0
SEQEND
  8
0
  0
SOLID
  8
0
 62
     7
 10
4.399120
 20
2.661120
 11
4.401760
 21
3.591720
 12
4.455440
 22
2.625920
 13
4.458080
 23
3.556520
  0
POLYLINE
  8
0
  6
CONTINUOUS
 66
     1
 40
0.000000
 41
0.000000
  0
VERTEX
  8
0
  6
CONTINUOUS
 10
4.399120
 20
2.661120
  0
VERTEX
  8
0
  6
CONTINUOUS
 10
4.401760
 20
3.591720
  0
VERTEX
  8
0
  6
CONTINUOUS
 10
4.458080
 20
3.556520
  0
VERTEX
  8
0
  6
CONTINUOUS
 10
4.455440
 20
2.625920
  0
VERTEX
  8
0
  6
CONTINUOUS
 10
4.399120
 20
2.661120
  0
SEQEND
  8
0
  0
SOLID
  8
0
 62
     7
 10
4.455440
 20
2.625920
 11
4.458080
 21
3.556520
 12
4.512640
 22
2.600400
 13
4.515280
 23
3.531000
  0
POLYLINE
  8
0
  6
CONTINUOUS
 66
     1
 40
0.000000
 41
0.000000
  0
VERTEX
  8
0
  6
CONTINUOUS
 10
4.455440
 20
2.625920
  0
VERTEX
  8
0
  6
CONTINUOUS
 10
4.458080
 20
3.556520
  0
VERTEX
  8
0
  6
CONTINUOUS
 10
4.515280
 20
3.531000
  0
VERTEX
  8
0
  6
CONTINUOUS
 10
4.512640
 20
2.600400
  0
VERTEX
  8
0
  6
CONTINUOUS
 10
4.455440
 20
2.625920
  0
SEQEND
  8
0
  0
SOLID
  8
0
 62
     7
 10
4.512640
 20
2.600400
 11
4.515280
 21
3.531000
 12
4.567200
 22
2.583680
 13
4.569840
 23
3.514280
  0
POLYLINE
  8
0
  6
CONTINUOUS
 66
     1
 40
0.000000
 41
0.000000
  0
VERTEX
  8
0
  6
CONTINUOUS
 10
4.512640
 20
2.600400
  0
VERTEX
  8
0
  6
CONTINUOUS
 10
4.515280
 20
3.531000
  0
VERTEX
  8
0
  6
CONTINUOUS
 10
4.569840
 20
3.514280
  0
VERTEX
  8
0
  6
CONTINUOUS
 10
4.567200
 20
2.583680
  0
VERTEX
  8
0
  6
CONTINUOUS
 10
4.512640
 20
2.600400
  0
SEQEND
  8
0
  0
SOLID
  8
0
 62
     7
 10
4.567200
 20
2.583680
 11
4.569840
 21
3.514280
 12
4.571160
 22
2.582360
 13
4.573800
 23
3.512960
  0
POLYLINE
  8
0
  6
CONTINUOUS
 66
     1
 40
0.000000
 41
0.000000
  0
VERTEX
  8
0
  6
CONTINUOUS
 10
4.567200
 20
2.583680
  0
VERTEX
  8
0
  6
CONTINUOUS
 10
4.569840
 20
3.514280
  0
VERTEX
  8
0
  6
CONTINUOUS
 10
4.573800
 20
3.512960
  0
VERTEX
  8
0
  6
CONTINUOUS
 10
4.571160
 20
2.582360
  0
VERTEX
  8
0
  6
CONTINUOUS
 10
4.567200
 20
2.583680
  0
SEQEND
  8
0
  0
SOLID
  8
0
 62
    15
 10
4.571160
 20
2.582360
 11
4.573800
 21
3.512960
 12
4.577760
 22
2.582360
 13
4.580400
 23
3.512960
  0
POLYLINE
  8
0
  6
CONTINUOUS
 66
     1
 40
0.000000
 41
0.000000
  0
VERTEX
  8
0
  6
CONTINUOUS
 10
4.571160
 20
2.582360
  0
VERTEX
  8
0
  6
CONTINUOUS
 10
4.573800
 20
3.512960
  0
VERTEX
  8
0
  6
CONTINUOUS
 10
4.580400
 20
3.512960
  0
VERTEX
  8
0
  6
CONTINUOUS
 10
4.577760
 20
2.582360
  0
VERTEX
  8
0
  6
CONTINUOUS
 10
4.571160
 20
2.582360
  0
SEQEND
  8
0
  0
SOLID
  8
0
 62
    15
 10
4.577760
 20
2.583680
 11
4.580400
 21
3.514280
 12
4.584800
 22
2.636480
 13
4.587440
 23
3.567080
  0
POLYLINE
  8
0
  6
CONTINUOUS
 66
     1
 40
0.000000
 41
0.000000
  0
VERTEX
  8
0
  6
CONTINUOUS
 10
4.577760
 20
2.583680
  0
VERTEX
  8
0
  6
CONTINUOUS
 10
4.580400
 20
3.514280
  0
VERTEX
  8
0
  6
CONTINUOUS
 10
4.587440
 20
3.567080
  0
VERTEX
  8
0
  6
CONTINUOUS
 10
4.584800
 20
2.636480
  0
VERTEX
  8
0
  6
CONTINUOUS
 10
4.577760
 20
2.583680
  0
SEQEND
  8
0
  0
SOLID
  8
0
 62
    15
 10
4.584800
 20
2.636480
 11
4.587440
 21
3.567080
 12
4.598440
 22
2.680040
 13
4.601080
 23
3.610640
  0
POLYLINE
  8
0
  6
CONTINUOUS
 66
     1
 40
0.000000
 41
0.000000
  0
VERTEX
  8
0
  6
CONTINUOUS
 10
4.584800
 20
2.636480
  0
VERTEX
  8
0
  6
CONTINUOUS
 10
4.587440
 20
3.567080
  0
VERTEX
  8
0
  6
CONTINUOUS
 10
4.601080
 20
3.610640
  0
VERTEX
  8
0
  6
CONTINUOUS
 10
4.598440
 20
2.680040
  0
VERTEX
  8
0
  6
CONTINUOUS
 10
4.584800
 20
2.636480
  0
SEQEND
  8
0
  0
SOLID
  8
0
 62
    15
 10
4.598440
 20
2.680040
 11
4.601080
 21
3.610640
 12
4.616920
 22
2.714360
 13
4.619560
 23
3.644960
  0
POLYLINE
  8
0
  6
CONTINUOUS
 66
     1
 40
0.000000
 41
0.000000
  0
VERTEX
  8
0
  6
CONTINUOUS
 10
4.598440
 20
2.680040
  0
VERTEX
  8
0
  6
CONTINUOUS
 10
4.601080
 20
3.610640
  0
VERTEX
  8
0
  6
CONTINUOUS
 10
4.619560
 20
3.644960
  0
VERTEX
  8
0
  6
CONTINUOUS
 10
4.616920
 20
2.714360
  0
VERTEX
  8
0
  6
CONTINUOUS
 10
4.598440
 20
2.680040
  0
SEQEND
  8
0
  0
SOLID
  8
0
 62
    15
 10
4.616920
 20
2.714360
 11
4.619560
 21
3.644960
 12
4.640240
 22
2.740760
 13
4.643320
 23
3.671360
  0
POLYLINE
  8
0
  6
CONTINUOUS
 66
     1
 40
0.000000
 41
0.000000
  0
VERTEX
  8
0
  6
CONTINUOUS
 10
4.616920
 20
2.714360
  0
VERTEX
  8
0
  6
CONTINUOUS
 10
4.619560
 20
3.644960
  0
VERTEX
  8
0
  6
CONTINUOUS
 10
4.643320
 20
3.671360
  0
VERTEX
  8
0
  6
CONTINUOUS
 10
4.640240
 20
2.740760
  0
VERTEX
  8
0
  6
CONTINUOUS
 10
4.616920
 20
2.714360
  0
SEQEND
  8
0
  0
SOLID
  8
0
 62
    15
 10
4.640240
 20
2.740760
 11
4.643320
 21
3.671360
 12
4.667520
 22
2.760120
 13
4.670160
 23
3.690280
  0
POLYLINE
  8
0
  6
CONTINUOUS
 66
     1
 40
0.000000
 41
0.000000
  0
VERTEX
  8
0
  6
CONTINUOUS
 10
4.640240
 20
2.740760
  0
VERTEX
  8
0
  6
CONTINUOUS
 10
4.643320
 20
3.671360
  0
VERTEX
  8
0
  6
CONTINUOUS
 10
4.670160
 20
3.690280
  0
VERTEX
  8
0
  6
CONTINUOUS
 10
4.667520
 20
2.760120
  0
VERTEX
  8
0
  6
CONTINUOUS
 10
4.640240
 20
2.740760
  0
SEQEND
  8
0
  0
SOLID
  8
0
 62
    15
 10
4.667520
 20
2.760120
 11
4.670160
 21
3.690280
 12
4.697000
 22
2.772000
 13
4.699640
 23
3.702600
  0
POLYLINE
  8
0
  6
CONTINUOUS
 66
     1
 40
0.000000
 41
0.000000
  0
VERTEX
  8
0
  6
CONTINUOUS
 10
4.667520
 20
2.760120
  0
VERTEX
  8
0
  6
CONTINUOUS
 10
4.670160
 20
3.690280
  0
VERTEX
  8
0
  6
CONTINUOUS
 10
4.699640
 20
3.702600
  0
VERTEX
  8
0
  6
CONTINUOUS
 10
4.697000
 20
2.772000
  0
VERTEX
  8
0
  6
CONTINUOUS
 10
4.667520
 20
2.760120
  0
SEQEND
  8
0
  0
SOLID
  8
0
 62
    15
 10
4.697000
 20
2.772000
 11
4.699640
 21
3.702600
 12
4.728240
 22
2.778160
 13
4.730880
 23
3.708760
  0
POLYLINE
  8
0
  6
CONTINUOUS
 66
     1
 40
0.000000
 41
0.000000
  0
VERTEX
  8
0
  6
CONTINUOUS
 10
4.697000
 20
2.772000
  0
VERTEX
  8
0
  6
CONTINUOUS
 10
4.699640
 20
3.702600
  0
VERTEX
  8
0
  6
CONTINUOUS
 10
4.730880
 20
3.708760
  0
VERTEX
  8
0
  6
CONTINUOUS
 10
4.728240
 20
2.778160
  0
VERTEX
  8
0
  6
CONTINUOUS
 10
4.697000
 20
2.772000
  0
SEQEND
  8
0
  0
SOLID
  8
0
 62
    15
 10
4.728240
 20
2.778160
 11
4.730880
 21
3.708760
 12
4.760360
 22
2.779040
 13
4.763000
 23
3.709640
  0
POLYLINE
  8
0
  6
CONTINUOUS
 66
     1
 40
0.000000
 41
0.000000
  0
VERTEX
  8
0
  6
CONTINUOUS
 10
4.728240
 20
2.778160
  0
VERTEX
  8
0
  6
CONTINUOUS
 10
4.730880
 20
3.708760
  0
VERTEX
  8
0
  6
CONTINUOUS
 10
4.763000
 20
3.709640
  0
VERTEX
  8
0
  6
CONTINUOUS
 10
4.760360
 20
2.779040
  0
VERTEX
  8
0
  6
CONTINUOUS
 10
4.728240
 20
2.778160
  0
SEQEND
  8
0
  0
SOLID
  8
0
 62
    15
 10
4.760360
 20
2.779040
 11
4.763000
 21
3.709640
 12
4.792480
 22
2.775080
 13
4.795120
 23
3.705240
  0
POLYLINE
  8
0
  6
CONTINUOUS
 66
     1
 40
0.000000
 41
0.000000
  0
VERTEX
  8
0
  6
CONTINUOUS
 10
4.760360
 20
2.779040
  0
VERTEX
  8
0
  6
CONTINUOUS
 10
4.763000
 20
3.709640
  0
VERTEX
  8
0
  6
CONTINUOUS
 10
4.795120
 20
3.705240
  0
VERTEX
  8
0
  6
CONTINUOUS
 10
4.792480
 20
2.775080
  0
VERTEX
  8
0
  6
CONTINUOUS
 10
4.760360
 20
2.779040
  0
SEQEND
  8
0
  0
SOLID
  8
0
 62
     7
 10
4.792480
 20
2.775080
 11
4.795120
 21
3.705240
 12
4.823280
 22
2.766720
 13
4.825920
 23
3.697320
  0
POLYLINE
  8
0
  6
CONTINUOUS
 66
     1
 40
0.000000
 41
0.000000
  0
VERTEX
  8
0
  6
CONTINUOUS
 10
4.792480
 20
2.775080
  0
VERTEX
  8
0
  6
CONTINUOUS
 10
4.795120
 20
3.705240
  0
VERTEX
  8
0
  6
CONTINUOUS
 10
4.825920
 20
3.697320
  0
VERTEX
  8
0
  6
CONTINUOUS
 10
4.823280
 20
2.766720
  0
VERTEX
  8
0
  6
CONTINUOUS
 10
4.792480
 20
2.775080
  0
SEQEND
  8
0
  0
SOLID
  8
0
 62
     7
 10
4.823280
 20
2.766720
 11
4.825920
 21
3.697320
 12
4.851880
 22
2.755280
 13
4.854960
 23
3.685440
  0
POLYLINE
  8
0
  6
CONTINUOUS
 66
     1
 40
0.000000
 41
0.000000
  0
VERTEX
  8
0
  6
CONTINUOUS
 10
4.823280
 20
2.766720
  0
VERTEX
  8
0
  6
CONTINUOUS
 10
4.825920
 20
3.697320
  0
VERTEX
  8
0
  6
CONTINUOUS
 10
4.854960
 20
3.685440
  0
VERTEX
  8
0
  6
CONTINUOUS
 10
4.851880
 20
2.755280
  0
VERTEX
  8
0
  6
CONTINUOUS
 10
4.823280
 20
2.766720
  0
SEQEND
  8
0
  0
SOLID
  8
0
 62
    15
 10
4.851880
 20
2.755280
 11
4.854960
 21
3.685440
 12
4.877840
 22
2.740760
 13
4.880920
 23
3.671360
  0
POLYLINE
  8
0
  6
CONTINUOUS
 66
     1
 40
0.000000
 41
0.000000
  0
VERTEX
  8
0
  6
CONTINUOUS
 10
4.851880
 20
2.755280
  0
VERTEX
  8
0
  6
CONTINUOUS
 10
4.854960
 20
3.685440
  0
VERTEX
  8
0
  6
CONTINUOUS
 10
4.880920
 20
3.671360
  0
VERTEX
  8
0
  6
CONTINUOUS
 10
4.877840
 20
2.740760
  0
VERTEX
  8
0
  6
CONTINUOUS
 10
4.851880
 20
2.755280
  0
SEQEND
  8
0
  0
SOLID
  8
0
 62
    15
 10
4.877840
 20
2.740760
 11
4.880920
 21
3.671360
 12
4.900280
 22
2.724480
 13
4.902920
 23
3.654640
  0
POLYLINE
  8
0
  6
CONTINUOUS
 66
     1
 40
0.000000
 41
0.000000
  0
VERTEX
  8
0
  6
CONTINUOUS
 10
4.877840
 20
2.740760
  0
VERTEX
  8
0
  6
CONTINUOUS
 10
4.880920
 20
3.671360
  0
VERTEX
  8
0
  6
CONTINUOUS
 10
4.902920
 20
3.654640
  0
VERTEX
  8
0
  6
CONTINUOUS
 10
4.900280
 20
2.724480
  0
VERTEX
  8
0
  6
CONTINUOUS
 10
4.877840
 20
2.740760
  0
SEQEND
  8
0
  0
SOLID
  8
0
 62
    15
 10
4.900280
 20
2.724480
 11
4.902920
 21
3.654640
 12
4.917440
 22
2.706440
 13
4.920080
 23
3.637040
  0
POLYLINE
  8
0
  6
CONTINUOUS
 66
     1
 40
0.000000
 41
0.000000
  0
VERTEX
  8
0
  6
CONTINUOUS
 10
4.900280
 20
2.724480
  0
VERTEX
  8
0
  6
CONTINUOUS
 10
4.902920
 20
3.654640
  0
VERTEX
  8
0
  6
CONTINUOUS
 10
4.920080
 20
3.637040
  0
VERTEX
  8
0
  6
CONTINUOUS
 10
4.917440
 20
2.706440
  0
VERTEX
  8
0
  6
CONTINUOUS
 10
4.900280
 20
2.724480
  0
SEQEND
  8
0
  0
SOLID
  8
0
 62
    15
 10
4.917440
 20
2.706440
 11
4.920080
 21
3.637040
 12
4.928880
 22
2.687960
 13
4.931520
 23
3.618560
  0
POLYLINE
  8
0
  6
CONTINUOUS
 66
     1
 40
0.000000
 41
0.000000
  0
VERTEX
  8
0
  6
CONTINUOUS
 10
4.917440
 20
2.706440
  0
VERTEX
  8
0
  6
CONTINUOUS
 10
4.920080
 20
3.637040
  0
VERTEX
  8
0
  6
CONTINUOUS
 10
4.931520
 20
3.618560
  0
VERTEX
  8
0
  6
CONTINUOUS
 10
4.928880
 20
2.687960
  0
VERTEX
  8
0
  6
CONTINUOUS
 10
4.917440
 20
2.706440
  0
SEQEND
  8
0
  0
SOLID
  8
0
 62
    15
 10
4.933720
 20
2.669040
 11
4.936360
 21
3.599640
 12
4.933720
 22
2.407680
 13
4.936360
 23
3.338280
  0
POLYLINE
  8
0
  6
CONTINUOUS
 66
     1
 40
0.000000
 41
0.000000
  0
VERTEX
  8
0
  6
CONTINUOUS
 10
4.933720
 20
2.669040
  0
VERTEX
  8
0
  6
CONTINUOUS
 10
4.936360
 20
3.599640
  0
VERTEX
  8
0
  6
CONTINUOUS
 10
4.936360
 20
3.338280
  0
VERTEX
  8
0
  6
CONTINUOUS
 10
4.933720
 20
2.407680
  0
VERTEX
  8
0
  6
CONTINUOUS
 10
4.933720
 20
2.669040
  0
SEQEND
  8
0
  0
SOLID
  8
0
 62
    15
 10
4.928880
 20
2.687960
 11
4.931520
 21
3.618560
 12
4.933720
 22
2.669040
 13
4.936360
 23
3.599640
  0
POLYLINE
  8
0
  6
CONTINUOUS
 66
     1
 40
0.000000
 41
0.000000
  0
VERTEX
  8
0
  6
CONTINUOUS
 10
4.928880
 20
2.687960
  0
VERTEX
  8
0
  6
CONTINUOUS
 10
4.931520
 20
3.618560
  0
VERTEX
  8
0
  6
CONTINUOUS
 10
4.936360
 20
3.599640
  0
VERTEX
  8
0
  6
CONTINUOUS
 10
4.933720
 20
2.669040
  0
VERTEX
  8
0
  6
CONTINUOUS
 10
4.928880
 20
2.687960
  0
SEQEND
  8
0
  0
SOLID
  8
0
 62
    15
 10
3.081760
 20
2.579720
 11
3.084400
 21
3.510320
 12
3.087040
 22
2.587640
 13
3.089680
 23
3.518240
  0
POLYLINE
  8
0
  6
CONTINUOUS
 66
     1
 40
0.000000
 41
0.000000
  0
VERTEX
  8
0
  6
CONTINUOUS
 10
3.081760
 20
2.579720
  0
VERTEX
  8
0
  6
CONTINUOUS
 10
3.084400
 20
3.510320
  0
VERTEX
  8
0
  6
CONTINUOUS
 10
3.089680
 20
3.518240
  0
VERTEX
  8
0
  6
CONTINUOUS
 10
3.087040
 20
2.587640
  0
VERTEX
  8
0
  6
CONTINUOUS
 10
3.081760
 20
2.579720
  0
SEQEND
  8
0
  0
POLYLINE
  8
0
  6
CONTINUOUS
 66
     1
 40
0.000000
 41
0.000000
  0
VERTEX
  8
0
  6
CONTINUOUS
 10
3.087040
 20
2.587640
  0
VERTEX
  8
0
  6
CONTINUOUS
 10
3.117400
 20
2.596000
  0
VERTEX
  8
0
  6
CONTINUOUS
 10
3.145120
 20
2.608320
  0
VERTEX
  8
0
  6
CONTINUOUS
 10
3.170640
 20
2.625480
  0
VERTEX
  8
0
  6
CONTINUOUS
 10
3.193520
 20
2.647480
  0
VERTEX
  8
0
  6
CONTINUOUS
 10
3.212440
 20
2.675200
  0
VERTEX
  8
0
  6
CONTINUOUS
 10
3.227400
 20
2.708200
  0
VERTEX
  8
0
  6
CONTINUOUS
 10
3.238400
 20
2.747360
  0
VERTEX
  8
0
  6
CONTINUOUS
 10
3.244560
 20
2.797080
  0
VERTEX
  8
0
  6
CONTINUOUS
 10
3.358960
 20
2.797080
  0
VERTEX
  8
0
  6
CONTINUOUS
 10
3.358960
 20
2.894320
  0
VERTEX
  8
0
  6
CONTINUOUS
 10
3.425400
 20
2.893880
  0
VERTEX
  8
0
  6
CONTINUOUS
 10
3.486560
 20
2.904440
  0
VERTEX
  8
0
  6
CONTINUOUS
 10
3.544640
 20
2.926440
  0
VERTEX
  8
0
  6
CONTINUOUS
 10
3.597440
 20
2.959880
  0
VERTEX
  8
0
  6
CONTINUOUS
 10
3.643640
 20
3.004760
  0
VERTEX
  8
0
  6
CONTINUOUS
 10
3.682360
 20
3.061080
  0
VERTEX
  8
0
  6
CONTINUOUS
 10
3.698200
 20
3.093640
  0
VERTEX
  8
0
  6
CONTINUOUS
 10
3.711400
 20
3.129280
  0
VERTEX
  8
0
  6
CONTINUOUS
 10
3.721960
 20
3.167560
  0
VERTEX
  8
0
  6
CONTINUOUS
 10
3.729880
 20
3.208920
  0
VERTEX
  8
0
  6
CONTINUOUS
 10
4.062960
 20
3.208920
  0
VERTEX
  8
0
  6
CONTINUOUS
 10
4.062960
 20
3.002560
  0
VERTEX
  8
0
  6
CONTINUOUS
 10
4.233680
 20
3.002560
  0
VERTEX
  8
0
  6
CONTINUOUS
 10
4.235440
 20
2.952400
  0
VERTEX
  8
0
  6
CONTINUOUS
 10
4.241160
 20
2.908400
  0
VERTEX
  8
0
  6
CONTINUOUS
 10
4.251280
 20
2.867040
  0
VERTEX
  8
0
  6
CONTINUOUS
 10
4.264480
 20
2.829200
  0
VERTEX
  8
0
  6
CONTINUOUS
 10
4.281200
 20
2.794440
  0
VERTEX
  8
0
  6
CONTINUOUS
 10
4.300560
 20
2.762320
  0
VERTEX
  8
0
  6
CONTINUOUS
 10
4.346320
 20
2.706440
  0
VERTEX
  8
0
  6
CONTINUOUS
 10
4.399120
 20
2.661120
  0
VERTEX
  8
0
  6
CONTINUOUS
 10
4.455440
 20
2.625920
  0
VERTEX
  8
0
  6
CONTINUOUS
 10
4.512640
 20
2.600400
  0
VERTEX
  8
0
  6
CONTINUOUS
 10
4.571160
 20
2.582360
  0
VERTEX
  8
0
  6
CONTINUOUS
 10
4.577760
 20
2.582360
  0
VERTEX
  8
0
  6
CONTINUOUS
 10
4.584800
 20
2.636480
  0
VERTEX
  8
0
  6
CONTINUOUS
 10
4.598440
 20
2.680040
  0
VERTEX
  8
0
  6
CONTINUOUS
 10
4.616920
 20
2.714360
  0
VERTEX
  8
0
  6
CONTINUOUS
 10
4.640240
 20
2.740760
  0
VERTEX
  8
0
  6
CONTINUOUS
 10
4.667520
 20
2.760120
  0
VERTEX
  8
0
  6
CONTINUOUS
 10
4.697000
 20
2.772000
  0
VERTEX
  8
0
  6
CONTINUOUS
 10
4.728240
 20
2.778160
  0
VERTEX
  8
0
  6
CONTINUOUS
 10
4.760360
 20
2.779040
  0
VERTEX
  8
0
  6
CONTINUOUS
 10
4.792480
 20
2.775080
  0
VERTEX
  8
0
  6
CONTINUOUS
 10
4.823280
 20
2.766720
  0
VERTEX
  8
0
  6
CONTINUOUS
 10
4.851880
 20
2.755280
  0
VERTEX
  8
0
  6
CONTINUOUS
 10
4.877840
 20
2.740760
  0
VERTEX
  8
0
  6
CONTINUOUS
 10
4.900280
 20
2.724480
  0
VERTEX
  8
0
  6
CONTINUOUS
 10
4.917440
 20
2.706440
  0
VERTEX
  8
0
  6
CONTINUOUS
 10
4.928880
 20
2.687960
  0
VERTEX
  8
0
  6
CONTINUOUS
 10
4.933720
 20
2.669040
  0
VERTEX
  8
0
  6
CONTINUOUS
 10
4.933720
 20
2.407680
  0
VERTEX
  8
0
  6
CONTINUOUS
 10
3.081760
 20
2.407680
  0
VERTEX
  8
0
  6
CONTINUOUS
 10
3.081760
 20
2.579720
  0
VERTEX
  8
0
  6
CONTINUOUS
 10
3.087040
 20
2.587640
  0
SEQEND
  8
0
  0
TEXT
  8
0
 10
3.758920
 20
2.187680
 40
0.138102
  1
BA  78
 41
1.000000
  7
SN0
 71
     0
 72
     5
 11
4.256751
 21
2.187680
  0
TEXT
  8
0
 10
3.464560
 20
1.995840
 40
0.138102
  1
3/4" x 1-13/16"
 41
1.000000
  7
SN0
 71
     0
 72
     5
 11
4.549702
 21
1.995840
  0
ENDSEC
  0
EOF
