  0
SECTION
  2
HEADER
  9
$ACADVER
  1
AC1006
  9
$EXTMIN
 10
1.417240
 20
1.833480
  9
$EXTMAX
 10
7.140320
 20
6.933960
  9
$LTSCALE
 40
0.044000
  9
$PDMODE
 70
    35
  9
$PDSIZE
 40
0.035200
  0
ENDSEC
  0
SECTION
  2
TABLES
  0
TABLE
  2
LTYPE
 70
     9
  0
LTYPE
  2
CONTINUOUS
 70
    64
  3
Solid line
 72
    65
 73
     0
 40
0.000000
  0
LTYPE
  2
DASHED
 70
    64
  3
__ __ __ __ __ __ __ __ __ __ __ __ __ __ __
 72
    65
 73
     2
 40
0.000330
 49
0.000220
 49
-0.000110
  0
LTYPE
  2
HIDDEN
 70
    64
  3
 _ _ _ _ _ _ _ _ _ _ _ _ _ _ _ _ _ _ _ _ _ _
 72
    65
 73
     2
 40
0.000165
 49
0.000110
 49
-0.000055
  0
LTYPE
  2
CENTER
 70
    64
  3
____ _ ____ _ ____ _ ____ _ ____ _ ____ _ ____
 72
    65
 73
     4
 40
0.000880
 49
0.000550
 49
-0.000110
 49
0.000110
 49
-0.000110
  0
LTYPE
  2
PHANTOM
 70
    64
  3
_____ _ _ _____ _ _ _____ _ _ _____ _ _ ____
 72
    65
 73
     6
 40
0.001100
 49
0.000550
 49
-0.000110
 49
0.000110
 49
-0.000110
 49
0.000110
 49
-0.000110
  0
LTYPE
  2
DOT
 70
    64
  3
...............................................
 72
    65
 73
     2
 40
0.000110
 49
0.000000
 49
-0.000110
  0
LTYPE
  2
DASHDOT
 70
    64
  3
__ . __ . __ . __ . __ . __ . __ . __ . __ . __
 72
    65
 73
     4
 40
0.000440
 49
0.000220
 49
-0.000110
 49
0.000000
 49
-0.000110
  0
LTYPE
  2
BORDER
 70
    64
  3
__ __ . __ __ . __ __ . __ __ . __ __ . __ __
 72
    65
 73
     6
 40
0.000770
 49
0.000220
 49
-0.000110
 49
0.000220
 49
-0.000110
 49
0.000000
 49
-0.000110
  0
LTYPE
  2
DIVIDE
 70
    64
  3
__ . . __ . . __ . . __ . . __ . . __ . . __
 72
    65
 73
     6
 40
0.000550
 49
0.000220
 49
-0.000110
 49
0.000000
 49
-0.000110
 49
0.000000
 49
-0.000110
  0
LTYPE
  2
DOTDOT
 70
    64
  3
 . .  . .  . .  . .  . .  . . 
 72
    65
 73
     5
 40
0.000242
 49
-0.000110
 49
0.000000
 49
-0.000110
 49
0.000000
 49
-0.000110
  0
ENDTAB
  0
TABLE
  2
STYLE
 70
     2
  0
STYLE
 70
     0
  2
SN0
 40
0.000000
 41
0.000440
 50
0.000000
 71
     0
 42
0.000000
  3
ROMAND
  0
STYLE
 70
    68
  2
SV0
 40
0.000000
 41
0.000440
 50
0.000000
 71
     0
 42
0.000000
  3
ROMAND
  0
ENDTAB
  0
TABLE
  2
LAYER
 70
     3
  0
LAYER
  2
FOREGROUND
 70
    64
 62
     7
  6
CONTINUOUS
  0
LAYER
  2
BACKGROUND
 70
    65
 62
    -7
  6
CONTINUOUS
  0
LAYER
  2
0
 70
    64
 62
     7
  6
CONTINUOUS
  0
ENDTAB
  0
ENDSEC
  0
SECTION
  2
ENTITIES
  0
POLYLINE
  8
FOREGROUND
  6
CONTINUOUS
 66
     1
 40
0.000000
 41
0.000000
  0
VERTEX
  8
FOREGROUND
  6
CONTINUOUS
 10
0.000000
 20
8.767440
  0
VERTEX
  8
FOREGROUND
  6
CONTINUOUS
 10
8.499920
 20
8.767440
  0
VERTEX
  8
FOREGROUND
  6
CONTINUOUS
 10
8.499920
 20
-2.232560
  0
VERTEX
  8
FOREGROUND
  6
CONTINUOUS
 10
0.000000
 20
-2.232560
  0
VERTEX
  8
FOREGROUND
  6
CONTINUOUS
 10
0.000000
 20
8.767440
  0
SEQEND
  8
0
  0
POLYLINE
  8
FOREGROUND
  6
CONTINUOUS
 66
     1
 40
0.000000
 41
0.000000
  0
VERTEX
  8
FOREGROUND
  6
CONTINUOUS
 10
0.000000
 20
8.767440
  0
VERTEX
  8
FOREGROUND
  6
CONTINUOUS
 10
8.499920
 20
8.767440
  0
VERTEX
  8
FOREGROUND
  6
CONTINUOUS
 10
8.499920
 20
-2.232560
  0
VERTEX
  8
FOREGROUND
  6
CONTINUOUS
 10
0.000000
 20
-2.232560
  0
VERTEX
  8
FOREGROUND
  6
CONTINUOUS
 10
0.000000
 20
8.767440
  0
SEQEND
  8
0
  0
POLYLINE
  8
0
  6
CONTINUOUS
 66
     1
 40
0.014080
 41
0.014080
  0
VERTEX
  8
0
  6
CONTINUOUS
 10
3.480400
 20
6.102360
  0
VERTEX
  8
0
  6
CONTINUOUS
 10
1.487200
 20
6.102360
  0
VERTEX
  8
0
  6
CONTINUOUS
 10
1.485880
 20
6.105000
  0
VERTEX
  8
0
  6
CONTINUOUS
 10
1.485880
 20
6.926040
  0
VERTEX
  8
0
  6
CONTINUOUS
 10
2.482920
 20
6.926040
  0
VERTEX
  8
0
  6
CONTINUOUS
 10
2.490840
 20
6.859160
  0
VERTEX
  8
0
  6
CONTINUOUS
 10
2.499200
 20
6.817360
  0
VERTEX
  8
0
  6
CONTINUOUS
 10
2.516360
 20
6.758840
  0
VERTEX
  8
0
  6
CONTINUOUS
 10
2.537480
 20
6.705160
  0
VERTEX
  8
0
  6
CONTINUOUS
 10
2.563440
 20
6.655440
  0
VERTEX
  8
0
  6
CONTINUOUS
 10
2.582800
 20
6.625080
  0
VERTEX
  8
0
  6
CONTINUOUS
 10
2.603920
 20
6.596480
  0
VERTEX
  8
0
  6
CONTINUOUS
 10
2.626360
 20
6.569640
  0
VERTEX
  8
0
  6
CONTINUOUS
 10
2.674760
 20
6.521680
  0
VERTEX
  8
0
  6
CONTINUOUS
 10
2.728000
 20
6.479880
  0
VERTEX
  8
0
  6
CONTINUOUS
 10
2.784760
 20
6.444680
  0
VERTEX
  8
0
  6
CONTINUOUS
 10
2.843720
 20
6.415200
  0
VERTEX
  8
0
  6
CONTINUOUS
 10
2.904440
 20
6.391440
  0
VERTEX
  8
0
  6
CONTINUOUS
 10
2.965600
 20
6.372080
  0
VERTEX
  8
0
  6
CONTINUOUS
 10
3.026320
 20
6.358000
  0
VERTEX
  8
0
  6
CONTINUOUS
 10
3.085280
 20
6.347880
  0
VERTEX
  8
0
  6
CONTINUOUS
 10
3.142040
 20
6.341280
  0
VERTEX
  8
0
  6
CONTINUOUS
 10
3.220800
 20
6.337760
  0
VERTEX
  8
0
  6
CONTINUOUS
 10
3.245880
 20
6.338200
  0
VERTEX
  8
0
  6
CONTINUOUS
 10
3.247200
 20
6.380000
  0
VERTEX
  8
0
  6
CONTINUOUS
 10
3.250720
 20
6.404200
  0
VERTEX
  8
0
  6
CONTINUOUS
 10
3.256440
 20
6.427520
  0
VERTEX
  8
0
  6
CONTINUOUS
 10
3.264360
 20
6.449960
  0
VERTEX
  8
0
  6
CONTINUOUS
 10
3.274480
 20
6.471080
  0
VERTEX
  8
0
  6
CONTINUOUS
 10
3.286360
 20
6.491320
  0
VERTEX
  8
0
  6
CONTINUOUS
 10
3.300000
 20
6.510240
  0
VERTEX
  8
0
  6
CONTINUOUS
 10
3.314960
 20
6.527400
  0
VERTEX
  8
0
  6
CONTINUOUS
 10
3.332120
 20
6.543240
  0
VERTEX
  8
0
  6
CONTINUOUS
 10
3.350160
 20
6.557320
  0
VERTEX
  8
0
  6
CONTINUOUS
 10
3.369960
 20
6.569640
  0
VERTEX
  8
0
  6
CONTINUOUS
 10
3.390640
 20
6.580200
  0
VERTEX
  8
0
  6
CONTINUOUS
 10
3.424080
 20
6.591640
  0
VERTEX
  8
0
  6
CONTINUOUS
 10
3.447840
 20
6.596920
  0
VERTEX
  8
0
  6
CONTINUOUS
 10
3.484360
 20
6.599560
  0
VERTEX
  8
0
  6
CONTINUOUS
 10
3.521320
 20
6.596920
  0
VERTEX
  8
0
  6
CONTINUOUS
 10
3.556520
 20
6.588560
  0
VERTEX
  8
0
  6
CONTINUOUS
 10
3.578960
 20
6.580200
  0
VERTEX
  8
0
  6
CONTINUOUS
 10
3.600080
 20
6.569640
  0
VERTEX
  8
0
  6
CONTINUOUS
 10
3.620320
 20
6.557320
  0
VERTEX
  8
0
  6
CONTINUOUS
 10
3.639240
 20
6.543240
  0
VERTEX
  8
0
  6
CONTINUOUS
 10
3.656400
 20
6.527400
  0
VERTEX
  8
0
  6
CONTINUOUS
 10
3.672240
 20
6.510240
  0
VERTEX
  8
0
  6
CONTINUOUS
 10
3.686320
 20
6.491320
  0
VERTEX
  8
0
  6
CONTINUOUS
 10
3.698640
 20
6.471080
  0
VERTEX
  8
0
  6
CONTINUOUS
 10
3.709200
 20
6.449960
  0
VERTEX
  8
0
  6
CONTINUOUS
 10
3.720640
 20
6.416080
  0
VERTEX
  8
0
  6
CONTINUOUS
 10
3.725920
 20
6.392320
  0
VERTEX
  8
0
  6
CONTINUOUS
 10
3.728560
 20
6.355360
  0
VERTEX
  8
0
  6
CONTINUOUS
 10
3.725920
 20
6.318400
  0
VERTEX
  8
0
  6
CONTINUOUS
 10
3.717560
 20
6.282760
  0
VERTEX
  8
0
  6
CONTINUOUS
 10
3.709200
 20
6.259880
  0
VERTEX
  8
0
  6
CONTINUOUS
 10
3.698640
 20
6.237880
  0
VERTEX
  8
0
  6
CONTINUOUS
 10
3.686320
 20
6.217200
  0
VERTEX
  8
0
  6
CONTINUOUS
 10
3.672240
 20
6.197840
  0
VERTEX
  8
0
  6
CONTINUOUS
 10
3.656400
 20
6.179360
  0
VERTEX
  8
0
  6
CONTINUOUS
 10
3.639240
 20
6.163080
  0
VERTEX
  8
0
  6
CONTINUOUS
 10
3.620320
 20
6.148120
  0
VERTEX
  8
0
  6
CONTINUOUS
 10
3.600080
 20
6.135360
  0
VERTEX
  8
0
  6
CONTINUOUS
 10
3.567520
 20
6.119520
  0
VERTEX
  8
0
  6
CONTINUOUS
 10
3.533200
 20
6.108960
  0
VERTEX
  8
0
  6
CONTINUOUS
 10
3.509000
 20
6.105000
  0
VERTEX
  8
0
  6
CONTINUOUS
 10
3.484360
 20
6.103680
  0
VERTEX
  8
0
  6
CONTINUOUS
 10
3.480400
 20
6.102360
  0
SEQEND
  8
0
  0
POLYLINE
  8
0
  6
CONTINUOUS
 66
     1
 40
0.014080
 41
0.014080
  0
VERTEX
  8
0
  6
CONTINUOUS
 10
3.449600
 20
5.971680
  0
VERTEX
  8
0
  6
CONTINUOUS
 10
1.480600
 20
5.971680
  0
VERTEX
  8
0
  6
CONTINUOUS
 10
1.477960
 20
5.970360
  0
VERTEX
  8
0
  6
CONTINUOUS
 10
1.477960
 20
5.108840
  0
VERTEX
  8
0
  6
CONTINUOUS
 10
1.480600
 20
5.110160
  0
VERTEX
  8
0
  6
CONTINUOUS
 10
7.123160
 20
5.110160
  0
VERTEX
  8
0
  6
CONTINUOUS
 10
7.119200
 20
5.110160
  0
VERTEX
  8
0
  6
CONTINUOUS
 10
7.133720
 20
5.110160
  0
VERTEX
  8
0
  6
CONTINUOUS
 10
7.114360
 20
5.154600
  0
VERTEX
  8
0
  6
CONTINUOUS
 10
7.093240
 20
5.192000
  0
VERTEX
  8
0
  6
CONTINUOUS
 10
7.062880
 20
5.231160
  0
VERTEX
  8
0
  6
CONTINUOUS
 10
7.047040
 20
5.247000
  0
VERTEX
  8
0
  6
CONTINUOUS
 10
7.014480
 20
5.271640
  0
VERTEX
  8
0
  6
CONTINUOUS
 10
6.980600
 20
5.289680
  0
VERTEX
  8
0
  6
CONTINUOUS
 10
6.929560
 20
5.306840
  0
VERTEX
  8
0
  6
CONTINUOUS
 10
6.831880
 20
5.331040
  0
VERTEX
  8
0
  6
CONTINUOUS
 10
6.802840
 20
5.342920
  0
VERTEX
  8
0
  6
CONTINUOUS
 10
6.776880
 20
5.360080
  0
VERTEX
  8
0
  6
CONTINUOUS
 10
6.754000
 20
5.383840
  0
VERTEX
  8
0
  6
CONTINUOUS
 10
6.739480
 20
5.407160
  0
VERTEX
  8
0
  6
CONTINUOUS
 10
6.727160
 20
5.436640
  0
VERTEX
  8
0
  6
CONTINUOUS
 10
6.717920
 20
5.472280
  0
VERTEX
  8
0
  6
CONTINUOUS
 10
6.711320
 20
5.515400
  0
VERTEX
  8
0
  6
CONTINUOUS
 10
6.708680
 20
5.548840
  0
VERTEX
  8
0
  6
CONTINUOUS
 10
5.655320
 20
5.548840
  0
VERTEX
  8
0
  6
CONTINUOUS
 10
5.655320
 20
5.560720
  0
VERTEX
  8
0
  6
CONTINUOUS
 10
5.655320
 20
5.559400
  0
VERTEX
  8
0
  6
CONTINUOUS
 10
5.655320
 20
5.651360
  0
VERTEX
  8
0
  6
CONTINUOUS
 10
5.628480
 20
5.648720
  0
VERTEX
  8
0
  6
CONTINUOUS
 10
5.577000
 20
5.647840
  0
VERTEX
  8
0
  6
CONTINUOUS
 10
5.527720
 20
5.651360
  0
VERTEX
  8
0
  6
CONTINUOUS
 10
5.481080
 20
5.658840
  0
VERTEX
  8
0
  6
CONTINUOUS
 10
5.437080
 20
5.669400
  0
VERTEX
  8
0
  6
CONTINUOUS
 10
5.396160
 20
5.682600
  0
VERTEX
  8
0
  6
CONTINUOUS
 10
5.340280
 20
5.705920
  0
VERTEX
  8
0
  6
CONTINUOUS
 10
5.291880
 20
5.731440
  0
VERTEX
  8
0
  6
CONTINUOUS
 10
5.239080
 20
5.764880
  0
VERTEX
  8
0
  6
CONTINUOUS
 10
5.171320
 20
5.816800
  0
VERTEX
  8
0
  6
CONTINUOUS
 10
5.151520
 20
5.834400
  0
VERTEX
  8
0
  6
CONTINUOUS
 10
5.119840
 20
5.853320
  0
VERTEX
  8
0
  6
CONTINUOUS
 10
5.100920
 20
5.862120
  0
VERTEX
  8
0
  6
CONTINUOUS
 10
5.080240
 20
5.869600
  0
VERTEX
  8
0
  6
CONTINUOUS
 10
5.047240
 20
5.877520
  0
VERTEX
  8
0
  6
CONTINUOUS
 10
5.024360
 20
5.880160
  0
VERTEX
  8
0
  6
CONTINUOUS
 10
5.001480
 20
5.879280
  0
VERTEX
  8
0
  6
CONTINUOUS
 10
4.978600
 20
5.875320
  0
VERTEX
  8
0
  6
CONTINUOUS
 10
4.956600
 20
5.866960
  0
VERTEX
  8
0
  6
CONTINUOUS
 10
4.935480
 20
5.854640
  0
VERTEX
  8
0
  6
CONTINUOUS
 10
4.915680
 20
5.837040
  0
VERTEX
  8
0
  6
CONTINUOUS
 10
4.898520
 20
5.813720
  0
VERTEX
  8
0
  6
CONTINUOUS
 10
4.883120
 20
5.784680
  0
VERTEX
  8
0
  6
CONTINUOUS
 10
4.876520
 20
5.767520
  0
VERTEX
  8
0
  6
CONTINUOUS
 10
4.749800
 20
5.767520
  0
VERTEX
  8
0
  6
CONTINUOUS
 10
4.741000
 20
5.743760
  0
VERTEX
  8
0
  6
CONTINUOUS
 10
4.719880
 20
5.700640
  0
VERTEX
  8
0
  6
CONTINUOUS
 10
4.695680
 20
5.663240
  0
VERTEX
  8
0
  6
CONTINUOUS
 10
4.667520
 20
5.631560
  0
VERTEX
  8
0
  6
CONTINUOUS
 10
4.636720
 20
5.604720
  0
VERTEX
  8
0
  6
CONTINUOUS
 10
4.603280
 20
5.582720
  0
VERTEX
  8
0
  6
CONTINUOUS
 10
4.567200
 20
5.565120
  0
VERTEX
  8
0
  6
CONTINUOUS
 10
4.529360
 20
5.550600
  0
VERTEX
  8
0
  6
CONTINUOUS
 10
4.489320
 20
5.540040
  0
VERTEX
  8
0
  6
CONTINUOUS
 10
4.447520
 20
5.531680
  0
VERTEX
  8
0
  6
CONTINUOUS
 10
4.382840
 20
5.524200
  0
VERTEX
  8
0
  6
CONTINUOUS
 10
4.338400
 20
5.521120
  0
VERTEX
  8
0
  6
CONTINUOUS
 10
4.158000
 20
5.518040
  0
VERTEX
  8
0
  6
CONTINUOUS
 10
4.063400
 20
5.518480
  0
VERTEX
  8
0
  6
CONTINUOUS
 10
3.986840
 20
5.522000
  0
VERTEX
  8
0
  6
CONTINUOUS
 10
3.934920
 20
5.527280
  0
VERTEX
  8
0
  6
CONTINUOUS
 10
3.882560
 20
5.535640
  0
VERTEX
  8
0
  6
CONTINUOUS
 10
3.830200
 20
5.547960
  0
VERTEX
  8
0
  6
CONTINUOUS
 10
3.778720
 20
5.564240
  0
VERTEX
  8
0
  6
CONTINUOUS
 10
3.753200
 20
5.573920
  0
VERTEX
  8
0
  6
CONTINUOUS
 10
3.703920
 20
5.598120
  0
VERTEX
  8
0
  6
CONTINUOUS
 10
3.680160
 20
5.612200
  0
VERTEX
  8
0
  6
CONTINUOUS
 10
3.634400
 20
5.645200
  0
VERTEX
  8
0
  6
CONTINUOUS
 10
3.612840
 20
5.664120
  0
VERTEX
  8
0
  6
CONTINUOUS
 10
3.571920
 20
5.707680
  0
VERTEX
  8
0
  6
CONTINUOUS
 10
3.534960
 20
5.758720
  0
VERTEX
  8
0
  6
CONTINUOUS
 10
3.510320
 20
5.802720
  0
VERTEX
  8
0
  6
CONTINUOUS
 10
3.488320
 20
5.851560
  0
VERTEX
  8
0
  6
CONTINUOUS
 10
3.469400
 20
5.905680
  0
VERTEX
  8
0
  6
CONTINUOUS
 10
3.454000
 20
5.965080
  0
VERTEX
  8
0
  6
CONTINUOUS
 10
3.449600
 20
5.971680
  0
SEQEND
  8
0
  0
SOLID
  8
0
 62
    15
 10
5.021280
 20
3.094080
 11
5.020400
 21
3.822720
 12
5.060880
 22
3.077800
 13
5.060000
 23
3.806440
  0
POLYLINE
  8
0
  6
CONTINUOUS
 66
     1
 40
0.000000
 41
0.000000
  0
VERTEX
  8
0
  6
CONTINUOUS
 10
5.021280
 20
3.094080
  0
VERTEX
  8
0
  6
CONTINUOUS
 10
5.020400
 20
3.822720
  0
VERTEX
  8
0
  6
CONTINUOUS
 10
5.060000
 20
3.806440
  0
VERTEX
  8
0
  6
CONTINUOUS
 10
5.060880
 20
3.077800
  0
VERTEX
  8
0
  6
CONTINUOUS
 10
5.021280
 20
3.094080
  0
SEQEND
  8
0
  0
SOLID
  8
0
 62
    15
 10
3.416160
 20
3.111240
 11
3.415280
 21
3.839440
 12
3.443440
 22
3.042600
 13
3.442560
 23
3.771240
  0
POLYLINE
  8
0
  6
CONTINUOUS
 66
     1
 40
0.000000
 41
0.000000
  0
VERTEX
  8
0
  6
CONTINUOUS
 10
3.416160
 20
3.111240
  0
VERTEX
  8
0
  6
CONTINUOUS
 10
3.415280
 20
3.839440
  0
VERTEX
  8
0
  6
CONTINUOUS
 10
3.442560
 20
3.771240
  0
VERTEX
  8
0
  6
CONTINUOUS
 10
3.443440
 20
3.042600
  0
VERTEX
  8
0
  6
CONTINUOUS
 10
3.416160
 20
3.111240
  0
SEQEND
  8
0
  0
SOLID
  8
0
 62
    15
 10
3.443440
 20
3.042600
 11
3.442560
 21
3.771240
 12
3.476000
 22
2.983200
 13
3.475120
 23
3.711400
  0
POLYLINE
  8
0
  6
CONTINUOUS
 66
     1
 40
0.000000
 41
0.000000
  0
VERTEX
  8
0
  6
CONTINUOUS
 10
3.443440
 20
3.042600
  0
VERTEX
  8
0
  6
CONTINUOUS
 10
3.442560
 20
3.771240
  0
VERTEX
  8
0
  6
CONTINUOUS
 10
3.475120
 20
3.711400
  0
VERTEX
  8
0
  6
CONTINUOUS
 10
3.476000
 20
2.983200
  0
VERTEX
  8
0
  6
CONTINUOUS
 10
3.443440
 20
3.042600
  0
SEQEND
  8
0
  0
SOLID
  8
0
 62
    15
 10
3.476000
 20
2.983200
 11
3.475120
 21
3.711400
 12
3.512960
 22
2.931720
 13
3.512080
 23
3.660360
  0
POLYLINE
  8
0
  6
CONTINUOUS
 66
     1
 40
0.000000
 41
0.000000
  0
VERTEX
  8
0
  6
CONTINUOUS
 10
3.476000
 20
2.983200
  0
VERTEX
  8
0
  6
CONTINUOUS
 10
3.475120
 20
3.711400
  0
VERTEX
  8
0
  6
CONTINUOUS
 10
3.512080
 20
3.660360
  0
VERTEX
  8
0
  6
CONTINUOUS
 10
3.512960
 20
2.931720
  0
VERTEX
  8
0
  6
CONTINUOUS
 10
3.476000
 20
2.983200
  0
SEQEND
  8
0
  0
SOLID
  8
0
 62
    15
 10
3.512960
 20
2.931720
 11
3.512080
 21
3.660360
 12
3.553880
 22
2.888600
 13
3.553000
 23
3.616800
  0
POLYLINE
  8
0
  6
CONTINUOUS
 66
     1
 40
0.000000
 41
0.000000
  0
VERTEX
  8
0
  6
CONTINUOUS
 10
3.512960
 20
2.931720
  0
VERTEX
  8
0
  6
CONTINUOUS
 10
3.512080
 20
3.660360
  0
VERTEX
  8
0
  6
CONTINUOUS
 10
3.553000
 20
3.616800
  0
VERTEX
  8
0
  6
CONTINUOUS
 10
3.553880
 20
2.888600
  0
VERTEX
  8
0
  6
CONTINUOUS
 10
3.512960
 20
2.931720
  0
SEQEND
  8
0
  0
SOLID
  8
0
 62
    15
 10
3.553880
 20
2.888600
 11
3.553000
 21
3.616800
 12
3.597880
 22
2.852080
 13
3.597000
 23
3.580720
  0
POLYLINE
  8
0
  6
CONTINUOUS
 66
     1
 40
0.000000
 41
0.000000
  0
VERTEX
  8
0
  6
CONTINUOUS
 10
3.553880
 20
2.888600
  0
VERTEX
  8
0
  6
CONTINUOUS
 10
3.553000
 20
3.616800
  0
VERTEX
  8
0
  6
CONTINUOUS
 10
3.597000
 20
3.580720
  0
VERTEX
  8
0
  6
CONTINUOUS
 10
3.597880
 20
2.852080
  0
VERTEX
  8
0
  6
CONTINUOUS
 10
3.553880
 20
2.888600
  0
SEQEND
  8
0
  0
SOLID
  8
0
 62
    15
 10
3.597880
 20
2.852080
 11
3.597000
 21
3.580720
 12
3.644960
 22
2.822160
 13
3.644080
 23
3.550800
  0
POLYLINE
  8
0
  6
CONTINUOUS
 66
     1
 40
0.000000
 41
0.000000
  0
VERTEX
  8
0
  6
CONTINUOUS
 10
3.597880
 20
2.852080
  0
VERTEX
  8
0
  6
CONTINUOUS
 10
3.597000
 20
3.580720
  0
VERTEX
  8
0
  6
CONTINUOUS
 10
3.644080
 20
3.550800
  0
VERTEX
  8
0
  6
CONTINUOUS
 10
3.644960
 20
2.822160
  0
VERTEX
  8
0
  6
CONTINUOUS
 10
3.597880
 20
2.852080
  0
SEQEND
  8
0
  0
SOLID
  8
0
 62
    15
 10
3.644960
 20
2.822160
 11
3.644080
 21
3.550800
 12
3.694240
 22
2.798400
 13
3.693360
 23
3.527040
  0
POLYLINE
  8
0
  6
CONTINUOUS
 66
     1
 40
0.000000
 41
0.000000
  0
VERTEX
  8
0
  6
CONTINUOUS
 10
3.644960
 20
2.822160
  0
VERTEX
  8
0
  6
CONTINUOUS
 10
3.644080
 20
3.550800
  0
VERTEX
  8
0
  6
CONTINUOUS
 10
3.693360
 20
3.527040
  0
VERTEX
  8
0
  6
CONTINUOUS
 10
3.694240
 20
2.798400
  0
VERTEX
  8
0
  6
CONTINUOUS
 10
3.644960
 20
2.822160
  0
SEQEND
  8
0
  0
SOLID
  8
0
 62
    15
 10
3.694240
 20
2.798400
 11
3.693360
 21
3.527040
 12
3.745280
 22
2.779920
 13
3.744400
 23
3.508120
  0
POLYLINE
  8
0
  6
CONTINUOUS
 66
     1
 40
0.000000
 41
0.000000
  0
VERTEX
  8
0
  6
CONTINUOUS
 10
3.694240
 20
2.798400
  0
VERTEX
  8
0
  6
CONTINUOUS
 10
3.693360
 20
3.527040
  0
VERTEX
  8
0
  6
CONTINUOUS
 10
3.744400
 20
3.508120
  0
VERTEX
  8
0
  6
CONTINUOUS
 10
3.745280
 20
2.779920
  0
VERTEX
  8
0
  6
CONTINUOUS
 10
3.694240
 20
2.798400
  0
SEQEND
  8
0
  0
SOLID
  8
0
 62
    15
 10
3.745280
 20
2.779920
 11
3.744400
 21
3.508120
 12
3.797200
 22
2.765840
 13
3.796320
 23
3.494040
  0
POLYLINE
  8
0
  6
CONTINUOUS
 66
     1
 40
0.000000
 41
0.000000
  0
VERTEX
  8
0
  6
CONTINUOUS
 10
3.745280
 20
2.779920
  0
VERTEX
  8
0
  6
CONTINUOUS
 10
3.744400
 20
3.508120
  0
VERTEX
  8
0
  6
CONTINUOUS
 10
3.796320
 20
3.494040
  0
VERTEX
  8
0
  6
CONTINUOUS
 10
3.797200
 20
2.765840
  0
VERTEX
  8
0
  6
CONTINUOUS
 10
3.745280
 20
2.779920
  0
SEQEND
  8
0
  0
SOLID
  8
0
 62
    15
 10
3.797200
 20
2.765840
 11
3.796320
 21
3.494040
 12
3.901920
 22
2.748680
 13
3.901040
 23
3.477320
  0
POLYLINE
  8
0
  6
CONTINUOUS
 66
     1
 40
0.000000
 41
0.000000
  0
VERTEX
  8
0
  6
CONTINUOUS
 10
3.797200
 20
2.765840
  0
VERTEX
  8
0
  6
CONTINUOUS
 10
3.796320
 20
3.494040
  0
VERTEX
  8
0
  6
CONTINUOUS
 10
3.901040
 20
3.477320
  0
VERTEX
  8
0
  6
CONTINUOUS
 10
3.901920
 20
2.748680
  0
VERTEX
  8
0
  6
CONTINUOUS
 10
3.797200
 20
2.765840
  0
SEQEND
  8
0
  0
SOLID
  8
0
 62
    15
 10
3.901920
 20
2.748680
 11
3.901040
 21
3.477320
 12
4.004000
 22
2.742960
 13
4.003120
 23
3.471160
  0
POLYLINE
  8
0
  6
CONTINUOUS
 66
     1
 40
0.000000
 41
0.000000
  0
VERTEX
  8
0
  6
CONTINUOUS
 10
3.901920
 20
2.748680
  0
VERTEX
  8
0
  6
CONTINUOUS
 10
3.901040
 20
3.477320
  0
VERTEX
  8
0
  6
CONTINUOUS
 10
4.003120
 20
3.471160
  0
VERTEX
  8
0
  6
CONTINUOUS
 10
4.004000
 20
2.742960
  0
VERTEX
  8
0
  6
CONTINUOUS
 10
3.901920
 20
2.748680
  0
SEQEND
  8
0
  0
SOLID
  8
0
 62
    15
 10
4.004000
 20
2.742960
 11
4.003120
 21
3.471160
 12
4.098600
 22
2.742520
 13
4.097720
 23
3.471160
  0
POLYLINE
  8
0
  6
CONTINUOUS
 66
     1
 40
0.000000
 41
0.000000
  0
VERTEX
  8
0
  6
CONTINUOUS
 10
4.004000
 20
2.742960
  0
VERTEX
  8
0
  6
CONTINUOUS
 10
4.003120
 20
3.471160
  0
VERTEX
  8
0
  6
CONTINUOUS
 10
4.097720
 20
3.471160
  0
VERTEX
  8
0
  6
CONTINUOUS
 10
4.098600
 20
2.742520
  0
VERTEX
  8
0
  6
CONTINUOUS
 10
4.004000
 20
2.742960
  0
SEQEND
  8
0
  0
SOLID
  8
0
 62
    15
 10
4.098600
 20
2.742520
 11
4.097720
 21
3.471160
 12
4.189240
 22
2.743400
 13
4.187920
 23
3.471600
  0
POLYLINE
  8
0
  6
CONTINUOUS
 66
     1
 40
0.000000
 41
0.000000
  0
VERTEX
  8
0
  6
CONTINUOUS
 10
4.098600
 20
2.742520
  0
VERTEX
  8
0
  6
CONTINUOUS
 10
4.097720
 20
3.471160
  0
VERTEX
  8
0
  6
CONTINUOUS
 10
4.187920
 20
3.471600
  0
VERTEX
  8
0
  6
CONTINUOUS
 10
4.189240
 20
2.743400
  0
VERTEX
  8
0
  6
CONTINUOUS
 10
4.098600
 20
2.742520
  0
SEQEND
  8
0
  0
SOLID
  8
0
 62
    15
 10
4.189240
 20
2.743400
 11
4.187920
 21
3.471600
 12
4.279440
 22
2.745600
 13
4.278120
 23
3.474240
  0
POLYLINE
  8
0
  6
CONTINUOUS
 66
     1
 40
0.000000
 41
0.000000
  0
VERTEX
  8
0
  6
CONTINUOUS
 10
4.189240
 20
2.743400
  0
VERTEX
  8
0
  6
CONTINUOUS
 10
4.187920
 20
3.471600
  0
VERTEX
  8
0
  6
CONTINUOUS
 10
4.278120
 20
3.474240
  0
VERTEX
  8
0
  6
CONTINUOUS
 10
4.279440
 20
2.745600
  0
VERTEX
  8
0
  6
CONTINUOUS
 10
4.189240
 20
2.743400
  0
SEQEND
  8
0
  0
SOLID
  8
0
 62
    15
 10
4.279440
 20
2.745600
 11
4.278120
 21
3.474240
 12
4.367000
 22
2.753080
 13
4.366120
 23
3.481720
  0
POLYLINE
  8
0
  6
CONTINUOUS
 66
     1
 40
0.000000
 41
0.000000
  0
VERTEX
  8
0
  6
CONTINUOUS
 10
4.279440
 20
2.745600
  0
VERTEX
  8
0
  6
CONTINUOUS
 10
4.278120
 20
3.474240
  0
VERTEX
  8
0
  6
CONTINUOUS
 10
4.366120
 20
3.481720
  0
VERTEX
  8
0
  6
CONTINUOUS
 10
4.367000
 20
2.753080
  0
VERTEX
  8
0
  6
CONTINUOUS
 10
4.279440
 20
2.745600
  0
SEQEND
  8
0
  0
SOLID
  8
0
 62
    15
 10
4.367000
 20
2.753080
 11
4.366120
 21
3.481720
 12
4.450160
 22
2.769360
 13
4.449280
 23
3.498000
  0
POLYLINE
  8
0
  6
CONTINUOUS
 66
     1
 40
0.000000
 41
0.000000
  0
VERTEX
  8
0
  6
CONTINUOUS
 10
4.367000
 20
2.753080
  0
VERTEX
  8
0
  6
CONTINUOUS
 10
4.366120
 20
3.481720
  0
VERTEX
  8
0
  6
CONTINUOUS
 10
4.449280
 20
3.498000
  0
VERTEX
  8
0
  6
CONTINUOUS
 10
4.450160
 20
2.769360
  0
VERTEX
  8
0
  6
CONTINUOUS
 10
4.367000
 20
2.753080
  0
SEQEND
  8
0
  0
SOLID
  8
0
 62
    15
 10
4.450160
 20
2.769360
 11
4.449280
 21
3.498000
 12
4.489320
 22
2.781680
 13
4.488440
 23
3.510320
  0
POLYLINE
  8
0
  6
CONTINUOUS
 66
     1
 40
0.000000
 41
0.000000
  0
VERTEX
  8
0
  6
CONTINUOUS
 10
4.450160
 20
2.769360
  0
VERTEX
  8
0
  6
CONTINUOUS
 10
4.449280
 20
3.498000
  0
VERTEX
  8
0
  6
CONTINUOUS
 10
4.488440
 20
3.510320
  0
VERTEX
  8
0
  6
CONTINUOUS
 10
4.489320
 20
2.781680
  0
VERTEX
  8
0
  6
CONTINUOUS
 10
4.450160
 20
2.769360
  0
SEQEND
  8
0
  0
SOLID
  8
0
 62
    15
 10
4.489320
 20
2.781680
 11
4.488440
 21
3.510320
 12
4.526720
 22
2.797960
 13
4.525840
 23
3.526160
  0
POLYLINE
  8
0
  6
CONTINUOUS
 66
     1
 40
0.000000
 41
0.000000
  0
VERTEX
  8
0
  6
CONTINUOUS
 10
4.489320
 20
2.781680
  0
VERTEX
  8
0
  6
CONTINUOUS
 10
4.488440
 20
3.510320
  0
VERTEX
  8
0
  6
CONTINUOUS
 10
4.525840
 20
3.526160
  0
VERTEX
  8
0
  6
CONTINUOUS
 10
4.526720
 20
2.797960
  0
VERTEX
  8
0
  6
CONTINUOUS
 10
4.489320
 20
2.781680
  0
SEQEND
  8
0
  0
SOLID
  8
0
 62
    15
 10
4.526720
 20
2.797960
 11
4.525840
 21
3.526160
 12
4.561480
 22
2.817760
 13
4.560600
 23
3.546400
  0
POLYLINE
  8
0
  6
CONTINUOUS
 66
     1
 40
0.000000
 41
0.000000
  0
VERTEX
  8
0
  6
CONTINUOUS
 10
4.526720
 20
2.797960
  0
VERTEX
  8
0
  6
CONTINUOUS
 10
4.525840
 20
3.526160
  0
VERTEX
  8
0
  6
CONTINUOUS
 10
4.560600
 20
3.546400
  0
VERTEX
  8
0
  6
CONTINUOUS
 10
4.561480
 20
2.817760
  0
VERTEX
  8
0
  6
CONTINUOUS
 10
4.526720
 20
2.797960
  0
SEQEND
  8
0
  0
SOLID
  8
0
 62
    15
 10
4.561480
 20
2.817760
 11
4.560600
 21
3.546400
 12
4.593600
 22
2.841960
 13
4.592720
 23
3.570600
  0
POLYLINE
  8
0
  6
CONTINUOUS
 66
     1
 40
0.000000
 41
0.000000
  0
VERTEX
  8
0
  6
CONTINUOUS
 10
4.561480
 20
2.817760
  0
VERTEX
  8
0
  6
CONTINUOUS
 10
4.560600
 20
3.546400
  0
VERTEX
  8
0
  6
CONTINUOUS
 10
4.592720
 20
3.570600
  0
VERTEX
  8
0
  6
CONTINUOUS
 10
4.593600
 20
2.841960
  0
VERTEX
  8
0
  6
CONTINUOUS
 10
4.561480
 20
2.817760
  0
SEQEND
  8
0
  0
SOLID
  8
0
 62
    15
 10
4.593600
 20
2.841960
 11
4.592720
 21
3.570600
 12
4.623080
 22
2.871000
 13
4.622200
 23
3.599640
  0
POLYLINE
  8
0
  6
CONTINUOUS
 66
     1
 40
0.000000
 41
0.000000
  0
VERTEX
  8
0
  6
CONTINUOUS
 10
4.593600
 20
2.841960
  0
VERTEX
  8
0
  6
CONTINUOUS
 10
4.592720
 20
3.570600
  0
VERTEX
  8
0
  6
CONTINUOUS
 10
4.622200
 20
3.599640
  0
VERTEX
  8
0
  6
CONTINUOUS
 10
4.623080
 20
2.871000
  0
VERTEX
  8
0
  6
CONTINUOUS
 10
4.593600
 20
2.841960
  0
SEQEND
  8
0
  0
SOLID
  8
0
 62
    15
 10
4.623080
 20
2.871000
 11
4.622200
 21
3.599640
 12
4.649040
 22
2.905760
 13
4.648160
 23
3.633960
  0
POLYLINE
  8
0
  6
CONTINUOUS
 66
     1
 40
0.000000
 41
0.000000
  0
VERTEX
  8
0
  6
CONTINUOUS
 10
4.623080
 20
2.871000
  0
VERTEX
  8
0
  6
CONTINUOUS
 10
4.622200
 20
3.599640
  0
VERTEX
  8
0
  6
CONTINUOUS
 10
4.648160
 20
3.633960
  0
VERTEX
  8
0
  6
CONTINUOUS
 10
4.649040
 20
2.905760
  0
VERTEX
  8
0
  6
CONTINUOUS
 10
4.623080
 20
2.871000
  0
SEQEND
  8
0
  0
SOLID
  8
0
 62
    15
 10
4.649040
 20
2.905760
 11
4.648160
 21
3.633960
 12
4.671920
 22
2.945800
 13
4.671040
 23
3.674000
  0
POLYLINE
  8
0
  6
CONTINUOUS
 66
     1
 40
0.000000
 41
0.000000
  0
VERTEX
  8
0
  6
CONTINUOUS
 10
4.649040
 20
2.905760
  0
VERTEX
  8
0
  6
CONTINUOUS
 10
4.648160
 20
3.633960
  0
VERTEX
  8
0
  6
CONTINUOUS
 10
4.671040
 20
3.674000
  0
VERTEX
  8
0
  6
CONTINUOUS
 10
4.671920
 20
2.945800
  0
VERTEX
  8
0
  6
CONTINUOUS
 10
4.649040
 20
2.905760
  0
SEQEND
  8
0
  0
SOLID
  8
0
 62
    15
 10
4.671920
 20
2.945800
 11
4.671040
 21
3.674000
 12
4.690840
 22
2.992000
 13
4.689960
 23
3.720640
  0
POLYLINE
  8
0
  6
CONTINUOUS
 66
     1
 40
0.000000
 41
0.000000
  0
VERTEX
  8
0
  6
CONTINUOUS
 10
4.671920
 20
2.945800
  0
VERTEX
  8
0
  6
CONTINUOUS
 10
4.671040
 20
3.674000
  0
VERTEX
  8
0
  6
CONTINUOUS
 10
4.689960
 20
3.720640
  0
VERTEX
  8
0
  6
CONTINUOUS
 10
4.690840
 20
2.992000
  0
VERTEX
  8
0
  6
CONTINUOUS
 10
4.671920
 20
2.945800
  0
SEQEND
  8
0
  0
SOLID
  8
0
 62
    15
 10
4.690840
 20
2.992000
 11
4.689960
 21
3.720640
 12
4.692160
 22
2.992000
 13
4.691280
 23
3.720640
  0
POLYLINE
  8
0
  6
CONTINUOUS
 66
     1
 40
0.000000
 41
0.000000
  0
VERTEX
  8
0
  6
CONTINUOUS
 10
4.690840
 20
2.992000
  0
VERTEX
  8
0
  6
CONTINUOUS
 10
4.689960
 20
3.720640
  0
VERTEX
  8
0
  6
CONTINUOUS
 10
4.691280
 20
3.720640
  0
VERTEX
  8
0
  6
CONTINUOUS
 10
4.692160
 20
2.992000
  0
VERTEX
  8
0
  6
CONTINUOUS
 10
4.690840
 20
2.992000
  0
SEQEND
  8
0
  0
SOLID
  8
0
 62
    15
 10
4.692160
 20
2.992000
 11
4.691280
 21
3.720640
 12
4.817560
 22
2.992000
 13
4.816680
 23
3.720640
  0
POLYLINE
  8
0
  6
CONTINUOUS
 66
     1
 40
0.000000
 41
0.000000
  0
VERTEX
  8
0
  6
CONTINUOUS
 10
4.692160
 20
2.992000
  0
VERTEX
  8
0
  6
CONTINUOUS
 10
4.691280
 20
3.720640
  0
VERTEX
  8
0
  6
CONTINUOUS
 10
4.816680
 20
3.720640
  0
VERTEX
  8
0
  6
CONTINUOUS
 10
4.817560
 20
2.992000
  0
VERTEX
  8
0
  6
CONTINUOUS
 10
4.692160
 20
2.992000
  0
SEQEND
  8
0
  0
SOLID
  8
0
 62
    15
 10
4.817560
 20
2.992000
 11
4.816680
 21
3.720640
 12
4.831200
 22
3.024560
 13
4.830320
 23
3.752760
  0
POLYLINE
  8
0
  6
CONTINUOUS
 66
     1
 40
0.000000
 41
0.000000
  0
VERTEX
  8
0
  6
CONTINUOUS
 10
4.817560
 20
2.992000
  0
VERTEX
  8
0
  6
CONTINUOUS
 10
4.816680
 20
3.720640
  0
VERTEX
  8
0
  6
CONTINUOUS
 10
4.830320
 20
3.752760
  0
VERTEX
  8
0
  6
CONTINUOUS
 10
4.831200
 20
3.024560
  0
VERTEX
  8
0
  6
CONTINUOUS
 10
4.817560
 20
2.992000
  0
SEQEND
  8
0
  0
SOLID
  8
0
 62
    15
 10
4.831200
 20
3.024560
 11
4.830320
 21
3.752760
 12
4.847920
 22
3.050520
 13
4.847040
 23
3.779160
  0
POLYLINE
  8
0
  6
CONTINUOUS
 66
     1
 40
0.000000
 41
0.000000
  0
VERTEX
  8
0
  6
CONTINUOUS
 10
4.831200
 20
3.024560
  0
VERTEX
  8
0
  6
CONTINUOUS
 10
4.830320
 20
3.752760
  0
VERTEX
  8
0
  6
CONTINUOUS
 10
4.847040
 20
3.779160
  0
VERTEX
  8
0
  6
CONTINUOUS
 10
4.847920
 20
3.050520
  0
VERTEX
  8
0
  6
CONTINUOUS
 10
4.831200
 20
3.024560
  0
SEQEND
  8
0
  0
SOLID
  8
0
 62
    15
 10
4.847920
 20
3.050520
 11
4.847040
 21
3.779160
 12
4.866400
 22
3.070760
 13
4.865520
 23
3.799400
  0
POLYLINE
  8
0
  6
CONTINUOUS
 66
     1
 40
0.000000
 41
0.000000
  0
VERTEX
  8
0
  6
CONTINUOUS
 10
4.847920
 20
3.050520
  0
VERTEX
  8
0
  6
CONTINUOUS
 10
4.847040
 20
3.779160
  0
VERTEX
  8
0
  6
CONTINUOUS
 10
4.865520
 20
3.799400
  0
VERTEX
  8
0
  6
CONTINUOUS
 10
4.866400
 20
3.070760
  0
VERTEX
  8
0
  6
CONTINUOUS
 10
4.847920
 20
3.050520
  0
SEQEND
  8
0
  0
SOLID
  8
0
 62
    15
 10
4.866400
 20
3.070760
 11
4.865520
 21
3.799400
 12
4.886640
 22
3.085720
 13
4.885760
 23
3.814360
  0
POLYLINE
  8
0
  6
CONTINUOUS
 66
     1
 40
0.000000
 41
0.000000
  0
VERTEX
  8
0
  6
CONTINUOUS
 10
4.866400
 20
3.070760
  0
VERTEX
  8
0
  6
CONTINUOUS
 10
4.865520
 20
3.799400
  0
VERTEX
  8
0
  6
CONTINUOUS
 10
4.885760
 20
3.814360
  0
VERTEX
  8
0
  6
CONTINUOUS
 10
4.886640
 20
3.085720
  0
VERTEX
  8
0
  6
CONTINUOUS
 10
4.866400
 20
3.070760
  0
SEQEND
  8
0
  0
SOLID
  8
0
 62
    15
 10
4.886640
 20
3.085720
 11
4.885760
 21
3.814360
 12
4.908200
 22
3.096280
 13
4.907320
 23
3.824920
  0
POLYLINE
  8
0
  6
CONTINUOUS
 66
     1
 40
0.000000
 41
0.000000
  0
VERTEX
  8
0
  6
CONTINUOUS
 10
4.886640
 20
3.085720
  0
VERTEX
  8
0
  6
CONTINUOUS
 10
4.885760
 20
3.814360
  0
VERTEX
  8
0
  6
CONTINUOUS
 10
4.907320
 20
3.824920
  0
VERTEX
  8
0
  6
CONTINUOUS
 10
4.908200
 20
3.096280
  0
VERTEX
  8
0
  6
CONTINUOUS
 10
4.886640
 20
3.085720
  0
SEQEND
  8
0
  0
SOLID
  8
0
 62
    15
 10
4.908200
 20
3.096280
 11
4.907320
 21
3.824920
 12
4.930640
 22
3.102440
 13
4.929760
 23
3.830640
  0
POLYLINE
  8
0
  6
CONTINUOUS
 66
     1
 40
0.000000
 41
0.000000
  0
VERTEX
  8
0
  6
CONTINUOUS
 10
4.908200
 20
3.096280
  0
VERTEX
  8
0
  6
CONTINUOUS
 10
4.907320
 20
3.824920
  0
VERTEX
  8
0
  6
CONTINUOUS
 10
4.929760
 20
3.830640
  0
VERTEX
  8
0
  6
CONTINUOUS
 10
4.930640
 20
3.102440
  0
VERTEX
  8
0
  6
CONTINUOUS
 10
4.908200
 20
3.096280
  0
SEQEND
  8
0
  0
SOLID
  8
0
 62
    15
 10
4.930640
 20
3.102440
 11
4.929760
 21
3.830640
 12
4.976840
 22
3.103760
 13
4.975960
 23
3.831960
  0
POLYLINE
  8
0
  6
CONTINUOUS
 66
     1
 40
0.000000
 41
0.000000
  0
VERTEX
  8
0
  6
CONTINUOUS
 10
4.930640
 20
3.102440
  0
VERTEX
  8
0
  6
CONTINUOUS
 10
4.929760
 20
3.830640
  0
VERTEX
  8
0
  6
CONTINUOUS
 10
4.975960
 20
3.831960
  0
VERTEX
  8
0
  6
CONTINUOUS
 10
4.976840
 20
3.103760
  0
VERTEX
  8
0
  6
CONTINUOUS
 10
4.930640
 20
3.102440
  0
SEQEND
  8
0
  0
SOLID
  8
0
 62
    15
 10
4.976840
 20
3.103760
 11
4.975960
 21
3.831960
 12
5.021280
 22
3.094080
 13
5.020400
 23
3.822720
  0
POLYLINE
  8
0
  6
CONTINUOUS
 66
     1
 40
0.000000
 41
0.000000
  0
VERTEX
  8
0
  6
CONTINUOUS
 10
4.976840
 20
3.103760
  0
VERTEX
  8
0
  6
CONTINUOUS
 10
4.975960
 20
3.831960
  0
VERTEX
  8
0
  6
CONTINUOUS
 10
5.020400
 20
3.822720
  0
VERTEX
  8
0
  6
CONTINUOUS
 10
5.021280
 20
3.094080
  0
VERTEX
  8
0
  6
CONTINUOUS
 10
4.976840
 20
3.103760
  0
SEQEND
  8
0
  0
SOLID
  8
0
 62
    15
 10
3.394600
 20
3.189120
 11
3.393720
 21
3.917760
 12
3.416160
 22
3.111240
 13
3.415280
 23
3.839440
  0
POLYLINE
  8
0
  6
CONTINUOUS
 66
     1
 40
0.000000
 41
0.000000
  0
VERTEX
  8
0
  6
CONTINUOUS
 10
3.394600
 20
3.189120
  0
VERTEX
  8
0
  6
CONTINUOUS
 10
3.393720
 20
3.917760
  0
VERTEX
  8
0
  6
CONTINUOUS
 10
3.415280
 20
3.839440
  0
VERTEX
  8
0
  6
CONTINUOUS
 10
3.416160
 20
3.111240
  0
VERTEX
  8
0
  6
CONTINUOUS
 10
3.394600
 20
3.189120
  0
SEQEND
  8
0
  0
SOLID
  8
0
 62
    15
 10
5.060880
 20
3.077800
 11
5.060000
 21
3.806440
 12
5.092120
 22
3.058880
 13
5.091240
 23
3.787520
  0
POLYLINE
  8
0
  6
CONTINUOUS
 66
     1
 40
0.000000
 41
0.000000
  0
VERTEX
  8
0
  6
CONTINUOUS
 10
5.060880
 20
3.077800
  0
VERTEX
  8
0
  6
CONTINUOUS
 10
5.060000
 20
3.806440
  0
VERTEX
  8
0
  6
CONTINUOUS
 10
5.091240
 20
3.787520
  0
VERTEX
  8
0
  6
CONTINUOUS
 10
5.092120
 20
3.058880
  0
VERTEX
  8
0
  6
CONTINUOUS
 10
5.060880
 20
3.077800
  0
SEQEND
  8
0
  0
SOLID
  8
0
 62
    15
 10
5.092120
 20
3.058880
 11
5.091240
 21
3.787520
 12
5.111920
 22
3.041280
 13
5.111040
 23
3.769920
  0
POLYLINE
  8
0
  6
CONTINUOUS
 66
     1
 40
0.000000
 41
0.000000
  0
VERTEX
  8
0
  6
CONTINUOUS
 10
5.092120
 20
3.058880
  0
VERTEX
  8
0
  6
CONTINUOUS
 10
5.091240
 20
3.787520
  0
VERTEX
  8
0
  6
CONTINUOUS
 10
5.111040
 20
3.769920
  0
VERTEX
  8
0
  6
CONTINUOUS
 10
5.111920
 20
3.041280
  0
VERTEX
  8
0
  6
CONTINUOUS
 10
5.092120
 20
3.058880
  0
SEQEND
  8
0
  0
SOLID
  8
0
 62
    15
 10
5.111920
 20
3.041280
 11
5.111040
 21
3.769920
 12
5.115000
 22
3.039520
 13
5.114120
 23
3.768160
  0
POLYLINE
  8
0
  6
CONTINUOUS
 66
     1
 40
0.000000
 41
0.000000
  0
VERTEX
  8
0
  6
CONTINUOUS
 10
5.111920
 20
3.041280
  0
VERTEX
  8
0
  6
CONTINUOUS
 10
5.111040
 20
3.769920
  0
VERTEX
  8
0
  6
CONTINUOUS
 10
5.114120
 20
3.768160
  0
VERTEX
  8
0
  6
CONTINUOUS
 10
5.115000
 20
3.039520
  0
VERTEX
  8
0
  6
CONTINUOUS
 10
5.111920
 20
3.041280
  0
SEQEND
  8
0
  0
SOLID
  8
0
 62
    15
 10
5.115000
 20
3.039520
 11
5.114120
 21
3.768160
 12
5.122480
 22
3.033800
 13
5.121600
 23
3.762000
  0
POLYLINE
  8
0
  6
CONTINUOUS
 66
     1
 40
0.000000
 41
0.000000
  0
VERTEX
  8
0
  6
CONTINUOUS
 10
5.115000
 20
3.039520
  0
VERTEX
  8
0
  6
CONTINUOUS
 10
5.114120
 20
3.768160
  0
VERTEX
  8
0
  6
CONTINUOUS
 10
5.121600
 20
3.762000
  0
VERTEX
  8
0
  6
CONTINUOUS
 10
5.122480
 20
3.033800
  0
VERTEX
  8
0
  6
CONTINUOUS
 10
5.115000
 20
3.039520
  0
SEQEND
  8
0
  0
SOLID
  8
0
 62
    15
 10
5.122480
 20
3.033800
 11
5.121600
 21
3.762000
 12
5.133920
 22
3.024120
 13
5.133040
 23
3.752760
  0
POLYLINE
  8
0
  6
CONTINUOUS
 66
     1
 40
0.000000
 41
0.000000
  0
VERTEX
  8
0
  6
CONTINUOUS
 10
5.122480
 20
3.033800
  0
VERTEX
  8
0
  6
CONTINUOUS
 10
5.121600
 20
3.762000
  0
VERTEX
  8
0
  6
CONTINUOUS
 10
5.133040
 20
3.752760
  0
VERTEX
  8
0
  6
CONTINUOUS
 10
5.133920
 20
3.024120
  0
VERTEX
  8
0
  6
CONTINUOUS
 10
5.122480
 20
3.033800
  0
SEQEND
  8
0
  0
SOLID
  8
0
 62
    15
 10
5.133920
 20
3.024120
 11
5.133040
 21
3.752760
 12
5.149320
 22
3.011800
 13
5.148440
 23
3.740440
  0
POLYLINE
  8
0
  6
CONTINUOUS
 66
     1
 40
0.000000
 41
0.000000
  0
VERTEX
  8
0
  6
CONTINUOUS
 10
5.133920
 20
3.024120
  0
VERTEX
  8
0
  6
CONTINUOUS
 10
5.133040
 20
3.752760
  0
VERTEX
  8
0
  6
CONTINUOUS
 10
5.148440
 20
3.740440
  0
VERTEX
  8
0
  6
CONTINUOUS
 10
5.149320
 20
3.011800
  0
VERTEX
  8
0
  6
CONTINUOUS
 10
5.133920
 20
3.024120
  0
SEQEND
  8
0
  0
SOLID
  8
0
 62
    15
 10
5.149320
 20
3.011800
 11
5.148440
 21
3.740440
 12
5.168680
 22
2.997720
 13
5.167800
 23
3.725920
  0
POLYLINE
  8
0
  6
CONTINUOUS
 66
     1
 40
0.000000
 41
0.000000
  0
VERTEX
  8
0
  6
CONTINUOUS
 10
5.149320
 20
3.011800
  0
VERTEX
  8
0
  6
CONTINUOUS
 10
5.148440
 20
3.740440
  0
VERTEX
  8
0
  6
CONTINUOUS
 10
5.167800
 20
3.725920
  0
VERTEX
  8
0
  6
CONTINUOUS
 10
5.168680
 20
2.997720
  0
VERTEX
  8
0
  6
CONTINUOUS
 10
5.149320
 20
3.011800
  0
SEQEND
  8
0
  0
SOLID
  8
0
 62
    15
 10
5.168680
 20
2.997720
 11
5.167800
 21
3.725920
 12
5.191560
 22
2.981440
 13
5.190680
 23
3.710080
  0
POLYLINE
  8
0
  6
CONTINUOUS
 66
     1
 40
0.000000
 41
0.000000
  0
VERTEX
  8
0
  6
CONTINUOUS
 10
5.168680
 20
2.997720
  0
VERTEX
  8
0
  6
CONTINUOUS
 10
5.167800
 20
3.725920
  0
VERTEX
  8
0
  6
CONTINUOUS
 10
5.190680
 20
3.710080
  0
VERTEX
  8
0
  6
CONTINUOUS
 10
5.191560
 20
2.981440
  0
VERTEX
  8
0
  6
CONTINUOUS
 10
5.168680
 20
2.997720
  0
SEQEND
  8
0
  0
SOLID
  8
0
 62
    15
 10
5.191560
 20
2.981440
 11
5.190680
 21
3.710080
 12
5.247880
 22
2.947120
 13
5.247000
 23
3.675760
  0
POLYLINE
  8
0
  6
CONTINUOUS
 66
     1
 40
0.000000
 41
0.000000
  0
VERTEX
  8
0
  6
CONTINUOUS
 10
5.191560
 20
2.981440
  0
VERTEX
  8
0
  6
CONTINUOUS
 10
5.190680
 20
3.710080
  0
VERTEX
  8
0
  6
CONTINUOUS
 10
5.247000
 20
3.675760
  0
VERTEX
  8
0
  6
CONTINUOUS
 10
5.247880
 20
2.947120
  0
VERTEX
  8
0
  6
CONTINUOUS
 10
5.191560
 20
2.981440
  0
SEQEND
  8
0
  0
SOLID
  8
0
 62
    15
 10
5.247880
 20
2.947120
 11
5.247000
 21
3.675760
 12
5.317840
 22
2.914560
 13
5.316960
 23
3.642760
  0
POLYLINE
  8
0
  6
CONTINUOUS
 66
     1
 40
0.000000
 41
0.000000
  0
VERTEX
  8
0
  6
CONTINUOUS
 10
5.247880
 20
2.947120
  0
VERTEX
  8
0
  6
CONTINUOUS
 10
5.247000
 20
3.675760
  0
VERTEX
  8
0
  6
CONTINUOUS
 10
5.316960
 20
3.642760
  0
VERTEX
  8
0
  6
CONTINUOUS
 10
5.317840
 20
2.914560
  0
VERTEX
  8
0
  6
CONTINUOUS
 10
5.247880
 20
2.947120
  0
SEQEND
  8
0
  0
SOLID
  8
0
 62
    15
 10
5.317840
 20
2.914560
 11
5.316960
 21
3.642760
 12
5.399680
 22
2.888160
 13
5.398800
 23
3.616800
  0
POLYLINE
  8
0
  6
CONTINUOUS
 66
     1
 40
0.000000
 41
0.000000
  0
VERTEX
  8
0
  6
CONTINUOUS
 10
5.317840
 20
2.914560
  0
VERTEX
  8
0
  6
CONTINUOUS
 10
5.316960
 20
3.642760
  0
VERTEX
  8
0
  6
CONTINUOUS
 10
5.398800
 20
3.616800
  0
VERTEX
  8
0
  6
CONTINUOUS
 10
5.399680
 20
2.888160
  0
VERTEX
  8
0
  6
CONTINUOUS
 10
5.317840
 20
2.914560
  0
SEQEND
  8
0
  0
SOLID
  8
0
 62
    15
 10
5.399680
 20
2.888160
 11
5.398800
 21
3.616800
 12
5.445000
 22
2.878920
 13
5.444120
 23
3.607560
  0
POLYLINE
  8
0
  6
CONTINUOUS
 66
     1
 40
0.000000
 41
0.000000
  0
VERTEX
  8
0
  6
CONTINUOUS
 10
5.399680
 20
2.888160
  0
VERTEX
  8
0
  6
CONTINUOUS
 10
5.398800
 20
3.616800
  0
VERTEX
  8
0
  6
CONTINUOUS
 10
5.444120
 20
3.607560
  0
VERTEX
  8
0
  6
CONTINUOUS
 10
5.445000
 20
2.878920
  0
VERTEX
  8
0
  6
CONTINUOUS
 10
5.399680
 20
2.888160
  0
SEQEND
  8
0
  0
SOLID
  8
0
 62
    15
 10
5.445000
 20
2.878920
 11
5.444120
 21
3.607560
 12
5.492960
 22
2.873640
 13
5.491640
 23
3.602280
  0
POLYLINE
  8
0
  6
CONTINUOUS
 66
     1
 40
0.000000
 41
0.000000
  0
VERTEX
  8
0
  6
CONTINUOUS
 10
5.445000
 20
2.878920
  0
VERTEX
  8
0
  6
CONTINUOUS
 10
5.444120
 20
3.607560
  0
VERTEX
  8
0
  6
CONTINUOUS
 10
5.491640
 20
3.602280
  0
VERTEX
  8
0
  6
CONTINUOUS
 10
5.492960
 20
2.873640
  0
VERTEX
  8
0
  6
CONTINUOUS
 10
5.445000
 20
2.878920
  0
SEQEND
  8
0
  0
SOLID
  8
0
 62
    15
 10
5.492960
 20
2.873640
 11
5.491640
 21
3.602280
 12
5.543120
 22
2.872320
 13
5.542240
 23
3.600960
  0
POLYLINE
  8
0
  6
CONTINUOUS
 66
     1
 40
0.000000
 41
0.000000
  0
VERTEX
  8
0
  6
CONTINUOUS
 10
5.492960
 20
2.873640
  0
VERTEX
  8
0
  6
CONTINUOUS
 10
5.491640
 20
3.602280
  0
VERTEX
  8
0
  6
CONTINUOUS
 10
5.542240
 20
3.600960
  0
VERTEX
  8
0
  6
CONTINUOUS
 10
5.543120
 20
2.872320
  0
VERTEX
  8
0
  6
CONTINUOUS
 10
5.492960
 20
2.873640
  0
SEQEND
  8
0
  0
SOLID
  8
0
 62
    15
 10
6.649280
 20
2.773320
 11
6.648400
 21
3.501960
 12
6.655880
 22
2.710400
 13
6.655000
 23
3.439040
  0
POLYLINE
  8
0
  6
CONTINUOUS
 66
     1
 40
0.000000
 41
0.000000
  0
VERTEX
  8
0
  6
CONTINUOUS
 10
6.649280
 20
2.773320
  0
VERTEX
  8
0
  6
CONTINUOUS
 10
6.648400
 20
3.501960
  0
VERTEX
  8
0
  6
CONTINUOUS
 10
6.655000
 20
3.439040
  0
VERTEX
  8
0
  6
CONTINUOUS
 10
6.655880
 20
2.710400
  0
VERTEX
  8
0
  6
CONTINUOUS
 10
6.649280
 20
2.773320
  0
SEQEND
  8
0
  0
SOLID
  8
0
 62
    15
 10
5.595920
 20
2.773320
 11
5.595040
 21
3.501960
 12
6.649280
 22
2.773320
 13
6.648400
 23
3.501960
  0
POLYLINE
  8
0
  6
CONTINUOUS
 66
     1
 40
0.000000
 41
0.000000
  0
VERTEX
  8
0
  6
CONTINUOUS
 10
5.595920
 20
2.773320
  0
VERTEX
  8
0
  6
CONTINUOUS
 10
5.595040
 20
3.501960
  0
VERTEX
  8
0
  6
CONTINUOUS
 10
6.648400
 20
3.501960
  0
VERTEX
  8
0
  6
CONTINUOUS
 10
6.649280
 20
2.773320
  0
VERTEX
  8
0
  6
CONTINUOUS
 10
5.595920
 20
2.773320
  0
SEQEND
  8
0
  0
SOLID
  8
0
 62
    15
 10
5.543120
 20
2.872320
 11
5.542240
 21
3.600960
 12
5.595920
 22
2.875840
 13
5.595040
 23
3.604480
  0
POLYLINE
  8
0
  6
CONTINUOUS
 66
     1
 40
0.000000
 41
0.000000
  0
VERTEX
  8
0
  6
CONTINUOUS
 10
5.543120
 20
2.872320
  0
VERTEX
  8
0
  6
CONTINUOUS
 10
5.542240
 20
3.600960
  0
VERTEX
  8
0
  6
CONTINUOUS
 10
5.595040
 20
3.604480
  0
VERTEX
  8
0
  6
CONTINUOUS
 10
5.595920
 20
2.875840
  0
VERTEX
  8
0
  6
CONTINUOUS
 10
5.543120
 20
2.872320
  0
SEQEND
  8
0
  0
SOLID
  8
0
 62
    15
 10
6.655880
 20
2.710400
 11
6.655000
 21
3.439040
 12
6.668200
 22
2.661120
 13
6.666880
 23
3.389760
  0
POLYLINE
  8
0
  6
CONTINUOUS
 66
     1
 40
0.000000
 41
0.000000
  0
VERTEX
  8
0
  6
CONTINUOUS
 10
6.655880
 20
2.710400
  0
VERTEX
  8
0
  6
CONTINUOUS
 10
6.655000
 20
3.439040
  0
VERTEX
  8
0
  6
CONTINUOUS
 10
6.666880
 20
3.389760
  0
VERTEX
  8
0
  6
CONTINUOUS
 10
6.668200
 20
2.661120
  0
VERTEX
  8
0
  6
CONTINUOUS
 10
6.655880
 20
2.710400
  0
SEQEND
  8
0
  0
SOLID
  8
0
 62
    15
 10
6.684920
 20
2.623280
 11
6.683600
 21
3.351920
 12
6.705600
 22
2.595120
 13
6.704720
 23
3.323760
  0
POLYLINE
  8
0
  6
CONTINUOUS
 66
     1
 40
0.000000
 41
0.000000
  0
VERTEX
  8
0
  6
CONTINUOUS
 10
6.684920
 20
2.623280
  0
VERTEX
  8
0
  6
CONTINUOUS
 10
6.683600
 20
3.351920
  0
VERTEX
  8
0
  6
CONTINUOUS
 10
6.704720
 20
3.323760
  0
VERTEX
  8
0
  6
CONTINUOUS
 10
6.705600
 20
2.595120
  0
VERTEX
  8
0
  6
CONTINUOUS
 10
6.684920
 20
2.623280
  0
SEQEND
  8
0
  0
SOLID
  8
0
 62
    15
 10
6.668200
 20
2.661120
 11
6.666880
 21
3.389760
 12
6.684920
 22
2.623280
 13
6.683600
 23
3.351920
  0
POLYLINE
  8
0
  6
CONTINUOUS
 66
     1
 40
0.000000
 41
0.000000
  0
VERTEX
  8
0
  6
CONTINUOUS
 10
6.668200
 20
2.661120
  0
VERTEX
  8
0
  6
CONTINUOUS
 10
6.666880
 20
3.389760
  0
VERTEX
  8
0
  6
CONTINUOUS
 10
6.683600
 20
3.351920
  0
VERTEX
  8
0
  6
CONTINUOUS
 10
6.684920
 20
2.623280
  0
VERTEX
  8
0
  6
CONTINUOUS
 10
6.668200
 20
2.661120
  0
SEQEND
  8
0
  0
SOLID
  8
0
 62
    15
 10
6.705600
 20
2.595120
 11
6.704720
 21
3.323760
 12
6.730240
 22
2.575320
 13
6.729360
 23
3.303520
  0
POLYLINE
  8
0
  6
CONTINUOUS
 66
     1
 40
0.000000
 41
0.000000
  0
VERTEX
  8
0
  6
CONTINUOUS
 10
6.705600
 20
2.595120
  0
VERTEX
  8
0
  6
CONTINUOUS
 10
6.704720
 20
3.323760
  0
VERTEX
  8
0
  6
CONTINUOUS
 10
6.729360
 20
3.303520
  0
VERTEX
  8
0
  6
CONTINUOUS
 10
6.730240
 20
2.575320
  0
VERTEX
  8
0
  6
CONTINUOUS
 10
6.705600
 20
2.595120
  0
SEQEND
  8
0
  0
SOLID
  8
0
 62
    15
 10
6.730240
 20
2.575320
 11
6.729360
 21
3.303520
 12
6.757960
 22
2.560800
 13
6.757080
 23
3.289440
  0
POLYLINE
  8
0
  6
CONTINUOUS
 66
     1
 40
0.000000
 41
0.000000
  0
VERTEX
  8
0
  6
CONTINUOUS
 10
6.730240
 20
2.575320
  0
VERTEX
  8
0
  6
CONTINUOUS
 10
6.729360
 20
3.303520
  0
VERTEX
  8
0
  6
CONTINUOUS
 10
6.757080
 20
3.289440
  0
VERTEX
  8
0
  6
CONTINUOUS
 10
6.757960
 20
2.560800
  0
VERTEX
  8
0
  6
CONTINUOUS
 10
6.730240
 20
2.575320
  0
SEQEND
  8
0
  0
SOLID
  8
0
 62
    15
 10
6.757960
 20
2.560800
 11
6.757080
 21
3.289440
 12
6.820000
 22
2.543200
 13
6.819120
 23
3.271400
  0
POLYLINE
  8
0
  6
CONTINUOUS
 66
     1
 40
0.000000
 41
0.000000
  0
VERTEX
  8
0
  6
CONTINUOUS
 10
6.757960
 20
2.560800
  0
VERTEX
  8
0
  6
CONTINUOUS
 10
6.757080
 20
3.289440
  0
VERTEX
  8
0
  6
CONTINUOUS
 10
6.819120
 20
3.271400
  0
VERTEX
  8
0
  6
CONTINUOUS
 10
6.820000
 20
2.543200
  0
VERTEX
  8
0
  6
CONTINUOUS
 10
6.757960
 20
2.560800
  0
SEQEND
  8
0
  0
SOLID
  8
0
 62
    15
 10
6.820000
 20
2.543200
 11
6.819120
 21
3.271400
 12
6.887320
 22
2.526480
 13
6.886440
 23
3.255120
  0
POLYLINE
  8
0
  6
CONTINUOUS
 66
     1
 40
0.000000
 41
0.000000
  0
VERTEX
  8
0
  6
CONTINUOUS
 10
6.820000
 20
2.543200
  0
VERTEX
  8
0
  6
CONTINUOUS
 10
6.819120
 20
3.271400
  0
VERTEX
  8
0
  6
CONTINUOUS
 10
6.886440
 20
3.255120
  0
VERTEX
  8
0
  6
CONTINUOUS
 10
6.887320
 20
2.526480
  0
VERTEX
  8
0
  6
CONTINUOUS
 10
6.820000
 20
2.543200
  0
SEQEND
  8
0
  0
SOLID
  8
0
 62
    15
 10
6.887320
 20
2.526480
 11
6.886440
 21
3.255120
 12
6.921640
 22
2.514160
 13
6.920760
 23
3.242360
  0
POLYLINE
  8
0
  6
CONTINUOUS
 66
     1
 40
0.000000
 41
0.000000
  0
VERTEX
  8
0
  6
CONTINUOUS
 10
6.887320
 20
2.526480
  0
VERTEX
  8
0
  6
CONTINUOUS
 10
6.886440
 20
3.255120
  0
VERTEX
  8
0
  6
CONTINUOUS
 10
6.920760
 20
3.242360
  0
VERTEX
  8
0
  6
CONTINUOUS
 10
6.921640
 20
2.514160
  0
VERTEX
  8
0
  6
CONTINUOUS
 10
6.887320
 20
2.526480
  0
SEQEND
  8
0
  0
SOLID
  8
0
 62
    15
 10
6.921640
 20
2.514160
 11
6.920760
 21
3.242360
 12
6.955520
 22
2.496120
 13
6.954640
 23
3.224760
  0
POLYLINE
  8
0
  6
CONTINUOUS
 66
     1
 40
0.000000
 41
0.000000
  0
VERTEX
  8
0
  6
CONTINUOUS
 10
6.921640
 20
2.514160
  0
VERTEX
  8
0
  6
CONTINUOUS
 10
6.920760
 20
3.242360
  0
VERTEX
  8
0
  6
CONTINUOUS
 10
6.954640
 20
3.224760
  0
VERTEX
  8
0
  6
CONTINUOUS
 10
6.955520
 20
2.496120
  0
VERTEX
  8
0
  6
CONTINUOUS
 10
6.921640
 20
2.514160
  0
SEQEND
  8
0
  0
SOLID
  8
0
 62
    15
 10
6.955520
 20
2.496120
 11
6.954640
 21
3.224760
 12
6.988080
 22
2.471480
 13
6.987200
 23
3.199680
  0
POLYLINE
  8
0
  6
CONTINUOUS
 66
     1
 40
0.000000
 41
0.000000
  0
VERTEX
  8
0
  6
CONTINUOUS
 10
6.955520
 20
2.496120
  0
VERTEX
  8
0
  6
CONTINUOUS
 10
6.954640
 20
3.224760
  0
VERTEX
  8
0
  6
CONTINUOUS
 10
6.987200
 20
3.199680
  0
VERTEX
  8
0
  6
CONTINUOUS
 10
6.988080
 20
2.471480
  0
VERTEX
  8
0
  6
CONTINUOUS
 10
6.955520
 20
2.496120
  0
SEQEND
  8
0
  0
SOLID
  8
0
 62
    15
 10
6.988080
 20
2.471480
 11
6.987200
 21
3.199680
 12
7.019320
 22
2.437160
 13
7.018440
 23
3.165800
  0
POLYLINE
  8
0
  6
CONTINUOUS
 66
     1
 40
0.000000
 41
0.000000
  0
VERTEX
  8
0
  6
CONTINUOUS
 10
6.988080
 20
2.471480
  0
VERTEX
  8
0
  6
CONTINUOUS
 10
6.987200
 20
3.199680
  0
VERTEX
  8
0
  6
CONTINUOUS
 10
7.018440
 20
3.165800
  0
VERTEX
  8
0
  6
CONTINUOUS
 10
7.019320
 20
2.437160
  0
VERTEX
  8
0
  6
CONTINUOUS
 10
6.988080
 20
2.471480
  0
SEQEND
  8
0
  0
SOLID
  8
0
 62
    15
 10
7.048360
 20
2.392280
 11
7.047480
 21
3.120920
 12
7.074760
 22
2.334640
 13
7.073880
 23
3.063280
  0
POLYLINE
  8
0
  6
CONTINUOUS
 66
     1
 40
0.000000
 41
0.000000
  0
VERTEX
  8
0
  6
CONTINUOUS
 10
7.048360
 20
2.392280
  0
VERTEX
  8
0
  6
CONTINUOUS
 10
7.047480
 20
3.120920
  0
VERTEX
  8
0
  6
CONTINUOUS
 10
7.073880
 20
3.063280
  0
VERTEX
  8
0
  6
CONTINUOUS
 10
7.074760
 20
2.334640
  0
VERTEX
  8
0
  6
CONTINUOUS
 10
7.048360
 20
2.392280
  0
SEQEND
  8
0
  0
SOLID
  8
0
 62
    15
 10
7.019320
 20
2.437160
 11
7.018440
 21
3.165800
 12
7.048360
 22
2.392280
 13
7.047480
 23
3.120920
  0
POLYLINE
  8
0
  6
CONTINUOUS
 66
     1
 40
0.000000
 41
0.000000
  0
VERTEX
  8
0
  6
CONTINUOUS
 10
7.019320
 20
2.437160
  0
VERTEX
  8
0
  6
CONTINUOUS
 10
7.018440
 20
3.165800
  0
VERTEX
  8
0
  6
CONTINUOUS
 10
7.047480
 20
3.120920
  0
VERTEX
  8
0
  6
CONTINUOUS
 10
7.048360
 20
2.392280
  0
VERTEX
  8
0
  6
CONTINUOUS
 10
7.019320
 20
2.437160
  0
SEQEND
  8
0
  0
SOLID
  8
0
 62
    15
 10
1.418560
 20
2.333320
 11
1.417680
 21
3.061960
 12
1.418560
 22
3.194400
 13
1.417680
 23
3.923040
  0
POLYLINE
  8
0
  6
CONTINUOUS
 66
     1
 40
0.000000
 41
0.000000
  0
VERTEX
  8
0
  6
CONTINUOUS
 10
1.418560
 20
2.333320
  0
VERTEX
  8
0
  6
CONTINUOUS
 10
1.417680
 20
3.061960
  0
VERTEX
  8
0
  6
CONTINUOUS
 10
1.417680
 20
3.923040
  0
VERTEX
  8
0
  6
CONTINUOUS
 10
1.418560
 20
3.194400
  0
VERTEX
  8
0
  6
CONTINUOUS
 10
1.418560
 20
2.333320
  0
SEQEND
  8
0
  0
SOLID
  8
0
 62
    15
 10
1.418560
 20
3.194400
 11
1.417680
 21
3.923040
 12
1.421640
 22
3.196160
 13
1.420320
 23
3.924360
  0
POLYLINE
  8
0
  6
CONTINUOUS
 66
     1
 40
0.000000
 41
0.000000
  0
VERTEX
  8
0
  6
CONTINUOUS
 10
1.418560
 20
3.194400
  0
VERTEX
  8
0
  6
CONTINUOUS
 10
1.417680
 20
3.923040
  0
VERTEX
  8
0
  6
CONTINUOUS
 10
1.420320
 20
3.924360
  0
VERTEX
  8
0
  6
CONTINUOUS
 10
1.421640
 20
3.196160
  0
VERTEX
  8
0
  6
CONTINUOUS
 10
1.418560
 20
3.194400
  0
SEQEND
  8
0
  0
SOLID
  8
0
 62
    15
 10
1.421640
 20
3.196160
 11
1.420320
 21
3.924360
 12
3.390640
 22
3.196160
 13
3.389760
 23
3.924360
  0
POLYLINE
  8
0
  6
CONTINUOUS
 66
     1
 40
0.000000
 41
0.000000
  0
VERTEX
  8
0
  6
CONTINUOUS
 10
1.421640
 20
3.196160
  0
VERTEX
  8
0
  6
CONTINUOUS
 10
1.420320
 20
3.924360
  0
VERTEX
  8
0
  6
CONTINUOUS
 10
3.389760
 20
3.924360
  0
VERTEX
  8
0
  6
CONTINUOUS
 10
3.390640
 20
3.196160
  0
VERTEX
  8
0
  6
CONTINUOUS
 10
1.421640
 20
3.196160
  0
SEQEND
  8
0
  0
SOLID
  8
0
 62
    15
 10
3.390640
 20
3.196160
 11
3.389760
 21
3.924360
 12
3.394600
 22
3.189120
 13
3.393720
 23
3.917760
  0
POLYLINE
  8
0
  6
CONTINUOUS
 66
     1
 40
0.000000
 41
0.000000
  0
VERTEX
  8
0
  6
CONTINUOUS
 10
3.390640
 20
3.196160
  0
VERTEX
  8
0
  6
CONTINUOUS
 10
3.389760
 20
3.924360
  0
VERTEX
  8
0
  6
CONTINUOUS
 10
3.393720
 20
3.917760
  0
VERTEX
  8
0
  6
CONTINUOUS
 10
3.394600
 20
3.189120
  0
VERTEX
  8
0
  6
CONTINUOUS
 10
3.390640
 20
3.196160
  0
SEQEND
  8
0
  0
POLYLINE
  8
0
  6
CONTINUOUS
 66
     1
 40
0.000000
 41
0.000000
  0
VERTEX
  8
0
  6
CONTINUOUS
 10
3.394600
 20
3.189120
  0
VERTEX
  8
0
  6
CONTINUOUS
 10
3.416160
 20
3.111240
  0
VERTEX
  8
0
  6
CONTINUOUS
 10
3.443440
 20
3.042600
  0
VERTEX
  8
0
  6
CONTINUOUS
 10
3.476000
 20
2.983200
  0
VERTEX
  8
0
  6
CONTINUOUS
 10
3.512960
 20
2.931720
  0
VERTEX
  8
0
  6
CONTINUOUS
 10
3.553880
 20
2.888600
  0
VERTEX
  8
0
  6
CONTINUOUS
 10
3.597880
 20
2.852080
  0
VERTEX
  8
0
  6
CONTINUOUS
 10
3.644960
 20
2.822160
  0
VERTEX
  8
0
  6
CONTINUOUS
 10
3.694240
 20
2.798400
  0
VERTEX
  8
0
  6
CONTINUOUS
 10
3.745280
 20
2.779920
  0
VERTEX
  8
0
  6
CONTINUOUS
 10
3.797200
 20
2.765840
  0
VERTEX
  8
0
  6
CONTINUOUS
 10
3.901920
 20
2.748680
  0
VERTEX
  8
0
  6
CONTINUOUS
 10
4.004000
 20
2.742960
  0
VERTEX
  8
0
  6
CONTINUOUS
 10
4.098600
 20
2.742520
  0
VERTEX
  8
0
  6
CONTINUOUS
 10
4.279440
 20
2.745600
  0
VERTEX
  8
0
  6
CONTINUOUS
 10
4.367000
 20
2.753080
  0
VERTEX
  8
0
  6
CONTINUOUS
 10
4.450160
 20
2.769360
  0
VERTEX
  8
0
  6
CONTINUOUS
 10
4.489320
 20
2.781680
  0
VERTEX
  8
0
  6
CONTINUOUS
 10
4.526720
 20
2.797960
  0
VERTEX
  8
0
  6
CONTINUOUS
 10
4.561480
 20
2.817760
  0
VERTEX
  8
0
  6
CONTINUOUS
 10
4.593600
 20
2.841960
  0
VERTEX
  8
0
  6
CONTINUOUS
 10
4.623080
 20
2.871000
  0
VERTEX
  8
0
  6
CONTINUOUS
 10
4.649040
 20
2.905760
  0
VERTEX
  8
0
  6
CONTINUOUS
 10
4.671920
 20
2.945800
  0
VERTEX
  8
0
  6
CONTINUOUS
 10
4.690840
 20
2.992000
  0
VERTEX
  8
0
  6
CONTINUOUS
 10
4.817560
 20
2.992000
  0
VERTEX
  8
0
  6
CONTINUOUS
 10
4.831200
 20
3.024560
  0
VERTEX
  8
0
  6
CONTINUOUS
 10
4.847920
 20
3.050520
  0
VERTEX
  8
0
  6
CONTINUOUS
 10
4.866400
 20
3.070760
  0
VERTEX
  8
0
  6
CONTINUOUS
 10
4.886640
 20
3.085720
  0
VERTEX
  8
0
  6
CONTINUOUS
 10
4.908200
 20
3.096280
  0
VERTEX
  8
0
  6
CONTINUOUS
 10
4.930640
 20
3.102440
  0
VERTEX
  8
0
  6
CONTINUOUS
 10
4.976840
 20
3.103760
  0
VERTEX
  8
0
  6
CONTINUOUS
 10
5.021280
 20
3.094080
  0
VERTEX
  8
0
  6
CONTINUOUS
 10
5.060880
 20
3.077800
  0
VERTEX
  8
0
  6
CONTINUOUS
 10
5.092120
 20
3.058880
  0
VERTEX
  8
0
  6
CONTINUOUS
 10
5.133920
 20
3.024120
  0
VERTEX
  8
0
  6
CONTINUOUS
 10
5.191560
 20
2.981440
  0
VERTEX
  8
0
  6
CONTINUOUS
 10
5.247880
 20
2.947120
  0
VERTEX
  8
0
  6
CONTINUOUS
 10
5.317840
 20
2.914560
  0
VERTEX
  8
0
  6
CONTINUOUS
 10
5.399680
 20
2.888160
  0
VERTEX
  8
0
  6
CONTINUOUS
 10
5.445000
 20
2.878920
  0
VERTEX
  8
0
  6
CONTINUOUS
 10
5.492960
 20
2.873640
  0
VERTEX
  8
0
  6
CONTINUOUS
 10
5.543120
 20
2.872320
  0
VERTEX
  8
0
  6
CONTINUOUS
 10
5.595920
 20
2.875840
  0
VERTEX
  8
0
  6
CONTINUOUS
 10
5.595920
 20
2.773320
  0
VERTEX
  8
0
  6
CONTINUOUS
 10
6.649280
 20
2.773320
  0
VERTEX
  8
0
  6
CONTINUOUS
 10
6.655880
 20
2.710400
  0
VERTEX
  8
0
  6
CONTINUOUS
 10
6.668200
 20
2.661120
  0
VERTEX
  8
0
  6
CONTINUOUS
 10
6.684920
 20
2.623280
  0
VERTEX
  8
0
  6
CONTINUOUS
 10
6.705600
 20
2.595120
  0
VERTEX
  8
0
  6
CONTINUOUS
 10
6.730240
 20
2.575320
  0
VERTEX
  8
0
  6
CONTINUOUS
 10
6.757960
 20
2.560800
  0
VERTEX
  8
0
  6
CONTINUOUS
 10
6.820000
 20
2.543200
  0
VERTEX
  8
0
  6
CONTINUOUS
 10
6.887320
 20
2.526480
  0
VERTEX
  8
0
  6
CONTINUOUS
 10
6.921640
 20
2.514160
  0
VERTEX
  8
0
  6
CONTINUOUS
 10
6.955520
 20
2.496120
  0
VERTEX
  8
0
  6
CONTINUOUS
 10
6.988080
 20
2.471480
  0
VERTEX
  8
0
  6
CONTINUOUS
 10
7.019320
 20
2.437160
  0
VERTEX
  8
0
  6
CONTINUOUS
 10
7.048360
 20
2.392280
  0
VERTEX
  8
0
  6
CONTINUOUS
 10
7.074760
 20
2.334640
  0
VERTEX
  8
0
  6
CONTINUOUS
 10
1.421640
 20
2.334640
  0
VERTEX
  8
0
  6
CONTINUOUS
 10
1.418560
 20
2.333320
  0
VERTEX
  8
0
  6
CONTINUOUS
 10
1.418560
 20
3.194400
  0
VERTEX
  8
0
  6
CONTINUOUS
 10
1.421640
 20
3.196160
  0
VERTEX
  8
0
  6
CONTINUOUS
 10
3.390640
 20
3.196160
  0
VERTEX
  8
0
  6
CONTINUOUS
 10
3.394600
 20
3.189120
  0
SEQEND
  8
0
  0
SOLID
  8
0
 62
    15
 10
3.178560
 20
3.421880
 11
3.184720
 21
4.159760
 12
3.180320
 22
3.422320
 13
3.186040
 23
4.159760
  0
POLYLINE
  8
0
  6
CONTINUOUS
 66
     1
 40
0.000000
 41
0.000000
  0
VERTEX
  8
0
  6
CONTINUOUS
 10
3.178560
 20
3.421880
  0
VERTEX
  8
0
  6
CONTINUOUS
 10
3.184720
 20
4.159760
  0
VERTEX
  8
0
  6
CONTINUOUS
 10
3.186040
 20
4.159760
  0
VERTEX
  8
0
  6
CONTINUOUS
 10
3.180320
 20
3.422320
  0
VERTEX
  8
0
  6
CONTINUOUS
 10
3.178560
 20
3.421880
  0
SEQEND
  8
0
  0
SOLID
  8
0
 62
    15
 10
2.417360
 20
4.010160
 11
2.423520
 21
4.748040
 12
2.429240
 22
3.922160
 13
2.435400
 23
4.660040
  0
POLYLINE
  8
0
  6
CONTINUOUS
 66
     1
 40
0.000000
 41
0.000000
  0
VERTEX
  8
0
  6
CONTINUOUS
 10
2.417360
 20
4.010160
  0
VERTEX
  8
0
  6
CONTINUOUS
 10
2.423520
 20
4.748040
  0
VERTEX
  8
0
  6
CONTINUOUS
 10
2.435400
 20
4.660040
  0
VERTEX
  8
0
  6
CONTINUOUS
 10
2.429240
 20
3.922160
  0
VERTEX
  8
0
  6
CONTINUOUS
 10
2.417360
 20
4.010160
  0
SEQEND
  8
0
  0
SOLID
  8
0
 62
    15
 10
2.429240
 20
3.922160
 11
2.435400
 21
4.660040
 12
2.450800
 22
3.842960
 13
2.456960
 23
4.580840
  0
POLYLINE
  8
0
  6
CONTINUOUS
 66
     1
 40
0.000000
 41
0.000000
  0
VERTEX
  8
0
  6
CONTINUOUS
 10
2.429240
 20
3.922160
  0
VERTEX
  8
0
  6
CONTINUOUS
 10
2.435400
 20
4.660040
  0
VERTEX
  8
0
  6
CONTINUOUS
 10
2.456960
 20
4.580840
  0
VERTEX
  8
0
  6
CONTINUOUS
 10
2.450800
 20
3.842960
  0
VERTEX
  8
0
  6
CONTINUOUS
 10
2.429240
 20
3.922160
  0
SEQEND
  8
0
  0
SOLID
  8
0
 62
    15
 10
2.450800
 20
3.842960
 11
2.456960
 21
4.580840
 12
2.480280
 22
3.772120
 13
2.486440
 23
4.510000
  0
POLYLINE
  8
0
  6
CONTINUOUS
 66
     1
 40
0.000000
 41
0.000000
  0
VERTEX
  8
0
  6
CONTINUOUS
 10
2.450800
 20
3.842960
  0
VERTEX
  8
0
  6
CONTINUOUS
 10
2.456960
 20
4.580840
  0
VERTEX
  8
0
  6
CONTINUOUS
 10
2.486440
 20
4.510000
  0
VERTEX
  8
0
  6
CONTINUOUS
 10
2.480280
 20
3.772120
  0
VERTEX
  8
0
  6
CONTINUOUS
 10
2.450800
 20
3.842960
  0
SEQEND
  8
0
  0
SOLID
  8
0
 62
    15
 10
2.480280
 20
3.772120
 11
2.486440
 21
4.510000
 12
2.517240
 22
3.709200
 13
2.523400
 23
4.447080
  0
POLYLINE
  8
0
  6
CONTINUOUS
 66
     1
 40
0.000000
 41
0.000000
  0
VERTEX
  8
0
  6
CONTINUOUS
 10
2.480280
 20
3.772120
  0
VERTEX
  8
0
  6
CONTINUOUS
 10
2.486440
 20
4.510000
  0
VERTEX
  8
0
  6
CONTINUOUS
 10
2.523400
 20
4.447080
  0
VERTEX
  8
0
  6
CONTINUOUS
 10
2.517240
 20
3.709200
  0
VERTEX
  8
0
  6
CONTINUOUS
 10
2.480280
 20
3.772120
  0
SEQEND
  8
0
  0
SOLID
  8
0
 62
    15
 10
2.517240
 20
3.709200
 11
2.523400
 21
4.447080
 12
2.560800
 22
3.653760
 13
2.566520
 23
4.391640
  0
POLYLINE
  8
0
  6
CONTINUOUS
 66
     1
 40
0.000000
 41
0.000000
  0
VERTEX
  8
0
  6
CONTINUOUS
 10
2.517240
 20
3.709200
  0
VERTEX
  8
0
  6
CONTINUOUS
 10
2.523400
 20
4.447080
  0
VERTEX
  8
0
  6
CONTINUOUS
 10
2.566520
 20
4.391640
  0
VERTEX
  8
0
  6
CONTINUOUS
 10
2.560800
 20
3.653760
  0
VERTEX
  8
0
  6
CONTINUOUS
 10
2.517240
 20
3.709200
  0
SEQEND
  8
0
  0
SOLID
  8
0
 62
    15
 10
2.560800
 20
3.653760
 11
2.566520
 21
4.391640
 12
2.609200
 22
3.605360
 13
2.615360
 23
4.343240
  0
POLYLINE
  8
0
  6
CONTINUOUS
 66
     1
 40
0.000000
 41
0.000000
  0
VERTEX
  8
0
  6
CONTINUOUS
 10
2.560800
 20
3.653760
  0
VERTEX
  8
0
  6
CONTINUOUS
 10
2.566520
 20
4.391640
  0
VERTEX
  8
0
  6
CONTINUOUS
 10
2.615360
 20
4.343240
  0
VERTEX
  8
0
  6
CONTINUOUS
 10
2.609200
 20
3.605360
  0
VERTEX
  8
0
  6
CONTINUOUS
 10
2.560800
 20
3.653760
  0
SEQEND
  8
0
  0
SOLID
  8
0
 62
    15
 10
2.609200
 20
3.605360
 11
2.615360
 21
4.343240
 12
2.662440
 22
3.564000
 13
2.668600
 23
4.301880
  0
POLYLINE
  8
0
  6
CONTINUOUS
 66
     1
 40
0.000000
 41
0.000000
  0
VERTEX
  8
0
  6
CONTINUOUS
 10
2.609200
 20
3.605360
  0
VERTEX
  8
0
  6
CONTINUOUS
 10
2.615360
 20
4.343240
  0
VERTEX
  8
0
  6
CONTINUOUS
 10
2.668600
 20
4.301880
  0
VERTEX
  8
0
  6
CONTINUOUS
 10
2.662440
 20
3.564000
  0
VERTEX
  8
0
  6
CONTINUOUS
 10
2.609200
 20
3.605360
  0
SEQEND
  8
0
  0
SOLID
  8
0
 62
    15
 10
2.662440
 20
3.564000
 11
2.668600
 21
4.301880
 12
2.719200
 22
3.528800
 13
2.725360
 23
4.266240
  0
POLYLINE
  8
0
  6
CONTINUOUS
 66
     1
 40
0.000000
 41
0.000000
  0
VERTEX
  8
0
  6
CONTINUOUS
 10
2.662440
 20
3.564000
  0
VERTEX
  8
0
  6
CONTINUOUS
 10
2.668600
 20
4.301880
  0
VERTEX
  8
0
  6
CONTINUOUS
 10
2.725360
 20
4.266240
  0
VERTEX
  8
0
  6
CONTINUOUS
 10
2.719200
 20
3.528800
  0
VERTEX
  8
0
  6
CONTINUOUS
 10
2.662440
 20
3.564000
  0
SEQEND
  8
0
  0
SOLID
  8
0
 62
    15
 10
2.719200
 20
3.528800
 11
2.725360
 21
4.266240
 12
2.778160
 22
3.499320
 13
2.784320
 23
4.236760
  0
POLYLINE
  8
0
  6
CONTINUOUS
 66
     1
 40
0.000000
 41
0.000000
  0
VERTEX
  8
0
  6
CONTINUOUS
 10
2.719200
 20
3.528800
  0
VERTEX
  8
0
  6
CONTINUOUS
 10
2.725360
 20
4.266240
  0
VERTEX
  8
0
  6
CONTINUOUS
 10
2.784320
 20
4.236760
  0
VERTEX
  8
0
  6
CONTINUOUS
 10
2.778160
 20
3.499320
  0
VERTEX
  8
0
  6
CONTINUOUS
 10
2.719200
 20
3.528800
  0
SEQEND
  8
0
  0
SOLID
  8
0
 62
    15
 10
2.778160
 20
3.499320
 11
2.784320
 21
4.236760
 12
2.838880
 22
3.475120
 13
2.844600
 23
4.213000
  0
POLYLINE
  8
0
  6
CONTINUOUS
 66
     1
 40
0.000000
 41
0.000000
  0
VERTEX
  8
0
  6
CONTINUOUS
 10
2.778160
 20
3.499320
  0
VERTEX
  8
0
  6
CONTINUOUS
 10
2.784320
 20
4.236760
  0
VERTEX
  8
0
  6
CONTINUOUS
 10
2.844600
 20
4.213000
  0
VERTEX
  8
0
  6
CONTINUOUS
 10
2.838880
 20
3.475120
  0
VERTEX
  8
0
  6
CONTINUOUS
 10
2.778160
 20
3.499320
  0
SEQEND
  8
0
  0
SOLID
  8
0
 62
    15
 10
2.838880
 20
3.475120
 11
2.844600
 21
4.213000
 12
2.900040
 22
3.456200
 13
2.905760
 23
4.194080
  0
POLYLINE
  8
0
  6
CONTINUOUS
 66
     1
 40
0.000000
 41
0.000000
  0
VERTEX
  8
0
  6
CONTINUOUS
 10
2.838880
 20
3.475120
  0
VERTEX
  8
0
  6
CONTINUOUS
 10
2.844600
 20
4.213000
  0
VERTEX
  8
0
  6
CONTINUOUS
 10
2.905760
 20
4.194080
  0
VERTEX
  8
0
  6
CONTINUOUS
 10
2.900040
 20
3.456200
  0
VERTEX
  8
0
  6
CONTINUOUS
 10
2.838880
 20
3.475120
  0
SEQEND
  8
0
  0
SOLID
  8
0
 62
    15
 10
2.900040
 20
3.456200
 11
2.905760
 21
4.194080
 12
2.960320
 22
3.441680
 13
2.966480
 23
4.179560
  0
POLYLINE
  8
0
  6
CONTINUOUS
 66
     1
 40
0.000000
 41
0.000000
  0
VERTEX
  8
0
  6
CONTINUOUS
 10
2.900040
 20
3.456200
  0
VERTEX
  8
0
  6
CONTINUOUS
 10
2.905760
 20
4.194080
  0
VERTEX
  8
0
  6
CONTINUOUS
 10
2.966480
 20
4.179560
  0
VERTEX
  8
0
  6
CONTINUOUS
 10
2.960320
 20
3.441680
  0
VERTEX
  8
0
  6
CONTINUOUS
 10
2.900040
 20
3.456200
  0
SEQEND
  8
0
  0
SOLID
  8
0
 62
    15
 10
2.960320
 20
3.441680
 11
2.966480
 21
4.179560
 12
3.019720
 22
3.431560
 13
3.025880
 23
4.169440
  0
POLYLINE
  8
0
  6
CONTINUOUS
 66
     1
 40
0.000000
 41
0.000000
  0
VERTEX
  8
0
  6
CONTINUOUS
 10
2.960320
 20
3.441680
  0
VERTEX
  8
0
  6
CONTINUOUS
 10
2.966480
 20
4.179560
  0
VERTEX
  8
0
  6
CONTINUOUS
 10
3.025880
 20
4.169440
  0
VERTEX
  8
0
  6
CONTINUOUS
 10
3.019720
 20
3.431560
  0
VERTEX
  8
0
  6
CONTINUOUS
 10
2.960320
 20
3.441680
  0
SEQEND
  8
0
  0
SOLID
  8
0
 62
    15
 10
3.019720
 20
3.431560
 11
3.025880
 21
4.169440
 12
3.076480
 22
3.425400
 13
3.082640
 23
4.162840
  0
POLYLINE
  8
0
  6
CONTINUOUS
 66
     1
 40
0.000000
 41
0.000000
  0
VERTEX
  8
0
  6
CONTINUOUS
 10
3.019720
 20
3.431560
  0
VERTEX
  8
0
  6
CONTINUOUS
 10
3.025880
 20
4.169440
  0
VERTEX
  8
0
  6
CONTINUOUS
 10
3.082640
 20
4.162840
  0
VERTEX
  8
0
  6
CONTINUOUS
 10
3.076480
 20
3.425400
  0
VERTEX
  8
0
  6
CONTINUOUS
 10
3.019720
 20
3.431560
  0
SEQEND
  8
0
  0
SOLID
  8
0
 62
    15
 10
3.076480
 20
3.425400
 11
3.082640
 21
4.162840
 12
3.129720
 22
3.422320
 13
3.135880
 23
4.160200
  0
POLYLINE
  8
0
  6
CONTINUOUS
 66
     1
 40
0.000000
 41
0.000000
  0
VERTEX
  8
0
  6
CONTINUOUS
 10
3.076480
 20
3.425400
  0
VERTEX
  8
0
  6
CONTINUOUS
 10
3.082640
 20
4.162840
  0
VERTEX
  8
0
  6
CONTINUOUS
 10
3.135880
 20
4.160200
  0
VERTEX
  8
0
  6
CONTINUOUS
 10
3.129720
 20
3.422320
  0
VERTEX
  8
0
  6
CONTINUOUS
 10
3.076480
 20
3.425400
  0
SEQEND
  8
0
  0
SOLID
  8
0
 62
    15
 10
3.129720
 20
3.422320
 11
3.135880
 21
4.160200
 12
3.178560
 22
3.421880
 13
3.184720
 23
4.159760
  0
POLYLINE
  8
0
  6
CONTINUOUS
 66
     1
 40
0.000000
 41
0.000000
  0
VERTEX
  8
0
  6
CONTINUOUS
 10
3.129720
 20
3.422320
  0
VERTEX
  8
0
  6
CONTINUOUS
 10
3.135880
 20
4.160200
  0
VERTEX
  8
0
  6
CONTINUOUS
 10
3.184720
 20
4.159760
  0
VERTEX
  8
0
  6
CONTINUOUS
 10
3.178560
 20
3.421880
  0
VERTEX
  8
0
  6
CONTINUOUS
 10
3.129720
 20
3.422320
  0
SEQEND
  8
0
  0
SOLID
  8
0
 62
    15
 10
1.420320
 20
4.010160
 11
1.426040
 21
4.748040
 12
2.417360
 22
4.010160
 13
2.423520
 23
4.748040
  0
POLYLINE
  8
0
  6
CONTINUOUS
 66
     1
 40
0.000000
 41
0.000000
  0
VERTEX
  8
0
  6
CONTINUOUS
 10
1.420320
 20
4.010160
  0
VERTEX
  8
0
  6
CONTINUOUS
 10
1.426040
 20
4.748040
  0
VERTEX
  8
0
  6
CONTINUOUS
 10
2.423520
 20
4.748040
  0
VERTEX
  8
0
  6
CONTINUOUS
 10
2.417360
 20
4.010160
  0
VERTEX
  8
0
  6
CONTINUOUS
 10
1.420320
 20
4.010160
  0
SEQEND
  8
0
  0
SOLID
  8
0
 62
    15
 10
3.180320
 20
3.439480
 11
3.186040
 21
4.177360
 12
3.185160
 22
3.488320
 13
3.190880
 23
4.226200
  0
POLYLINE
  8
0
  6
CONTINUOUS
 66
     1
 40
0.000000
 41
0.000000
  0
VERTEX
  8
0
  6
CONTINUOUS
 10
3.180320
 20
3.439480
  0
VERTEX
  8
0
  6
CONTINUOUS
 10
3.186040
 20
4.177360
  0
VERTEX
  8
0
  6
CONTINUOUS
 10
3.190880
 20
4.226200
  0
VERTEX
  8
0
  6
CONTINUOUS
 10
3.185160
 20
3.488320
  0
VERTEX
  8
0
  6
CONTINUOUS
 10
3.180320
 20
3.439480
  0
SEQEND
  8
0
  0
SOLID
  8
0
 62
    15
 10
3.185160
 20
3.488320
 11
3.190880
 21
4.226200
 12
3.198800
 22
3.533640
 13
3.204960
 23
4.271520
  0
POLYLINE
  8
0
  6
CONTINUOUS
 66
     1
 40
0.000000
 41
0.000000
  0
VERTEX
  8
0
  6
CONTINUOUS
 10
3.185160
 20
3.488320
  0
VERTEX
  8
0
  6
CONTINUOUS
 10
3.190880
 20
4.226200
  0
VERTEX
  8
0
  6
CONTINUOUS
 10
3.204960
 20
4.271520
  0
VERTEX
  8
0
  6
CONTINUOUS
 10
3.198800
 20
3.533640
  0
VERTEX
  8
0
  6
CONTINUOUS
 10
3.185160
 20
3.488320
  0
SEQEND
  8
0
  0
SOLID
  8
0
 62
    15
 10
3.198800
 20
3.533640
 11
3.204960
 21
4.271520
 12
3.220360
 22
3.575440
 13
3.226520
 23
4.312880
  0
POLYLINE
  8
0
  6
CONTINUOUS
 66
     1
 40
0.000000
 41
0.000000
  0
VERTEX
  8
0
  6
CONTINUOUS
 10
3.198800
 20
3.533640
  0
VERTEX
  8
0
  6
CONTINUOUS
 10
3.204960
 20
4.271520
  0
VERTEX
  8
0
  6
CONTINUOUS
 10
3.226520
 20
4.312880
  0
VERTEX
  8
0
  6
CONTINUOUS
 10
3.220360
 20
3.575440
  0
VERTEX
  8
0
  6
CONTINUOUS
 10
3.198800
 20
3.533640
  0
SEQEND
  8
0
  0
SOLID
  8
0
 62
    15
 10
3.220360
 20
3.575440
 11
3.226520
 21
4.312880
 12
3.249400
 22
3.611520
 13
3.255560
 23
4.349400
  0
POLYLINE
  8
0
  6
CONTINUOUS
 66
     1
 40
0.000000
 41
0.000000
  0
VERTEX
  8
0
  6
CONTINUOUS
 10
3.220360
 20
3.575440
  0
VERTEX
  8
0
  6
CONTINUOUS
 10
3.226520
 20
4.312880
  0
VERTEX
  8
0
  6
CONTINUOUS
 10
3.255560
 20
4.349400
  0
VERTEX
  8
0
  6
CONTINUOUS
 10
3.249400
 20
3.611520
  0
VERTEX
  8
0
  6
CONTINUOUS
 10
3.220360
 20
3.575440
  0
SEQEND
  8
0
  0
SOLID
  8
0
 62
    15
 10
3.249400
 20
3.611520
 11
3.255560
 21
4.349400
 12
3.284600
 22
3.641440
 13
3.290760
 23
4.379320
  0
POLYLINE
  8
0
  6
CONTINUOUS
 66
     1
 40
0.000000
 41
0.000000
  0
VERTEX
  8
0
  6
CONTINUOUS
 10
3.249400
 20
3.611520
  0
VERTEX
  8
0
  6
CONTINUOUS
 10
3.255560
 20
4.349400
  0
VERTEX
  8
0
  6
CONTINUOUS
 10
3.290760
 20
4.379320
  0
VERTEX
  8
0
  6
CONTINUOUS
 10
3.284600
 20
3.641440
  0
VERTEX
  8
0
  6
CONTINUOUS
 10
3.249400
 20
3.611520
  0
SEQEND
  8
0
  0
SOLID
  8
0
 62
    15
 10
3.284600
 20
3.641440
 11
3.290760
 21
4.379320
 12
3.325080
 22
3.663880
 13
3.331240
 23
4.401760
  0
POLYLINE
  8
0
  6
CONTINUOUS
 66
     1
 40
0.000000
 41
0.000000
  0
VERTEX
  8
0
  6
CONTINUOUS
 10
3.284600
 20
3.641440
  0
VERTEX
  8
0
  6
CONTINUOUS
 10
3.290760
 20
4.379320
  0
VERTEX
  8
0
  6
CONTINUOUS
 10
3.331240
 20
4.401760
  0
VERTEX
  8
0
  6
CONTINUOUS
 10
3.325080
 20
3.663880
  0
VERTEX
  8
0
  6
CONTINUOUS
 10
3.284600
 20
3.641440
  0
SEQEND
  8
0
  0
SOLID
  8
0
 62
    15
 10
3.325080
 20
3.663880
 11
3.331240
 21
4.401760
 12
3.370400
 22
3.678400
 13
3.376120
 23
4.416280
  0
POLYLINE
  8
0
  6
CONTINUOUS
 66
     1
 40
0.000000
 41
0.000000
  0
VERTEX
  8
0
  6
CONTINUOUS
 10
3.325080
 20
3.663880
  0
VERTEX
  8
0
  6
CONTINUOUS
 10
3.331240
 20
4.401760
  0
VERTEX
  8
0
  6
CONTINUOUS
 10
3.376120
 20
4.416280
  0
VERTEX
  8
0
  6
CONTINUOUS
 10
3.370400
 20
3.678400
  0
VERTEX
  8
0
  6
CONTINUOUS
 10
3.325080
 20
3.663880
  0
SEQEND
  8
0
  0
SOLID
  8
0
 62
    15
 10
3.370400
 20
3.678400
 11
3.376120
 21
4.416280
 12
3.418800
 22
3.683240
 13
3.424960
 23
4.421120
  0
POLYLINE
  8
0
  6
CONTINUOUS
 66
     1
 40
0.000000
 41
0.000000
  0
VERTEX
  8
0
  6
CONTINUOUS
 10
3.370400
 20
3.678400
  0
VERTEX
  8
0
  6
CONTINUOUS
 10
3.376120
 20
4.416280
  0
VERTEX
  8
0
  6
CONTINUOUS
 10
3.424960
 20
4.421120
  0
VERTEX
  8
0
  6
CONTINUOUS
 10
3.418800
 20
3.683240
  0
VERTEX
  8
0
  6
CONTINUOUS
 10
3.370400
 20
3.678400
  0
SEQEND
  8
0
  0
SOLID
  8
0
 62
    15
 10
3.418800
 20
3.683240
 11
3.424960
 21
4.421120
 12
3.467640
 22
3.678400
 13
3.473800
 23
4.416280
  0
POLYLINE
  8
0
  6
CONTINUOUS
 66
     1
 40
0.000000
 41
0.000000
  0
VERTEX
  8
0
  6
CONTINUOUS
 10
3.418800
 20
3.683240
  0
VERTEX
  8
0
  6
CONTINUOUS
 10
3.424960
 20
4.421120
  0
VERTEX
  8
0
  6
CONTINUOUS
 10
3.473800
 20
4.416280
  0
VERTEX
  8
0
  6
CONTINUOUS
 10
3.467640
 20
3.678400
  0
VERTEX
  8
0
  6
CONTINUOUS
 10
3.418800
 20
3.683240
  0
SEQEND
  8
0
  0
SOLID
  8
0
 62
    15
 10
3.467640
 20
3.678400
 11
3.473800
 21
4.416280
 12
3.513400
 22
3.663880
 13
3.519120
 23
4.401760
  0
POLYLINE
  8
0
  6
CONTINUOUS
 66
     1
 40
0.000000
 41
0.000000
  0
VERTEX
  8
0
  6
CONTINUOUS
 10
3.467640
 20
3.678400
  0
VERTEX
  8
0
  6
CONTINUOUS
 10
3.473800
 20
4.416280
  0
VERTEX
  8
0
  6
CONTINUOUS
 10
3.519120
 20
4.401760
  0
VERTEX
  8
0
  6
CONTINUOUS
 10
3.513400
 20
3.663880
  0
VERTEX
  8
0
  6
CONTINUOUS
 10
3.467640
 20
3.678400
  0
SEQEND
  8
0
  0
SOLID
  8
0
 62
    15
 10
3.513400
 20
3.663880
 11
3.519120
 21
4.401760
 12
3.554760
 22
3.641440
 13
3.560480
 23
4.379320
  0
POLYLINE
  8
0
  6
CONTINUOUS
 66
     1
 40
0.000000
 41
0.000000
  0
VERTEX
  8
0
  6
CONTINUOUS
 10
3.513400
 20
3.663880
  0
VERTEX
  8
0
  6
CONTINUOUS
 10
3.519120
 20
4.401760
  0
VERTEX
  8
0
  6
CONTINUOUS
 10
3.560480
 20
4.379320
  0
VERTEX
  8
0
  6
CONTINUOUS
 10
3.554760
 20
3.641440
  0
VERTEX
  8
0
  6
CONTINUOUS
 10
3.513400
 20
3.663880
  0
SEQEND
  8
0
  0
SOLID
  8
0
 62
    15
 10
3.554760
 20
3.641440
 11
3.560480
 21
4.379320
 12
3.590840
 22
3.611520
 13
3.597000
 23
4.349400
  0
POLYLINE
  8
0
  6
CONTINUOUS
 66
     1
 40
0.000000
 41
0.000000
  0
VERTEX
  8
0
  6
CONTINUOUS
 10
3.554760
 20
3.641440
  0
VERTEX
  8
0
  6
CONTINUOUS
 10
3.560480
 20
4.379320
  0
VERTEX
  8
0
  6
CONTINUOUS
 10
3.597000
 20
4.349400
  0
VERTEX
  8
0
  6
CONTINUOUS
 10
3.590840
 20
3.611520
  0
VERTEX
  8
0
  6
CONTINUOUS
 10
3.554760
 20
3.641440
  0
SEQEND
  8
0
  0
SOLID
  8
0
 62
    15
 10
3.590840
 20
3.611520
 11
3.597000
 21
4.349400
 12
3.620760
 22
3.575440
 13
3.626920
 23
4.312880
  0
POLYLINE
  8
0
  6
CONTINUOUS
 66
     1
 40
0.000000
 41
0.000000
  0
VERTEX
  8
0
  6
CONTINUOUS
 10
3.590840
 20
3.611520
  0
VERTEX
  8
0
  6
CONTINUOUS
 10
3.597000
 20
4.349400
  0
VERTEX
  8
0
  6
CONTINUOUS
 10
3.626920
 20
4.312880
  0
VERTEX
  8
0
  6
CONTINUOUS
 10
3.620760
 20
3.575440
  0
VERTEX
  8
0
  6
CONTINUOUS
 10
3.590840
 20
3.611520
  0
SEQEND
  8
0
  0
SOLID
  8
0
 62
    15
 10
3.620760
 20
3.575440
 11
3.626920
 21
4.312880
 12
3.643640
 22
3.533640
 13
3.649360
 23
4.271520
  0
POLYLINE
  8
0
  6
CONTINUOUS
 66
     1
 40
0.000000
 41
0.000000
  0
VERTEX
  8
0
  6
CONTINUOUS
 10
3.620760
 20
3.575440
  0
VERTEX
  8
0
  6
CONTINUOUS
 10
3.626920
 20
4.312880
  0
VERTEX
  8
0
  6
CONTINUOUS
 10
3.649360
 20
4.271520
  0
VERTEX
  8
0
  6
CONTINUOUS
 10
3.643640
 20
3.533640
  0
VERTEX
  8
0
  6
CONTINUOUS
 10
3.620760
 20
3.575440
  0
SEQEND
  8
0
  0
SOLID
  8
0
 62
    15
 10
3.643640
 20
3.533640
 11
3.649360
 21
4.271520
 12
3.657720
 22
3.488320
 13
3.663880
 23
4.226200
  0
POLYLINE
  8
0
  6
CONTINUOUS
 66
     1
 40
0.000000
 41
0.000000
  0
VERTEX
  8
0
  6
CONTINUOUS
 10
3.643640
 20
3.533640
  0
VERTEX
  8
0
  6
CONTINUOUS
 10
3.649360
 20
4.271520
  0
VERTEX
  8
0
  6
CONTINUOUS
 10
3.663880
 20
4.226200
  0
VERTEX
  8
0
  6
CONTINUOUS
 10
3.657720
 20
3.488320
  0
VERTEX
  8
0
  6
CONTINUOUS
 10
3.643640
 20
3.533640
  0
SEQEND
  8
0
  0
SOLID
  8
0
 62
    15
 10
3.657720
 20
3.488320
 11
3.663880
 21
4.226200
 12
3.663000
 22
3.439480
 13
3.668720
 23
4.177360
  0
POLYLINE
  8
0
  6
CONTINUOUS
 66
     1
 40
0.000000
 41
0.000000
  0
VERTEX
  8
0
  6
CONTINUOUS
 10
3.657720
 20
3.488320
  0
VERTEX
  8
0
  6
CONTINUOUS
 10
3.663880
 20
4.226200
  0
VERTEX
  8
0
  6
CONTINUOUS
 10
3.668720
 20
4.177360
  0
VERTEX
  8
0
  6
CONTINUOUS
 10
3.663000
 20
3.439480
  0
VERTEX
  8
0
  6
CONTINUOUS
 10
3.657720
 20
3.488320
  0
SEQEND
  8
0
  0
POLYLINE
  8
0
  6
CONTINUOUS
 66
     1
 40
0.000000
 41
0.000000
  0
VERTEX
  8
0
  6
CONTINUOUS
 10
3.414840
 20
3.186040
  0
VERTEX
  8
0
  6
CONTINUOUS
 10
1.421640
 20
3.186040
  0
VERTEX
  8
0
  6
CONTINUOUS
 10
1.420320
 20
3.188680
  0
VERTEX
  8
0
  6
CONTINUOUS
 10
1.420320
 20
4.010160
  0
VERTEX
  8
0
  6
CONTINUOUS
 10
2.417360
 20
4.010160
  0
VERTEX
  8
0
  6
CONTINUOUS
 10
2.429240
 20
3.922160
  0
VERTEX
  8
0
  6
CONTINUOUS
 10
2.450800
 20
3.842960
  0
VERTEX
  8
0
  6
CONTINUOUS
 10
2.480280
 20
3.772120
  0
VERTEX
  8
0
  6
CONTINUOUS
 10
2.517240
 20
3.709200
  0
VERTEX
  8
0
  6
CONTINUOUS
 10
2.560800
 20
3.653760
  0
VERTEX
  8
0
  6
CONTINUOUS
 10
2.609200
 20
3.605360
  0
VERTEX
  8
0
  6
CONTINUOUS
 10
2.662440
 20
3.564000
  0
VERTEX
  8
0
  6
CONTINUOUS
 10
2.719200
 20
3.528800
  0
VERTEX
  8
0
  6
CONTINUOUS
 10
2.778160
 20
3.499320
  0
VERTEX
  8
0
  6
CONTINUOUS
 10
2.838880
 20
3.475120
  0
VERTEX
  8
0
  6
CONTINUOUS
 10
2.900040
 20
3.456200
  0
VERTEX
  8
0
  6
CONTINUOUS
 10
2.960320
 20
3.441680
  0
VERTEX
  8
0
  6
CONTINUOUS
 10
3.019720
 20
3.431560
  0
VERTEX
  8
0
  6
CONTINUOUS
 10
3.076480
 20
3.425400
  0
VERTEX
  8
0
  6
CONTINUOUS
 10
3.129720
 20
3.422320
  0
VERTEX
  8
0
  6
CONTINUOUS
 10
3.178560
 20
3.421880
  0
VERTEX
  8
0
  6
CONTINUOUS
 10
3.180320
 20
3.422320
  0
VERTEX
  8
0
  6
CONTINUOUS
 10
3.180320
 20
3.439480
  0
VERTEX
  8
0
  6
CONTINUOUS
 10
3.185160
 20
3.488320
  0
VERTEX
  8
0
  6
CONTINUOUS
 10
3.198800
 20
3.533640
  0
VERTEX
  8
0
  6
CONTINUOUS
 10
3.220360
 20
3.575440
  0
VERTEX
  8
0
  6
CONTINUOUS
 10
3.249400
 20
3.611520
  0
VERTEX
  8
0
  6
CONTINUOUS
 10
3.284600
 20
3.641440
  0
VERTEX
  8
0
  6
CONTINUOUS
 10
3.325080
 20
3.663880
  0
VERTEX
  8
0
  6
CONTINUOUS
 10
3.370400
 20
3.678400
  0
VERTEX
  8
0
  6
CONTINUOUS
 10
3.418800
 20
3.683240
  0
VERTEX
  8
0
  6
CONTINUOUS
 10
3.467640
 20
3.678400
  0
VERTEX
  8
0
  6
CONTINUOUS
 10
3.513400
 20
3.663880
  0
VERTEX
  8
0
  6
CONTINUOUS
 10
3.554760
 20
3.641440
  0
VERTEX
  8
0
  6
CONTINUOUS
 10
3.590840
 20
3.611520
  0
VERTEX
  8
0
  6
CONTINUOUS
 10
3.620760
 20
3.575440
  0
VERTEX
  8
0
  6
CONTINUOUS
 10
3.643640
 20
3.533640
  0
VERTEX
  8
0
  6
CONTINUOUS
 10
3.657720
 20
3.488320
  0
VERTEX
  8
0
  6
CONTINUOUS
 10
3.663000
 20
3.439480
  0
VERTEX
  8
0
  6
CONTINUOUS
 10
3.657720
 20
3.390200
  0
VERTEX
  8
0
  6
CONTINUOUS
 10
3.643640
 20
3.344000
  0
VERTEX
  8
0
  6
CONTINUOUS
 10
3.620760
 20
3.301320
  0
VERTEX
  8
0
  6
CONTINUOUS
 10
3.590840
 20
3.263480
  0
VERTEX
  8
0
  6
CONTINUOUS
 10
3.554760
 20
3.231800
  0
VERTEX
  8
0
  6
CONTINUOUS
 10
3.513400
 20
3.208040
  0
VERTEX
  8
0
  6
CONTINUOUS
 10
3.467640
 20
3.192640
  0
VERTEX
  8
0
  6
CONTINUOUS
 10
3.418800
 20
3.187360
  0
VERTEX
  8
0
  6
CONTINUOUS
 10
3.414840
 20
3.186040
  0
SEQEND
  8
0
  0
TEXT
  8
0
 10
1.456400
 20
3.233120
 40
0.115420
  1
77B
 50
359.247193
 41
1.000000
  7
SN0
 71
     0
 72
     5
 11
1.703616
 21
3.229860
  0
TEXT
  8
0
 10
1.450240
 20
2.398440
 40
0.138241
  1
77A
 41
1.000000
  7
SN0
 71
     0
 72
     5
 11
1.746696
 21
2.398440
  0
TEXT
  8
0
 10
3.411760
 20
2.069320
 40
0.138241
  1
BA  77 A 13/16" x 5-5/8"
 41
1.000000
  7
SN0
 71
     0
 72
     5
 11
5.200795
 21
2.069320
  0
TEXT
  8
0
 10
3.411760
 20
1.877480
 40
0.138241
  1
BA  77 B 13/16" x 2-1/4"
 41
1.000000
  7
SN0
 71
     0
 72
     5
 11
5.200795
 21
1.877480
  0
ENDSEC
  0
EOF
