  0
SECTION
  2
HEADER
  9
$ACADVER
  1
AC1006
  9
$EXTMIN
 10
2.686200
 20
0.891440
  9
$EXTMAX
 10
5.853760
 20
6.594720
  9
$LTSCALE
 40
0.044000
  9
$PDMODE
 70
    35
  9
$PDSIZE
 40
0.035200
  0
ENDSEC
  0
SECTION
  2
TABLES
  0
TABLE
  2
LTYPE
 70
     9
  0
LTYPE
  2
CONTINUOUS
 70
    64
  3
Solid line
 72
    65
 73
     0
 40
0.000000
  0
LTYPE
  2
DASHED
 70
    64
  3
__ __ __ __ __ __ __ __ __ __ __ __ __ __ __
 72
    65
 73
     2
 40
0.000330
 49
0.000220
 49
-0.000110
  0
LTYPE
  2
HIDDEN
 70
    64
  3
 _ _ _ _ _ _ _ _ _ _ _ _ _ _ _ _ _ _ _ _ _ _
 72
    65
 73
     2
 40
0.000165
 49
0.000110
 49
-0.000055
  0
LTYPE
  2
CENTER
 70
    64
  3
____ _ ____ _ ____ _ ____ _ ____ _ ____ _ ____
 72
    65
 73
     4
 40
0.000880
 49
0.000550
 49
-0.000110
 49
0.000110
 49
-0.000110
  0
LTYPE
  2
PHANTOM
 70
    64
  3
_____ _ _ _____ _ _ _____ _ _ _____ _ _ ____
 72
    65
 73
     6
 40
0.001100
 49
0.000550
 49
-0.000110
 49
0.000110
 49
-0.000110
 49
0.000110
 49
-0.000110
  0
LTYPE
  2
DOT
 70
    64
  3
...............................................
 72
    65
 73
     2
 40
0.000110
 49
0.000000
 49
-0.000110
  0
LTYPE
  2
DASHDOT
 70
    64
  3
__ . __ . __ . __ . __ . __ . __ . __ . __ . __
 72
    65
 73
     4
 40
0.000440
 49
0.000220
 49
-0.000110
 49
0.000000
 49
-0.000110
  0
LTYPE
  2
BORDER
 70
    64
  3
__ __ . __ __ . __ __ . __ __ . __ __ . __ __
 72
    65
 73
     6
 40
0.000770
 49
0.000220
 49
-0.000110
 49
0.000220
 49
-0.000110
 49
0.000000
 49
-0.000110
  0
LTYPE
  2
DIVIDE
 70
    64
  3
__ . . __ . . __ . . __ . . __ . . __ . . __
 72
    65
 73
     6
 40
0.000550
 49
0.000220
 49
-0.000110
 49
0.000000
 49
-0.000110
 49
0.000000
 49
-0.000110
  0
LTYPE
  2
DOTDOT
 70
    64
  3
 . .  . .  . .  . .  . .  . . 
 72
    65
 73
     5
 40
0.000242
 49
-0.000110
 49
0.000000
 49
-0.000110
 49
0.000000
 49
-0.000110
  0
ENDTAB
  0
TABLE
  2
STYLE
 70
     2
  0
STYLE
 70
     0
  2
SN0
 40
0.000000
 41
0.000440
 50
0.000000
 71
     0
 42
0.000000
  3
ROMAND
  0
STYLE
 70
    68
  2
SV0
 40
0.000000
 41
0.000440
 50
0.000000
 71
     0
 42
0.000000
  3
ROMAND
  0
ENDTAB
  0
TABLE
  2
LAYER
 70
     3
  0
LAYER
  2
FOREGROUND
 70
    64
 62
     7
  6
CONTINUOUS
  0
LAYER
  2
BACKGROUND
 70
    65
 62
    -7
  6
CONTINUOUS
  0
LAYER
  2
0
 70
    64
 62
     7
  6
CONTINUOUS
  0
ENDTAB
  0
ENDSEC
  0
SECTION
  2
ENTITIES
  0
POLYLINE
  8
FOREGROUND
  6
CONTINUOUS
 66
     1
 40
0.000000
 41
0.000000
  0
VERTEX
  8
FOREGROUND
  6
CONTINUOUS
 10
0.000000
 20
7.486160
  0
VERTEX
  8
FOREGROUND
  6
CONTINUOUS
 10
8.499920
 20
7.486160
  0
VERTEX
  8
FOREGROUND
  6
CONTINUOUS
 10
8.499920
 20
-3.513840
  0
VERTEX
  8
FOREGROUND
  6
CONTINUOUS
 10
0.000000
 20
-3.513840
  0
VERTEX
  8
FOREGROUND
  6
CONTINUOUS
 10
0.000000
 20
7.486160
  0
SEQEND
  8
0
  0
POLYLINE
  8
FOREGROUND
  6
CONTINUOUS
 66
     1
 40
0.000000
 41
0.000000
  0
VERTEX
  8
FOREGROUND
  6
CONTINUOUS
 10
0.000000
 20
7.486160
  0
VERTEX
  8
FOREGROUND
  6
CONTINUOUS
 10
8.499920
 20
7.486160
  0
VERTEX
  8
FOREGROUND
  6
CONTINUOUS
 10
8.499920
 20
-3.513840
  0
VERTEX
  8
FOREGROUND
  6
CONTINUOUS
 10
0.000000
 20
-3.513840
  0
VERTEX
  8
FOREGROUND
  6
CONTINUOUS
 10
0.000000
 20
7.486160
  0
SEQEND
  8
0
  0
SOLID
  8
0
 62
    15
 10
3.947240
 20
3.648920
 11
4.597560
 21
4.011920
 12
3.978920
 22
3.650240
 13
4.629240
 23
4.013240
  0
POLYLINE
  8
0
  6
CONTINUOUS
 66
     1
 40
0.000000
 41
0.000000
  0
VERTEX
  8
0
  6
CONTINUOUS
 10
3.947240
 20
3.648920
  0
VERTEX
  8
0
  6
CONTINUOUS
 10
4.597560
 20
4.011920
  0
VERTEX
  8
0
  6
CONTINUOUS
 10
4.629240
 20
4.013240
  0
VERTEX
  8
0
  6
CONTINUOUS
 10
3.978920
 20
3.650240
  0
VERTEX
  8
0
  6
CONTINUOUS
 10
3.947240
 20
3.648920
  0
SEQEND
  8
0
  0
SOLID
  8
0
 62
    15
 10
4.688640
 20
1.645600
 11
5.338960
 21
2.008600
 12
4.687760
 22
1.620520
 13
5.338080
 23
1.983520
  0
POLYLINE
  8
0
  6
CONTINUOUS
 66
     1
 40
0.000000
 41
0.000000
  0
VERTEX
  8
0
  6
CONTINUOUS
 10
4.688640
 20
1.645600
  0
VERTEX
  8
0
  6
CONTINUOUS
 10
5.338960
 20
2.008600
  0
VERTEX
  8
0
  6
CONTINUOUS
 10
5.338080
 20
1.983520
  0
VERTEX
  8
0
  6
CONTINUOUS
 10
4.687760
 20
1.620520
  0
VERTEX
  8
0
  6
CONTINUOUS
 10
4.688640
 20
1.645600
  0
SEQEND
  8
0
  0
SOLID
  8
0
 62
    15
 10
4.701840
 20
1.654400
 11
5.352160
 21
2.017400
 12
4.688640
 22
1.645600
 13
5.338960
 23
2.008600
  0
POLYLINE
  8
0
  6
CONTINUOUS
 66
     1
 40
0.000000
 41
0.000000
  0
VERTEX
  8
0
  6
CONTINUOUS
 10
4.701840
 20
1.654400
  0
VERTEX
  8
0
  6
CONTINUOUS
 10
5.352160
 20
2.017400
  0
VERTEX
  8
0
  6
CONTINUOUS
 10
5.338960
 20
2.008600
  0
VERTEX
  8
0
  6
CONTINUOUS
 10
4.688640
 20
1.645600
  0
VERTEX
  8
0
  6
CONTINUOUS
 10
4.701840
 20
1.654400
  0
SEQEND
  8
0
  0
SOLID
  8
0
 62
    15
 10
4.687760
 20
1.620520
 11
5.338080
 21
1.983520
 12
4.728680
 22
1.576080
 13
5.379000
 23
1.939080
  0
POLYLINE
  8
0
  6
CONTINUOUS
 66
     1
 40
0.000000
 41
0.000000
  0
VERTEX
  8
0
  6
CONTINUOUS
 10
4.687760
 20
1.620520
  0
VERTEX
  8
0
  6
CONTINUOUS
 10
5.338080
 20
1.983520
  0
VERTEX
  8
0
  6
CONTINUOUS
 10
5.379000
 20
1.939080
  0
VERTEX
  8
0
  6
CONTINUOUS
 10
4.728680
 20
1.576080
  0
VERTEX
  8
0
  6
CONTINUOUS
 10
4.687760
 20
1.620520
  0
SEQEND
  8
0
  0
SOLID
  8
0
 62
    15
 10
4.728680
 20
1.576080
 11
5.379000
 21
1.939080
 12
4.749360
 22
1.562440
 13
5.399240
 23
1.925440
  0
POLYLINE
  8
0
  6
CONTINUOUS
 66
     1
 40
0.000000
 41
0.000000
  0
VERTEX
  8
0
  6
CONTINUOUS
 10
4.728680
 20
1.576080
  0
VERTEX
  8
0
  6
CONTINUOUS
 10
5.379000
 20
1.939080
  0
VERTEX
  8
0
  6
CONTINUOUS
 10
5.399240
 20
1.925440
  0
VERTEX
  8
0
  6
CONTINUOUS
 10
4.749360
 20
1.562440
  0
VERTEX
  8
0
  6
CONTINUOUS
 10
4.728680
 20
1.576080
  0
SEQEND
  8
0
  0
SOLID
  8
0
 62
    15
 10
4.749360
 20
1.562440
 11
5.399240
 21
1.925440
 12
4.770480
 22
1.536040
 13
5.420800
 23
1.899040
  0
POLYLINE
  8
0
  6
CONTINUOUS
 66
     1
 40
0.000000
 41
0.000000
  0
VERTEX
  8
0
  6
CONTINUOUS
 10
4.749360
 20
1.562440
  0
VERTEX
  8
0
  6
CONTINUOUS
 10
5.399240
 20
1.925440
  0
VERTEX
  8
0
  6
CONTINUOUS
 10
5.420800
 20
1.899040
  0
VERTEX
  8
0
  6
CONTINUOUS
 10
4.770480
 20
1.536040
  0
VERTEX
  8
0
  6
CONTINUOUS
 10
4.749360
 20
1.562440
  0
SEQEND
  8
0
  0
SOLID
  8
0
 62
    15
 10
4.770480
 20
1.536040
 11
5.420800
 21
1.899040
 12
4.786760
 22
1.501720
 13
5.437080
 23
1.864720
  0
POLYLINE
  8
0
  6
CONTINUOUS
 66
     1
 40
0.000000
 41
0.000000
  0
VERTEX
  8
0
  6
CONTINUOUS
 10
4.770480
 20
1.536040
  0
VERTEX
  8
0
  6
CONTINUOUS
 10
5.420800
 20
1.899040
  0
VERTEX
  8
0
  6
CONTINUOUS
 10
5.437080
 20
1.864720
  0
VERTEX
  8
0
  6
CONTINUOUS
 10
4.786760
 20
1.501720
  0
VERTEX
  8
0
  6
CONTINUOUS
 10
4.770480
 20
1.536040
  0
SEQEND
  8
0
  0
SOLID
  8
0
 62
    15
 10
4.604600
 20
1.370160
 11
5.254480
 21
1.733160
 12
4.602840
 22
1.368840
 13
5.253160
 23
1.731840
  0
POLYLINE
  8
0
  6
CONTINUOUS
 66
     1
 40
0.000000
 41
0.000000
  0
VERTEX
  8
0
  6
CONTINUOUS
 10
4.604600
 20
1.370160
  0
VERTEX
  8
0
  6
CONTINUOUS
 10
5.254480
 20
1.733160
  0
VERTEX
  8
0
  6
CONTINUOUS
 10
5.253160
 20
1.731840
  0
VERTEX
  8
0
  6
CONTINUOUS
 10
4.602840
 20
1.368840
  0
VERTEX
  8
0
  6
CONTINUOUS
 10
4.604600
 20
1.370160
  0
SEQEND
  8
0
  0
SOLID
  8
0
 62
    15
 10
4.792920
 20
1.464320
 11
5.443240
 21
1.827320
 12
4.783680
 22
1.427800
 13
5.433560
 23
1.790800
  0
POLYLINE
  8
0
  6
CONTINUOUS
 66
     1
 40
0.000000
 41
0.000000
  0
VERTEX
  8
0
  6
CONTINUOUS
 10
4.792920
 20
1.464320
  0
VERTEX
  8
0
  6
CONTINUOUS
 10
5.443240
 20
1.827320
  0
VERTEX
  8
0
  6
CONTINUOUS
 10
5.433560
 20
1.790800
  0
VERTEX
  8
0
  6
CONTINUOUS
 10
4.783680
 20
1.427800
  0
VERTEX
  8
0
  6
CONTINUOUS
 10
4.792920
 20
1.464320
  0
SEQEND
  8
0
  0
SOLID
  8
0
 62
    15
 10
4.783680
 20
1.427800
 11
5.433560
 21
1.790800
 12
4.752440
 22
1.396560
 13
5.402760
 23
1.759560
  0
POLYLINE
  8
0
  6
CONTINUOUS
 66
     1
 40
0.000000
 41
0.000000
  0
VERTEX
  8
0
  6
CONTINUOUS
 10
4.783680
 20
1.427800
  0
VERTEX
  8
0
  6
CONTINUOUS
 10
5.433560
 20
1.790800
  0
VERTEX
  8
0
  6
CONTINUOUS
 10
5.402760
 20
1.759560
  0
VERTEX
  8
0
  6
CONTINUOUS
 10
4.752440
 20
1.396560
  0
VERTEX
  8
0
  6
CONTINUOUS
 10
4.783680
 20
1.427800
  0
SEQEND
  8
0
  0
SOLID
  8
0
 62
    15
 10
4.786760
 20
1.501720
 11
5.437080
 21
1.864720
 12
4.792920
 22
1.464320
 13
5.443240
 23
1.827320
  0
POLYLINE
  8
0
  6
CONTINUOUS
 66
     1
 40
0.000000
 41
0.000000
  0
VERTEX
  8
0
  6
CONTINUOUS
 10
4.786760
 20
1.501720
  0
VERTEX
  8
0
  6
CONTINUOUS
 10
5.437080
 20
1.864720
  0
VERTEX
  8
0
  6
CONTINUOUS
 10
5.443240
 20
1.827320
  0
VERTEX
  8
0
  6
CONTINUOUS
 10
4.792920
 20
1.464320
  0
VERTEX
  8
0
  6
CONTINUOUS
 10
4.786760
 20
1.501720
  0
SEQEND
  8
0
  0
SOLID
  8
0
 62
    15
 10
2.876280
 20
3.417040
 11
3.526600
 21
3.780040
 12
2.955040
 22
3.457520
 13
3.605360
 23
3.820520
  0
POLYLINE
  8
0
  6
CONTINUOUS
 66
     1
 40
0.000000
 41
0.000000
  0
VERTEX
  8
0
  6
CONTINUOUS
 10
2.876280
 20
3.417040
  0
VERTEX
  8
0
  6
CONTINUOUS
 10
3.526600
 20
3.780040
  0
VERTEX
  8
0
  6
CONTINUOUS
 10
3.605360
 20
3.820520
  0
VERTEX
  8
0
  6
CONTINUOUS
 10
2.955040
 20
3.457520
  0
VERTEX
  8
0
  6
CONTINUOUS
 10
2.876280
 20
3.417040
  0
SEQEND
  8
0
  0
SOLID
  8
0
 62
    15
 10
2.955040
 20
3.457520
 11
3.605360
 21
3.820520
 12
3.050080
 22
3.495360
 13
3.700400
 23
3.858360
  0
POLYLINE
  8
0
  6
CONTINUOUS
 66
     1
 40
0.000000
 41
0.000000
  0
VERTEX
  8
0
  6
CONTINUOUS
 10
2.955040
 20
3.457520
  0
VERTEX
  8
0
  6
CONTINUOUS
 10
3.605360
 20
3.820520
  0
VERTEX
  8
0
  6
CONTINUOUS
 10
3.700400
 20
3.858360
  0
VERTEX
  8
0
  6
CONTINUOUS
 10
3.050080
 20
3.495360
  0
VERTEX
  8
0
  6
CONTINUOUS
 10
2.955040
 20
3.457520
  0
SEQEND
  8
0
  0
SOLID
  8
0
 62
    15
 10
3.050080
 20
3.495360
 11
3.700400
 21
3.858360
 12
3.163160
 22
3.529680
 13
3.813480
 23
3.892680
  0
POLYLINE
  8
0
  6
CONTINUOUS
 66
     1
 40
0.000000
 41
0.000000
  0
VERTEX
  8
0
  6
CONTINUOUS
 10
3.050080
 20
3.495360
  0
VERTEX
  8
0
  6
CONTINUOUS
 10
3.700400
 20
3.858360
  0
VERTEX
  8
0
  6
CONTINUOUS
 10
3.813480
 20
3.892680
  0
VERTEX
  8
0
  6
CONTINUOUS
 10
3.163160
 20
3.529680
  0
VERTEX
  8
0
  6
CONTINUOUS
 10
3.050080
 20
3.495360
  0
SEQEND
  8
0
  0
SOLID
  8
0
 62
    15
 10
3.163160
 20
3.529680
 11
3.813480
 21
3.892680
 12
3.267440
 22
3.553880
 13
3.917320
 23
3.916880
  0
POLYLINE
  8
0
  6
CONTINUOUS
 66
     1
 40
0.000000
 41
0.000000
  0
VERTEX
  8
0
  6
CONTINUOUS
 10
3.163160
 20
3.529680
  0
VERTEX
  8
0
  6
CONTINUOUS
 10
3.813480
 20
3.892680
  0
VERTEX
  8
0
  6
CONTINUOUS
 10
3.917320
 20
3.916880
  0
VERTEX
  8
0
  6
CONTINUOUS
 10
3.267440
 20
3.553880
  0
VERTEX
  8
0
  6
CONTINUOUS
 10
3.163160
 20
3.529680
  0
SEQEND
  8
0
  0
SOLID
  8
0
 62
    15
 10
3.267440
 20
3.553880
 11
3.917320
 21
3.916880
 12
3.358080
 22
3.574120
 13
4.008400
 23
3.937120
  0
POLYLINE
  8
0
  6
CONTINUOUS
 66
     1
 40
0.000000
 41
0.000000
  0
VERTEX
  8
0
  6
CONTINUOUS
 10
3.267440
 20
3.553880
  0
VERTEX
  8
0
  6
CONTINUOUS
 10
3.917320
 20
3.916880
  0
VERTEX
  8
0
  6
CONTINUOUS
 10
4.008400
 20
3.937120
  0
VERTEX
  8
0
  6
CONTINUOUS
 10
3.358080
 20
3.574120
  0
VERTEX
  8
0
  6
CONTINUOUS
 10
3.267440
 20
3.553880
  0
SEQEND
  8
0
  0
SOLID
  8
0
 62
    15
 10
3.358080
 20
3.574120
 11
4.008400
 21
3.937120
 12
3.436840
 22
3.590840
 13
4.087160
 23
3.953840
  0
POLYLINE
  8
0
  6
CONTINUOUS
 66
     1
 40
0.000000
 41
0.000000
  0
VERTEX
  8
0
  6
CONTINUOUS
 10
3.358080
 20
3.574120
  0
VERTEX
  8
0
  6
CONTINUOUS
 10
4.008400
 20
3.937120
  0
VERTEX
  8
0
  6
CONTINUOUS
 10
4.087160
 20
3.953840
  0
VERTEX
  8
0
  6
CONTINUOUS
 10
3.436840
 20
3.590840
  0
VERTEX
  8
0
  6
CONTINUOUS
 10
3.358080
 20
3.574120
  0
SEQEND
  8
0
  0
SOLID
  8
0
 62
    15
 10
3.436840
 20
3.590840
 11
4.087160
 21
3.953840
 12
3.504600
 22
3.604920
 13
4.154920
 23
3.967920
  0
POLYLINE
  8
0
  6
CONTINUOUS
 66
     1
 40
0.000000
 41
0.000000
  0
VERTEX
  8
0
  6
CONTINUOUS
 10
3.436840
 20
3.590840
  0
VERTEX
  8
0
  6
CONTINUOUS
 10
4.087160
 20
3.953840
  0
VERTEX
  8
0
  6
CONTINUOUS
 10
4.154920
 20
3.967920
  0
VERTEX
  8
0
  6
CONTINUOUS
 10
3.504600
 20
3.604920
  0
VERTEX
  8
0
  6
CONTINUOUS
 10
3.436840
 20
3.590840
  0
SEQEND
  8
0
  0
SOLID
  8
0
 62
    15
 10
3.504600
 20
3.604920
 11
4.154920
 21
3.967920
 12
3.612840
 22
3.625160
 13
4.263160
 23
3.988160
  0
POLYLINE
  8
0
  6
CONTINUOUS
 66
     1
 40
0.000000
 41
0.000000
  0
VERTEX
  8
0
  6
CONTINUOUS
 10
3.504600
 20
3.604920
  0
VERTEX
  8
0
  6
CONTINUOUS
 10
4.154920
 20
3.967920
  0
VERTEX
  8
0
  6
CONTINUOUS
 10
4.263160
 20
3.988160
  0
VERTEX
  8
0
  6
CONTINUOUS
 10
3.612840
 20
3.625160
  0
VERTEX
  8
0
  6
CONTINUOUS
 10
3.504600
 20
3.604920
  0
SEQEND
  8
0
  0
SOLID
  8
0
 62
    15
 10
3.612840
 20
3.625160
 11
4.263160
 21
3.988160
 12
3.693360
 22
3.637040
 13
4.343240
 23
4.000040
  0
POLYLINE
  8
0
  6
CONTINUOUS
 66
     1
 40
0.000000
 41
0.000000
  0
VERTEX
  8
0
  6
CONTINUOUS
 10
3.612840
 20
3.625160
  0
VERTEX
  8
0
  6
CONTINUOUS
 10
4.263160
 20
3.988160
  0
VERTEX
  8
0
  6
CONTINUOUS
 10
4.343240
 20
4.000040
  0
VERTEX
  8
0
  6
CONTINUOUS
 10
3.693360
 20
3.637040
  0
VERTEX
  8
0
  6
CONTINUOUS
 10
3.612840
 20
3.625160
  0
SEQEND
  8
0
  0
SOLID
  8
0
 62
    15
 10
3.693360
 20
3.637040
 11
4.343240
 21
4.000040
 12
3.811720
 22
3.644960
 13
4.462040
 23
4.007960
  0
POLYLINE
  8
0
  6
CONTINUOUS
 66
     1
 40
0.000000
 41
0.000000
  0
VERTEX
  8
0
  6
CONTINUOUS
 10
3.693360
 20
3.637040
  0
VERTEX
  8
0
  6
CONTINUOUS
 10
4.343240
 20
4.000040
  0
VERTEX
  8
0
  6
CONTINUOUS
 10
4.462040
 20
4.007960
  0
VERTEX
  8
0
  6
CONTINUOUS
 10
3.811720
 20
3.644960
  0
VERTEX
  8
0
  6
CONTINUOUS
 10
3.693360
 20
3.637040
  0
SEQEND
  8
0
  0
SOLID
  8
0
 62
    15
 10
3.811720
 20
3.644960
 11
4.462040
 21
4.007960
 12
3.870680
 22
3.646280
 13
4.521000
 23
4.009280
  0
POLYLINE
  8
0
  6
CONTINUOUS
 66
     1
 40
0.000000
 41
0.000000
  0
VERTEX
  8
0
  6
CONTINUOUS
 10
3.811720
 20
3.644960
  0
VERTEX
  8
0
  6
CONTINUOUS
 10
4.462040
 20
4.007960
  0
VERTEX
  8
0
  6
CONTINUOUS
 10
4.521000
 20
4.009280
  0
VERTEX
  8
0
  6
CONTINUOUS
 10
3.870680
 20
3.646280
  0
VERTEX
  8
0
  6
CONTINUOUS
 10
3.811720
 20
3.644960
  0
SEQEND
  8
0
  0
SOLID
  8
0
 62
    15
 10
3.870680
 20
3.646280
 11
4.521000
 21
4.009280
 12
3.943280
 22
3.648920
 13
4.593600
 23
4.011920
  0
POLYLINE
  8
0
  6
CONTINUOUS
 66
     1
 40
0.000000
 41
0.000000
  0
VERTEX
  8
0
  6
CONTINUOUS
 10
3.870680
 20
3.646280
  0
VERTEX
  8
0
  6
CONTINUOUS
 10
4.521000
 20
4.009280
  0
VERTEX
  8
0
  6
CONTINUOUS
 10
4.593600
 20
4.011920
  0
VERTEX
  8
0
  6
CONTINUOUS
 10
3.943280
 20
3.648920
  0
VERTEX
  8
0
  6
CONTINUOUS
 10
3.870680
 20
3.646280
  0
SEQEND
  8
0
  0
SOLID
  8
0
 62
    15
 10
3.943280
 20
3.648920
 11
4.593600
 21
4.011920
 12
3.947240
 22
3.648920
 13
4.597560
 23
4.011920
  0
POLYLINE
  8
0
  6
CONTINUOUS
 66
     1
 40
0.000000
 41
0.000000
  0
VERTEX
  8
0
  6
CONTINUOUS
 10
3.943280
 20
3.648920
  0
VERTEX
  8
0
  6
CONTINUOUS
 10
4.593600
 20
4.011920
  0
VERTEX
  8
0
  6
CONTINUOUS
 10
4.597560
 20
4.011920
  0
VERTEX
  8
0
  6
CONTINUOUS
 10
3.947240
 20
3.648920
  0
VERTEX
  8
0
  6
CONTINUOUS
 10
3.943280
 20
3.648920
  0
SEQEND
  8
0
  0
SOLID
  8
0
 62
    15
 10
4.786320
 20
1.675080
 11
5.436640
 21
2.038080
 12
4.786320
 22
1.659240
 13
5.436640
 23
2.022240
  0
POLYLINE
  8
0
  6
CONTINUOUS
 66
     1
 40
0.000000
 41
0.000000
  0
VERTEX
  8
0
  6
CONTINUOUS
 10
4.786320
 20
1.675080
  0
VERTEX
  8
0
  6
CONTINUOUS
 10
5.436640
 20
2.038080
  0
VERTEX
  8
0
  6
CONTINUOUS
 10
5.436640
 20
2.022240
  0
VERTEX
  8
0
  6
CONTINUOUS
 10
4.786320
 20
1.659240
  0
VERTEX
  8
0
  6
CONTINUOUS
 10
4.786320
 20
1.675080
  0
SEQEND
  8
0
  0
SOLID
  8
0
 62
    15
 10
3.978920
 20
3.650240
 11
4.629240
 21
4.013240
 12
4.028640
 22
3.649800
 13
4.678520
 23
4.012800
  0
POLYLINE
  8
0
  6
CONTINUOUS
 66
     1
 40
0.000000
 41
0.000000
  0
VERTEX
  8
0
  6
CONTINUOUS
 10
3.978920
 20
3.650240
  0
VERTEX
  8
0
  6
CONTINUOUS
 10
4.629240
 20
4.013240
  0
VERTEX
  8
0
  6
CONTINUOUS
 10
4.678520
 20
4.012800
  0
VERTEX
  8
0
  6
CONTINUOUS
 10
4.028640
 20
3.649800
  0
VERTEX
  8
0
  6
CONTINUOUS
 10
3.978920
 20
3.650240
  0
SEQEND
  8
0
  0
SOLID
  8
0
 62
    15
 10
4.028640
 20
3.649800
 11
4.678520
 21
4.012800
 12
4.103880
 22
3.644960
 13
4.754200
 23
4.007960
  0
POLYLINE
  8
0
  6
CONTINUOUS
 66
     1
 40
0.000000
 41
0.000000
  0
VERTEX
  8
0
  6
CONTINUOUS
 10
4.028640
 20
3.649800
  0
VERTEX
  8
0
  6
CONTINUOUS
 10
4.678520
 20
4.012800
  0
VERTEX
  8
0
  6
CONTINUOUS
 10
4.754200
 20
4.007960
  0
VERTEX
  8
0
  6
CONTINUOUS
 10
4.103880
 20
3.644960
  0
VERTEX
  8
0
  6
CONTINUOUS
 10
4.028640
 20
3.649800
  0
SEQEND
  8
0
  0
SOLID
  8
0
 62
    15
 10
4.103880
 20
3.644960
 11
4.754200
 21
4.007960
 12
4.208600
 22
3.633520
 13
4.858920
 23
3.996520
  0
POLYLINE
  8
0
  6
CONTINUOUS
 66
     1
 40
0.000000
 41
0.000000
  0
VERTEX
  8
0
  6
CONTINUOUS
 10
4.103880
 20
3.644960
  0
VERTEX
  8
0
  6
CONTINUOUS
 10
4.754200
 20
4.007960
  0
VERTEX
  8
0
  6
CONTINUOUS
 10
4.858920
 20
3.996520
  0
VERTEX
  8
0
  6
CONTINUOUS
 10
4.208600
 20
3.633520
  0
VERTEX
  8
0
  6
CONTINUOUS
 10
4.103880
 20
3.644960
  0
SEQEND
  8
0
  0
SOLID
  8
0
 62
    15
 10
4.208600
 20
3.633520
 11
4.858920
 21
3.996520
 12
4.345880
 22
3.612400
 13
4.995760
 23
3.975400
  0
POLYLINE
  8
0
  6
CONTINUOUS
 66
     1
 40
0.000000
 41
0.000000
  0
VERTEX
  8
0
  6
CONTINUOUS
 10
4.208600
 20
3.633520
  0
VERTEX
  8
0
  6
CONTINUOUS
 10
4.858920
 20
3.996520
  0
VERTEX
  8
0
  6
CONTINUOUS
 10
4.995760
 20
3.975400
  0
VERTEX
  8
0
  6
CONTINUOUS
 10
4.345880
 20
3.612400
  0
VERTEX
  8
0
  6
CONTINUOUS
 10
4.208600
 20
3.633520
  0
SEQEND
  8
0
  0
SOLID
  8
0
 62
    15
 10
4.345880
 20
3.612400
 11
4.995760
 21
3.975400
 12
4.517480
 22
3.578960
 13
5.167800
 23
3.941960
  0
POLYLINE
  8
0
  6
CONTINUOUS
 66
     1
 40
0.000000
 41
0.000000
  0
VERTEX
  8
0
  6
CONTINUOUS
 10
4.345880
 20
3.612400
  0
VERTEX
  8
0
  6
CONTINUOUS
 10
4.995760
 20
3.975400
  0
VERTEX
  8
0
  6
CONTINUOUS
 10
5.167800
 20
3.941960
  0
VERTEX
  8
0
  6
CONTINUOUS
 10
4.517480
 20
3.578960
  0
VERTEX
  8
0
  6
CONTINUOUS
 10
4.345880
 20
3.612400
  0
SEQEND
  8
0
  0
SOLID
  8
0
 62
    15
 10
4.517480
 20
3.578960
 11
5.167800
 21
3.941960
 12
4.617800
 22
3.556960
 13
5.267680
 23
3.919960
  0
POLYLINE
  8
0
  6
CONTINUOUS
 66
     1
 40
0.000000
 41
0.000000
  0
VERTEX
  8
0
  6
CONTINUOUS
 10
4.517480
 20
3.578960
  0
VERTEX
  8
0
  6
CONTINUOUS
 10
5.167800
 20
3.941960
  0
VERTEX
  8
0
  6
CONTINUOUS
 10
5.267680
 20
3.919960
  0
VERTEX
  8
0
  6
CONTINUOUS
 10
4.617800
 20
3.556960
  0
VERTEX
  8
0
  6
CONTINUOUS
 10
4.517480
 20
3.578960
  0
SEQEND
  8
0
  0
SOLID
  8
0
 62
    15
 10
4.617800
 20
3.556960
 11
5.267680
 21
3.919960
 12
4.727360
 22
3.531000
 13
5.377680
 23
3.894000
  0
POLYLINE
  8
0
  6
CONTINUOUS
 66
     1
 40
0.000000
 41
0.000000
  0
VERTEX
  8
0
  6
CONTINUOUS
 10
4.617800
 20
3.556960
  0
VERTEX
  8
0
  6
CONTINUOUS
 10
5.267680
 20
3.919960
  0
VERTEX
  8
0
  6
CONTINUOUS
 10
5.377680
 20
3.894000
  0
VERTEX
  8
0
  6
CONTINUOUS
 10
4.727360
 20
3.531000
  0
VERTEX
  8
0
  6
CONTINUOUS
 10
4.617800
 20
3.556960
  0
SEQEND
  8
0
  0
SOLID
  8
0
 62
    15
 10
4.727360
 20
3.531000
 11
5.377680
 21
3.894000
 12
4.840440
 22
3.495360
 13
5.490760
 23
3.858360
  0
POLYLINE
  8
0
  6
CONTINUOUS
 66
     1
 40
0.000000
 41
0.000000
  0
VERTEX
  8
0
  6
CONTINUOUS
 10
4.727360
 20
3.531000
  0
VERTEX
  8
0
  6
CONTINUOUS
 10
5.377680
 20
3.894000
  0
VERTEX
  8
0
  6
CONTINUOUS
 10
5.490760
 20
3.858360
  0
VERTEX
  8
0
  6
CONTINUOUS
 10
4.840440
 20
3.495360
  0
VERTEX
  8
0
  6
CONTINUOUS
 10
4.727360
 20
3.531000
  0
SEQEND
  8
0
  0
SOLID
  8
0
 62
    15
 10
4.840440
 20
3.495360
 11
5.490760
 21
3.858360
 12
4.935480
 22
3.456200
 13
5.585800
 23
3.819200
  0
POLYLINE
  8
0
  6
CONTINUOUS
 66
     1
 40
0.000000
 41
0.000000
  0
VERTEX
  8
0
  6
CONTINUOUS
 10
4.840440
 20
3.495360
  0
VERTEX
  8
0
  6
CONTINUOUS
 10
5.490760
 20
3.858360
  0
VERTEX
  8
0
  6
CONTINUOUS
 10
5.585800
 20
3.819200
  0
VERTEX
  8
0
  6
CONTINUOUS
 10
4.935480
 20
3.456200
  0
VERTEX
  8
0
  6
CONTINUOUS
 10
4.840440
 20
3.495360
  0
SEQEND
  8
0
  0
SOLID
  8
0
 62
    15
 10
4.935480
 20
3.456200
 11
5.585800
 21
3.819200
 12
5.014240
 22
3.414840
 13
5.664560
 23
3.777840
  0
POLYLINE
  8
0
  6
CONTINUOUS
 66
     1
 40
0.000000
 41
0.000000
  0
VERTEX
  8
0
  6
CONTINUOUS
 10
4.935480
 20
3.456200
  0
VERTEX
  8
0
  6
CONTINUOUS
 10
5.585800
 20
3.819200
  0
VERTEX
  8
0
  6
CONTINUOUS
 10
5.664560
 20
3.777840
  0
VERTEX
  8
0
  6
CONTINUOUS
 10
5.014240
 20
3.414840
  0
VERTEX
  8
0
  6
CONTINUOUS
 10
4.935480
 20
3.456200
  0
SEQEND
  8
0
  0
SOLID
  8
0
 62
    15
 10
5.014240
 20
3.414840
 11
5.664560
 21
3.777840
 12
5.077600
 22
3.372160
 13
5.727480
 23
3.734720
  0
POLYLINE
  8
0
  6
CONTINUOUS
 66
     1
 40
0.000000
 41
0.000000
  0
VERTEX
  8
0
  6
CONTINUOUS
 10
5.014240
 20
3.414840
  0
VERTEX
  8
0
  6
CONTINUOUS
 10
5.664560
 20
3.777840
  0
VERTEX
  8
0
  6
CONTINUOUS
 10
5.727480
 20
3.734720
  0
VERTEX
  8
0
  6
CONTINUOUS
 10
5.077600
 20
3.372160
  0
VERTEX
  8
0
  6
CONTINUOUS
 10
5.014240
 20
3.414840
  0
SEQEND
  8
0
  0
SOLID
  8
0
 62
    15
 10
5.077600
 20
3.372160
 11
5.727480
 21
3.734720
 12
5.126440
 22
3.327720
 13
5.776760
 23
3.690720
  0
POLYLINE
  8
0
  6
CONTINUOUS
 66
     1
 40
0.000000
 41
0.000000
  0
VERTEX
  8
0
  6
CONTINUOUS
 10
5.077600
 20
3.372160
  0
VERTEX
  8
0
  6
CONTINUOUS
 10
5.727480
 20
3.734720
  0
VERTEX
  8
0
  6
CONTINUOUS
 10
5.776760
 20
3.690720
  0
VERTEX
  8
0
  6
CONTINUOUS
 10
5.126440
 20
3.327720
  0
VERTEX
  8
0
  6
CONTINUOUS
 10
5.077600
 20
3.372160
  0
SEQEND
  8
0
  0
SOLID
  8
0
 62
    15
 10
5.126440
 20
3.327720
 11
5.776760
 21
3.690720
 12
5.162960
 22
3.283280
 13
5.813280
 23
3.646280
  0
POLYLINE
  8
0
  6
CONTINUOUS
 66
     1
 40
0.000000
 41
0.000000
  0
VERTEX
  8
0
  6
CONTINUOUS
 10
5.126440
 20
3.327720
  0
VERTEX
  8
0
  6
CONTINUOUS
 10
5.776760
 20
3.690720
  0
VERTEX
  8
0
  6
CONTINUOUS
 10
5.813280
 20
3.646280
  0
VERTEX
  8
0
  6
CONTINUOUS
 10
5.162960
 20
3.283280
  0
VERTEX
  8
0
  6
CONTINUOUS
 10
5.126440
 20
3.327720
  0
SEQEND
  8
0
  0
SOLID
  8
0
 62
    15
 10
5.162960
 20
3.283280
 11
5.813280
 21
3.646280
 12
5.201680
 22
3.196160
 13
5.852000
 23
3.559160
  0
POLYLINE
  8
0
  6
CONTINUOUS
 66
     1
 40
0.000000
 41
0.000000
  0
VERTEX
  8
0
  6
CONTINUOUS
 10
5.162960
 20
3.283280
  0
VERTEX
  8
0
  6
CONTINUOUS
 10
5.813280
 20
3.646280
  0
VERTEX
  8
0
  6
CONTINUOUS
 10
5.852000
 20
3.559160
  0
VERTEX
  8
0
  6
CONTINUOUS
 10
5.201680
 20
3.196160
  0
VERTEX
  8
0
  6
CONTINUOUS
 10
5.162960
 20
3.283280
  0
SEQEND
  8
0
  0
SOLID
  8
0
 62
    15
 10
5.201680
 20
3.196160
 11
5.852000
 21
3.559160
 12
5.203440
 22
3.115200
 13
5.853760
 23
3.478200
  0
POLYLINE
  8
0
  6
CONTINUOUS
 66
     1
 40
0.000000
 41
0.000000
  0
VERTEX
  8
0
  6
CONTINUOUS
 10
5.201680
 20
3.196160
  0
VERTEX
  8
0
  6
CONTINUOUS
 10
5.852000
 20
3.559160
  0
VERTEX
  8
0
  6
CONTINUOUS
 10
5.853760
 20
3.478200
  0
VERTEX
  8
0
  6
CONTINUOUS
 10
5.203440
 20
3.115200
  0
VERTEX
  8
0
  6
CONTINUOUS
 10
5.201680
 20
3.196160
  0
SEQEND
  8
0
  0
SOLID
  8
0
 62
    15
 10
4.930200
 20
2.909720
 11
5.580520
 21
3.272720
 12
4.880480
 22
2.873640
 13
5.530800
 23
3.236640
  0
POLYLINE
  8
0
  6
CONTINUOUS
 66
     1
 40
0.000000
 41
0.000000
  0
VERTEX
  8
0
  6
CONTINUOUS
 10
4.930200
 20
2.909720
  0
VERTEX
  8
0
  6
CONTINUOUS
 10
5.580520
 20
3.272720
  0
VERTEX
  8
0
  6
CONTINUOUS
 10
5.530800
 20
3.236640
  0
VERTEX
  8
0
  6
CONTINUOUS
 10
4.880480
 20
2.873640
  0
VERTEX
  8
0
  6
CONTINUOUS
 10
4.930200
 20
2.909720
  0
SEQEND
  8
0
  0
SOLID
  8
0
 62
    15
 10
4.880480
 20
2.873640
 11
5.530800
 21
3.236640
 12
4.837360
 22
2.821720
 13
5.487680
 23
3.184720
  0
POLYLINE
  8
0
  6
CONTINUOUS
 66
     1
 40
0.000000
 41
0.000000
  0
VERTEX
  8
0
  6
CONTINUOUS
 10
4.880480
 20
2.873640
  0
VERTEX
  8
0
  6
CONTINUOUS
 10
5.530800
 20
3.236640
  0
VERTEX
  8
0
  6
CONTINUOUS
 10
5.487680
 20
3.184720
  0
VERTEX
  8
0
  6
CONTINUOUS
 10
4.837360
 20
2.821720
  0
VERTEX
  8
0
  6
CONTINUOUS
 10
4.880480
 20
2.873640
  0
SEQEND
  8
0
  0
SOLID
  8
0
 62
    15
 10
5.135240
 20
2.994200
 11
5.785560
 21
3.357200
 12
5.084640
 22
2.965160
 13
5.734960
 23
3.328160
  0
POLYLINE
  8
0
  6
CONTINUOUS
 66
     1
 40
0.000000
 41
0.000000
  0
VERTEX
  8
0
  6
CONTINUOUS
 10
5.135240
 20
2.994200
  0
VERTEX
  8
0
  6
CONTINUOUS
 10
5.785560
 20
3.357200
  0
VERTEX
  8
0
  6
CONTINUOUS
 10
5.734960
 20
3.328160
  0
VERTEX
  8
0
  6
CONTINUOUS
 10
5.084640
 20
2.965160
  0
VERTEX
  8
0
  6
CONTINUOUS
 10
5.135240
 20
2.994200
  0
SEQEND
  8
0
  0
SOLID
  8
0
 62
    15
 10
5.203440
 20
3.115200
 11
5.853760
 21
3.478200
 12
5.178360
 22
3.046120
 13
5.828240
 23
3.409120
  0
POLYLINE
  8
0
  6
CONTINUOUS
 66
     1
 40
0.000000
 41
0.000000
  0
VERTEX
  8
0
  6
CONTINUOUS
 10
5.203440
 20
3.115200
  0
VERTEX
  8
0
  6
CONTINUOUS
 10
5.853760
 20
3.478200
  0
VERTEX
  8
0
  6
CONTINUOUS
 10
5.828240
 20
3.409120
  0
VERTEX
  8
0
  6
CONTINUOUS
 10
5.178360
 20
3.046120
  0
VERTEX
  8
0
  6
CONTINUOUS
 10
5.203440
 20
3.115200
  0
SEQEND
  8
0
  0
SOLID
  8
0
 62
    15
 10
5.178360
 20
3.046120
 11
5.828240
 21
3.409120
 12
5.135240
 22
2.994200
 13
5.785560
 23
3.357200
  0
POLYLINE
  8
0
  6
CONTINUOUS
 66
     1
 40
0.000000
 41
0.000000
  0
VERTEX
  8
0
  6
CONTINUOUS
 10
5.178360
 20
3.046120
  0
VERTEX
  8
0
  6
CONTINUOUS
 10
5.828240
 20
3.409120
  0
VERTEX
  8
0
  6
CONTINUOUS
 10
5.785560
 20
3.357200
  0
VERTEX
  8
0
  6
CONTINUOUS
 10
5.135240
 20
2.994200
  0
VERTEX
  8
0
  6
CONTINUOUS
 10
5.178360
 20
3.046120
  0
SEQEND
  8
0
  0
SOLID
  8
0
 62
    15
 10
4.837360
 20
2.821720
 11
5.487680
 21
3.184720
 12
4.804800
 22
2.748680
 13
5.455120
 23
3.111680
  0
POLYLINE
  8
0
  6
CONTINUOUS
 66
     1
 40
0.000000
 41
0.000000
  0
VERTEX
  8
0
  6
CONTINUOUS
 10
4.837360
 20
2.821720
  0
VERTEX
  8
0
  6
CONTINUOUS
 10
5.487680
 20
3.184720
  0
VERTEX
  8
0
  6
CONTINUOUS
 10
5.455120
 20
3.111680
  0
VERTEX
  8
0
  6
CONTINUOUS
 10
4.804800
 20
2.748680
  0
VERTEX
  8
0
  6
CONTINUOUS
 10
4.837360
 20
2.821720
  0
SEQEND
  8
0
  0
SOLID
  8
0
 62
    15
 10
4.804800
 20
2.748680
 11
5.455120
 21
3.111680
 12
4.786760
 22
2.651000
 13
5.436640
 23
3.014000
  0
POLYLINE
  8
0
  6
CONTINUOUS
 66
     1
 40
0.000000
 41
0.000000
  0
VERTEX
  8
0
  6
CONTINUOUS
 10
4.804800
 20
2.748680
  0
VERTEX
  8
0
  6
CONTINUOUS
 10
5.455120
 20
3.111680
  0
VERTEX
  8
0
  6
CONTINUOUS
 10
5.436640
 20
3.014000
  0
VERTEX
  8
0
  6
CONTINUOUS
 10
4.786760
 20
2.651000
  0
VERTEX
  8
0
  6
CONTINUOUS
 10
4.804800
 20
2.748680
  0
SEQEND
  8
0
  0
SOLID
  8
0
 62
    15
 10
4.786760
 20
2.651000
 11
5.436640
 21
3.014000
 12
4.786320
 22
2.523400
 13
5.436640
 23
2.886400
  0
POLYLINE
  8
0
  6
CONTINUOUS
 66
     1
 40
0.000000
 41
0.000000
  0
VERTEX
  8
0
  6
CONTINUOUS
 10
4.786760
 20
2.651000
  0
VERTEX
  8
0
  6
CONTINUOUS
 10
5.436640
 20
3.014000
  0
VERTEX
  8
0
  6
CONTINUOUS
 10
5.436640
 20
2.886400
  0
VERTEX
  8
0
  6
CONTINUOUS
 10
4.786320
 20
2.523400
  0
VERTEX
  8
0
  6
CONTINUOUS
 10
4.786760
 20
2.651000
  0
SEQEND
  8
0
  0
SOLID
  8
0
 62
    15
 10
4.786320
 20
2.523400
 11
5.436640
 21
2.886400
 12
4.786320
 22
1.663200
 13
5.436640
 23
2.026200
  0
POLYLINE
  8
0
  6
CONTINUOUS
 66
     1
 40
0.000000
 41
0.000000
  0
VERTEX
  8
0
  6
CONTINUOUS
 10
4.786320
 20
2.523400
  0
VERTEX
  8
0
  6
CONTINUOUS
 10
5.436640
 20
2.886400
  0
VERTEX
  8
0
  6
CONTINUOUS
 10
5.436640
 20
2.026200
  0
VERTEX
  8
0
  6
CONTINUOUS
 10
4.786320
 20
1.663200
  0
VERTEX
  8
0
  6
CONTINUOUS
 10
4.786320
 20
2.523400
  0
SEQEND
  8
0
  0
POLYLINE
  8
0
  6
CONTINUOUS
 66
     1
 40
0.000000
 41
0.000000
  0
VERTEX
  8
0
  6
CONTINUOUS
 10
4.786320
 20
1.675080
  0
VERTEX
  8
0
  6
CONTINUOUS
 10
4.786320
 20
1.659240
  0
VERTEX
  8
0
  6
CONTINUOUS
 10
4.726040
 20
1.659240
  0
VERTEX
  8
0
  6
CONTINUOUS
 10
4.701840
 20
1.654400
  0
VERTEX
  8
0
  6
CONTINUOUS
 10
4.688640
 20
1.645600
  0
VERTEX
  8
0
  6
CONTINUOUS
 10
4.687760
 20
1.620520
  0
VERTEX
  8
0
  6
CONTINUOUS
 10
4.728680
 20
1.576080
  0
VERTEX
  8
0
  6
CONTINUOUS
 10
4.749360
 20
1.562440
  0
VERTEX
  8
0
  6
CONTINUOUS
 10
4.770480
 20
1.536040
  0
VERTEX
  8
0
  6
CONTINUOUS
 10
4.786760
 20
1.501720
  0
VERTEX
  8
0
  6
CONTINUOUS
 10
4.792920
 20
1.464320
  0
VERTEX
  8
0
  6
CONTINUOUS
 10
4.783680
 20
1.427800
  0
VERTEX
  8
0
  6
CONTINUOUS
 10
4.752440
 20
1.396560
  0
VERTEX
  8
0
  6
CONTINUOUS
 10
4.694800
 20
1.375880
  0
VERTEX
  8
0
  6
CONTINUOUS
 10
4.604600
 20
1.370160
  0
VERTEX
  8
0
  6
CONTINUOUS
 10
4.602840
 20
1.368840
  0
VERTEX
  8
0
  6
CONTINUOUS
 10
3.286360
 20
1.368840
  0
VERTEX
  8
0
  6
CONTINUOUS
 10
3.195720
 20
1.374560
  0
VERTEX
  8
0
  6
CONTINUOUS
 10
3.138080
 20
1.395240
  0
VERTEX
  8
0
  6
CONTINUOUS
 10
3.107280
 20
1.426480
  0
VERTEX
  8
0
  6
CONTINUOUS
 10
3.097600
 20
1.463000
  0
VERTEX
  8
0
  6
CONTINUOUS
 10
3.103760
 20
1.500400
  0
VERTEX
  8
0
  6
CONTINUOUS
 10
3.120040
 20
1.534720
  0
VERTEX
  8
0
  6
CONTINUOUS
 10
3.141600
 20
1.561120
  0
VERTEX
  8
0
  6
CONTINUOUS
 10
3.161840
 20
1.574760
  0
VERTEX
  8
0
  6
CONTINUOUS
 10
3.202760
 20
1.619200
  0
VERTEX
  8
0
  6
CONTINUOUS
 10
3.201880
 20
1.644280
  0
VERTEX
  8
0
  6
CONTINUOUS
 10
3.188680
 20
1.653080
  0
VERTEX
  8
0
  6
CONTINUOUS
 10
3.164480
 20
1.657920
  0
VERTEX
  8
0
  6
CONTINUOUS
 10
3.104200
 20
1.657920
  0
VERTEX
  8
0
  6
CONTINUOUS
 10
3.103760
 20
2.649680
  0
VERTEX
  8
0
  6
CONTINUOUS
 10
3.085720
 20
2.747360
  0
VERTEX
  8
0
  6
CONTINUOUS
 10
3.053160
 20
2.820400
  0
VERTEX
  8
0
  6
CONTINUOUS
 10
3.010040
 20
2.872320
  0
VERTEX
  8
0
  6
CONTINUOUS
 10
2.960320
 20
2.908400
  0
VERTEX
  8
0
  6
CONTINUOUS
 10
2.907080
 20
2.932600
  0
VERTEX
  8
0
  6
CONTINUOUS
 10
2.805880
 20
2.963840
  0
VERTEX
  8
0
  6
CONTINUOUS
 10
2.755280
 20
2.993320
  0
VERTEX
  8
0
  6
CONTINUOUS
 10
2.712160
 20
3.046120
  0
VERTEX
  8
0
  6
CONTINUOUS
 10
2.687080
 20
3.116080
  0
VERTEX
  8
0
  6
CONTINUOUS
 10
2.688840
 20
3.197920
  0
VERTEX
  8
0
  6
CONTINUOUS
 10
2.727560
 20
3.285920
  0
VERTEX
  8
0
  6
CONTINUOUS
 10
2.763640
 20
3.330800
  0
VERTEX
  8
0
  6
CONTINUOUS
 10
2.812920
 20
3.374360
  0
VERTEX
  8
0
  6
CONTINUOUS
 10
2.876280
 20
3.417040
  0
VERTEX
  8
0
  6
CONTINUOUS
 10
2.955040
 20
3.457520
  0
VERTEX
  8
0
  6
CONTINUOUS
 10
3.050080
 20
3.495360
  0
VERTEX
  8
0
  6
CONTINUOUS
 10
3.163160
 20
3.529680
  0
VERTEX
  8
0
  6
CONTINUOUS
 10
3.358080
 20
3.574120
  0
VERTEX
  8
0
  6
CONTINUOUS
 10
3.504600
 20
3.604920
  0
VERTEX
  8
0
  6
CONTINUOUS
 10
3.612840
 20
3.625160
  0
VERTEX
  8
0
  6
CONTINUOUS
 10
3.693360
 20
3.637040
  0
VERTEX
  8
0
  6
CONTINUOUS
 10
3.811720
 20
3.644960
  0
VERTEX
  8
0
  6
CONTINUOUS
 10
3.978920
 20
3.650240
  0
VERTEX
  8
0
  6
CONTINUOUS
 10
4.028640
 20
3.649800
  0
VERTEX
  8
0
  6
CONTINUOUS
 10
4.103880
 20
3.644960
  0
VERTEX
  8
0
  6
CONTINUOUS
 10
4.208600
 20
3.633520
  0
VERTEX
  8
0
  6
CONTINUOUS
 10
4.345880
 20
3.612400
  0
VERTEX
  8
0
  6
CONTINUOUS
 10
4.517480
 20
3.578960
  0
VERTEX
  8
0
  6
CONTINUOUS
 10
4.617800
 20
3.556960
  0
VERTEX
  8
0
  6
CONTINUOUS
 10
4.727360
 20
3.531000
  0
VERTEX
  8
0
  6
CONTINUOUS
 10
4.840440
 20
3.495360
  0
VERTEX
  8
0
  6
CONTINUOUS
 10
4.935480
 20
3.456200
  0
VERTEX
  8
0
  6
CONTINUOUS
 10
5.014240
 20
3.414840
  0
VERTEX
  8
0
  6
CONTINUOUS
 10
5.077600
 20
3.372160
  0
VERTEX
  8
0
  6
CONTINUOUS
 10
5.126440
 20
3.327720
  0
VERTEX
  8
0
  6
CONTINUOUS
 10
5.162960
 20
3.283280
  0
VERTEX
  8
0
  6
CONTINUOUS
 10
5.201680
 20
3.196160
  0
VERTEX
  8
0
  6
CONTINUOUS
 10
5.203440
 20
3.115200
  0
VERTEX
  8
0
  6
CONTINUOUS
 10
5.178360
 20
3.046120
  0
VERTEX
  8
0
  6
CONTINUOUS
 10
5.135240
 20
2.994200
  0
VERTEX
  8
0
  6
CONTINUOUS
 10
5.084640
 20
2.965160
  0
VERTEX
  8
0
  6
CONTINUOUS
 10
4.983440
 20
2.933920
  0
VERTEX
  8
0
  6
CONTINUOUS
 10
4.930200
 20
2.909720
  0
VERTEX
  8
0
  6
CONTINUOUS
 10
4.880480
 20
2.873640
  0
VERTEX
  8
0
  6
CONTINUOUS
 10
4.837360
 20
2.821720
  0
VERTEX
  8
0
  6
CONTINUOUS
 10
4.804800
 20
2.748680
  0
VERTEX
  8
0
  6
CONTINUOUS
 10
4.786760
 20
2.651000
  0
VERTEX
  8
0
  6
CONTINUOUS
 10
4.786320
 20
1.663200
  0
VERTEX
  8
0
  6
CONTINUOUS
 10
4.786320
 20
1.675080
  0
SEQEND
  8
0
  0
TEXT
  8
0
 10
4.020280
 20
1.126840
 40
0.138286
  1
BA  76
 41
1.000000
  7
SN0
 71
     0
 72
     5
 11
4.519032
 21
1.126840
  0
TEXT
  8
0
 10
3.698640
 20
0.935440
 40
0.138286
  1
2-7/16" x 2-1/2"
 41
1.000000
  7
SN0
 71
     0
 72
     5
 11
4.839866
 21
0.935440
  0
POLYLINE
  8
0
  6
CONTINUOUS
 66
     1
 40
0.014080
 41
0.014080
  0
VERTEX
  8
0
  6
CONTINUOUS
 10
4.946480
 20
4.599760
  0
VERTEX
  8
0
  6
CONTINUOUS
 10
4.946480
 20
5.459960
  0
VERTEX
  8
0
  6
CONTINUOUS
 10
4.944280
 20
5.527720
  0
VERTEX
  8
0
  6
CONTINUOUS
 10
4.944720
 20
5.558520
  0
VERTEX
  8
0
  6
CONTINUOUS
 10
4.946480
 20
5.587120
  0
VERTEX
  8
0
  6
CONTINUOUS
 10
4.949560
 20
5.614400
  0
VERTEX
  8
0
  6
CONTINUOUS
 10
4.958800
 20
5.663240
  0
VERTEX
  8
0
  6
CONTINUOUS
 10
4.972000
 20
5.705480
  0
VERTEX
  8
0
  6
CONTINUOUS
 10
4.979480
 20
5.724400
  0
VERTEX
  8
0
  6
CONTINUOUS
 10
4.997520
 20
5.758280
  0
VERTEX
  8
0
  6
CONTINUOUS
 10
5.017760
 20
5.786440
  0
VERTEX
  8
0
  6
CONTINUOUS
 10
5.040640
 20
5.810200
  0
VERTEX
  8
0
  6
CONTINUOUS
 10
5.064840
 20
5.830000
  0
VERTEX
  8
0
  6
CONTINUOUS
 10
5.090800
 20
5.846280
  0
VERTEX
  8
0
  6
CONTINUOUS
 10
5.117200
 20
5.859920
  0
VERTEX
  8
0
  6
CONTINUOUS
 10
5.144040
 20
5.870920
  0
VERTEX
  8
0
  6
CONTINUOUS
 10
5.258000
 20
5.906560
  0
VERTEX
  8
0
  6
CONTINUOUS
 10
5.283520
 20
5.921080
  0
VERTEX
  8
0
  6
CONTINUOUS
 10
5.307720
 20
5.941760
  0
VERTEX
  8
0
  6
CONTINUOUS
 10
5.329280
 20
5.967720
  0
VERTEX
  8
0
  6
CONTINUOUS
 10
5.346880
 20
5.998520
  0
VERTEX
  8
0
  6
CONTINUOUS
 10
5.359640
 20
6.032840
  0
VERTEX
  8
0
  6
CONTINUOUS
 10
5.364040
 20
6.051760
  0
VERTEX
  8
0
  6
CONTINUOUS
 10
5.367120
 20
6.090920
  0
VERTEX
  8
0
  6
CONTINUOUS
 10
5.365800
 20
6.111600
  0
VERTEX
  8
0
  6
CONTINUOUS
 10
5.362280
 20
6.132280
  0
VERTEX
  8
0
  6
CONTINUOUS
 10
5.352600
 20
6.164840
  0
VERTEX
  8
0
  6
CONTINUOUS
 10
5.337200
 20
6.197840
  0
VERTEX
  8
0
  6
CONTINUOUS
 10
5.306840
 20
6.242280
  0
VERTEX
  8
0
  6
CONTINUOUS
 10
5.276040
 20
6.275280
  0
VERTEX
  8
0
  6
CONTINUOUS
 10
5.237760
 20
6.308280
  0
VERTEX
  8
0
  6
CONTINUOUS
 10
5.192000
 20
6.340840
  0
VERTEX
  8
0
  6
CONTINUOUS
 10
5.137440
 20
6.372520
  0
VERTEX
  8
0
  6
CONTINUOUS
 10
5.073640
 20
6.402880
  0
VERTEX
  8
0
  6
CONTINUOUS
 10
5.001040
 20
6.431920
  0
VERTEX
  8
0
  6
CONTINUOUS
 10
4.917880
 20
6.458760
  0
VERTEX
  8
0
  6
CONTINUOUS
 10
4.859360
 20
6.474600
  0
VERTEX
  8
0
  6
CONTINUOUS
 10
4.678080
 20
6.515520
  0
VERTEX
  8
0
  6
CONTINUOUS
 10
4.545640
 20
6.541920
  0
VERTEX
  8
0
  6
CONTINUOUS
 10
4.400440
 20
6.565680
  0
VERTEX
  8
0
  6
CONTINUOUS
 10
4.312880
 20
6.577120
  0
VERTEX
  8
0
  6
CONTINUOUS
 10
4.223120
 20
6.585040
  0
VERTEX
  8
0
  6
CONTINUOUS
 10
4.139080
 20
6.587240
  0
VERTEX
  8
0
  6
CONTINUOUS
 10
4.106960
 20
6.585480
  0
VERTEX
  8
0
  6
CONTINUOUS
 10
4.107400
 20
6.585480
  0
VERTEX
  8
0
  6
CONTINUOUS
 10
3.916000
 20
6.579320
  0
VERTEX
  8
0
  6
CONTINUOUS
 10
3.853520
 20
6.573160
  0
VERTEX
  8
0
  6
CONTINUOUS
 10
3.773000
 20
6.561720
  0
VERTEX
  8
0
  6
CONTINUOUS
 10
3.632200
 20
6.534880
  0
VERTEX
  8
0
  6
CONTINUOUS
 10
3.402960
 20
6.484720
  0
VERTEX
  8
0
  6
CONTINUOUS
 10
3.323320
 20
6.466240
  0
VERTEX
  8
0
  6
CONTINUOUS
 10
3.237080
 20
6.440720
  0
VERTEX
  8
0
  6
CONTINUOUS
 10
3.160520
 20
6.413440
  0
VERTEX
  8
0
  6
CONTINUOUS
 10
3.094080
 20
6.384400
  0
VERTEX
  8
0
  6
CONTINUOUS
 10
3.036880
 20
6.353600
  0
VERTEX
  8
0
  6
CONTINUOUS
 10
2.988040
 20
6.321920
  0
VERTEX
  8
0
  6
CONTINUOUS
 10
2.947120
 20
6.289360
  0
VERTEX
  8
0
  6
CONTINUOUS
 10
2.914120
 20
6.255920
  0
VERTEX
  8
0
  6
CONTINUOUS
 10
2.888160
 20
6.222480
  0
VERTEX
  8
0
  6
CONTINUOUS
 10
2.868360
 20
6.189480
  0
VERTEX
  8
0
  6
CONTINUOUS
 10
2.855160
 20
6.156480
  0
VERTEX
  8
0
  6
CONTINUOUS
 10
2.849000
 20
6.134480
  0
VERTEX
  8
0
  6
CONTINUOUS
 10
2.845480
 20
6.113360
  0
VERTEX
  8
0
  6
CONTINUOUS
 10
2.844160
 20
6.092680
  0
VERTEX
  8
0
  6
CONTINUOUS
 10
2.847240
 20
6.052640
  0
VERTEX
  8
0
  6
CONTINUOUS
 10
2.857360
 20
6.015680
  0
VERTEX
  8
0
  6
CONTINUOUS
 10
2.872760
 20
5.982680
  0
VERTEX
  8
0
  6
CONTINUOUS
 10
2.892560
 20
5.953640
  0
VERTEX
  8
0
  6
CONTINUOUS
 10
2.915440
 20
5.929880
  0
VERTEX
  8
0
  6
CONTINUOUS
 10
2.940520
 20
5.911840
  0
VERTEX
  8
0
  6
CONTINUOUS
 10
2.966040
 20
5.900400
  0
VERTEX
  8
0
  6
CONTINUOUS
 10
3.067240
 20
5.869600
  0
VERTEX
  8
0
  6
CONTINUOUS
 10
3.107280
 20
5.852000
  0
VERTEX
  8
0
  6
CONTINUOUS
 10
3.133240
 20
5.837480
  0
VERTEX
  8
0
  6
CONTINUOUS
 10
3.170640
 20
5.808880
  0
VERTEX
  8
0
  6
CONTINUOUS
 10
3.193080
 20
5.785120
  0
VERTEX
  8
0
  6
CONTINUOUS
 10
3.213760
 20
5.756960
  0
VERTEX
  8
0
  6
CONTINUOUS
 10
3.231360
 20
5.723080
  0
VERTEX
  8
0
  6
CONTINUOUS
 10
3.239280
 20
5.704160
  0
VERTEX
  8
0
  6
CONTINUOUS
 10
3.252040
 20
5.661920
  0
VERTEX
  8
0
  6
CONTINUOUS
 10
3.257320
 20
5.638160
  0
VERTEX
  8
0
  6
CONTINUOUS
 10
3.264360
 20
5.585800
  0
VERTEX
  8
0
  6
CONTINUOUS
 10
3.266120
 20
5.557200
  0
VERTEX
  8
0
  6
CONTINUOUS
 10
3.266120
 20
5.493400
  0
VERTEX
  8
0
  6
CONTINUOUS
 10
3.264360
 20
5.453360
  0
VERTEX
  8
0
  6
CONTINUOUS
 10
3.264360
 20
4.598440
  0
VERTEX
  8
0
  6
CONTINUOUS
 10
3.264360
 20
4.610320
  0
VERTEX
  8
0
  6
CONTINUOUS
 10
3.264360
 20
4.594480
  0
VERTEX
  8
0
  6
CONTINUOUS
 10
3.324640
 20
4.594480
  0
VERTEX
  8
0
  6
CONTINUOUS
 10
3.344000
 20
4.591400
  0
VERTEX
  8
0
  6
CONTINUOUS
 10
3.356760
 20
4.585680
  0
VERTEX
  8
0
  6
CONTINUOUS
 10
3.362040
 20
4.580840
  0
VERTEX
  8
0
  6
CONTINUOUS
 10
3.365120
 20
4.575120
  0
VERTEX
  8
0
  6
CONTINUOUS
 10
3.365560
 20
4.562800
  0
VERTEX
  8
0
  6
CONTINUOUS
 10
3.355000
 20
4.542560
  0
VERTEX
  8
0
  6
CONTINUOUS
 10
3.332560
 20
4.518800
  0
VERTEX
  8
0
  6
CONTINUOUS
 10
3.307040
 20
4.502520
  0
VERTEX
  8
0
  6
CONTINUOUS
 10
3.290760
 20
4.485800
  0
VERTEX
  8
0
  6
CONTINUOUS
 10
3.271400
 20
4.455000
  0
VERTEX
  8
0
  6
CONTINUOUS
 10
3.261280
 20
4.427720
  0
VERTEX
  8
0
  6
CONTINUOUS
 10
3.257760
 20
4.399560
  0
VERTEX
  8
0
  6
CONTINUOUS
 10
3.260400
 20
4.380640
  0
VERTEX
  8
0
  6
CONTINUOUS
 10
3.267440
 20
4.363040
  0
VERTEX
  8
0
  6
CONTINUOUS
 10
3.279760
 20
4.346320
  0
VERTEX
  8
0
  6
CONTINUOUS
 10
3.298240
 20
4.331800
  0
VERTEX
  8
0
  6
CONTINUOUS
 10
3.323760
 20
4.319920
  0
VERTEX
  8
0
  6
CONTINUOUS
 10
3.356320
 20
4.311120
  0
VERTEX
  8
0
  6
CONTINUOUS
 10
3.408680
 20
4.305400
  0
VERTEX
  8
0
  6
CONTINUOUS
 10
4.763440
 20
4.305400
  0
VERTEX
  8
0
  6
CONTINUOUS
 10
4.764760
 20
4.306720
  0
VERTEX
  8
0
  6
CONTINUOUS
 10
4.802600
 20
4.306720
  0
VERTEX
  8
0
  6
CONTINUOUS
 10
4.854960
 20
4.312440
  0
VERTEX
  8
0
  6
CONTINUOUS
 10
4.887520
 20
4.321240
  0
VERTEX
  8
0
  6
CONTINUOUS
 10
4.913040
 20
4.333120
  0
VERTEX
  8
0
  6
CONTINUOUS
 10
4.931520
 20
4.347640
  0
VERTEX
  8
0
  6
CONTINUOUS
 10
4.943840
 20
4.364360
  0
VERTEX
  8
0
  6
CONTINUOUS
 10
4.950880
 20
4.381960
  0
VERTEX
  8
0
  6
CONTINUOUS
 10
4.953520
 20
4.400880
  0
VERTEX
  8
0
  6
CONTINUOUS
 10
4.950000
 20
4.429040
  0
VERTEX
  8
0
  6
CONTINUOUS
 10
4.939880
 20
4.456320
  0
VERTEX
  8
0
  6
CONTINUOUS
 10
4.920520
 20
4.487120
  0
VERTEX
  8
0
  6
CONTINUOUS
 10
4.904240
 20
4.503840
  0
VERTEX
  8
0
  6
CONTINUOUS
 10
4.878720
 20
4.520120
  0
VERTEX
  8
0
  6
CONTINUOUS
 10
4.856280
 20
4.543880
  0
VERTEX
  8
0
  6
CONTINUOUS
 10
4.845720
 20
4.564120
  0
VERTEX
  8
0
  6
CONTINUOUS
 10
4.844840
 20
4.570720
  0
VERTEX
  8
0
  6
CONTINUOUS
 10
4.848800
 20
4.582160
  0
VERTEX
  8
0
  6
CONTINUOUS
 10
4.857600
 20
4.589200
  0
VERTEX
  8
0
  6
CONTINUOUS
 10
4.872560
 20
4.594040
  0
VERTEX
  8
0
  6
CONTINUOUS
 10
4.886640
 20
4.595800
  0
VERTEX
  8
0
  6
CONTINUOUS
 10
4.946480
 20
4.595800
  0
VERTEX
  8
0
  6
CONTINUOUS
 10
4.946480
 20
4.611640
  0
VERTEX
  8
0
  6
CONTINUOUS
 10
4.946480
 20
4.599760
  0
SEQEND
  8
0
  0
TEXT
  8
0
 10
3.850440
 20
5.018200
 40
0.138286
  1
BA  76
 41
1.000000
  7
SN0
 71
     0
 72
     5
 11
4.349192
 21
5.018200
  0
TEXT
  8
0
 10
3.528800
 20
4.826800
 40
0.138286
  1
2-7/16" x 2-1/2"
 41
1.000000
  7
SN0
 71
     0
 72
     5
 11
4.670026
 21
4.826800
  0
ENDSEC
  0
EOF
