  0
SECTION
  2
HEADER
  9
$ACADVER
  1
AC1006
  9
$EXTMIN
 10
2.155120
 20
1.001440
  9
$EXTMAX
 10
5.535200
 20
5.117200
  9
$LTSCALE
 40
0.044000
  9
$PDMODE
 70
    35
  9
$PDSIZE
 40
0.035200
  0
ENDSEC
  0
SECTION
  2
TABLES
  0
TABLE
  2
LTYPE
 70
     9
  0
LTYPE
  2
CONTINUOUS
 70
    64
  3
Solid line
 72
    65
 73
     0
 40
0.000000
  0
LTYPE
  2
DASHED
 70
    64
  3
__ __ __ __ __ __ __ __ __ __ __ __ __ __ __
 72
    65
 73
     2
 40
0.000330
 49
0.000220
 49
-0.000110
  0
LTYPE
  2
HIDDEN
 70
    64
  3
 _ _ _ _ _ _ _ _ _ _ _ _ _ _ _ _ _ _ _ _ _ _
 72
    65
 73
     2
 40
0.000165
 49
0.000110
 49
-0.000055
  0
LTYPE
  2
CENTER
 70
    64
  3
____ _ ____ _ ____ _ ____ _ ____ _ ____ _ ____
 72
    65
 73
     4
 40
0.000880
 49
0.000550
 49
-0.000110
 49
0.000110
 49
-0.000110
  0
LTYPE
  2
PHANTOM
 70
    64
  3
_____ _ _ _____ _ _ _____ _ _ _____ _ _ ____
 72
    65
 73
     6
 40
0.001100
 49
0.000550
 49
-0.000110
 49
0.000110
 49
-0.000110
 49
0.000110
 49
-0.000110
  0
LTYPE
  2
DOT
 70
    64
  3
...............................................
 72
    65
 73
     2
 40
0.000110
 49
0.000000
 49
-0.000110
  0
LTYPE
  2
DASHDOT
 70
    64
  3
__ . __ . __ . __ . __ . __ . __ . __ . __ . __
 72
    65
 73
     4
 40
0.000440
 49
0.000220
 49
-0.000110
 49
0.000000
 49
-0.000110
  0
LTYPE
  2
BORDER
 70
    64
  3
__ __ . __ __ . __ __ . __ __ . __ __ . __ __
 72
    65
 73
     6
 40
0.000770
 49
0.000220
 49
-0.000110
 49
0.000220
 49
-0.000110
 49
0.000000
 49
-0.000110
  0
LTYPE
  2
DIVIDE
 70
    64
  3
__ . . __ . . __ . . __ . . __ . . __ . . __
 72
    65
 73
     6
 40
0.000550
 49
0.000220
 49
-0.000110
 49
0.000000
 49
-0.000110
 49
0.000000
 49
-0.000110
  0
LTYPE
  2
DOTDOT
 70
    64
  3
 . .  . .  . .  . .  . .  . . 
 72
    65
 73
     5
 40
0.000242
 49
-0.000110
 49
0.000000
 49
-0.000110
 49
0.000000
 49
-0.000110
  0
ENDTAB
  0
TABLE
  2
STYLE
 70
     2
  0
STYLE
 70
     0
  2
SN0
 40
0.000000
 41
0.000440
 50
0.000000
 71
     0
 42
0.000000
  3
ROMAND
  0
STYLE
 70
    68
  2
SV0
 40
0.000000
 41
0.000440
 50
0.000000
 71
     0
 42
0.000000
  3
ROMAND
  0
ENDTAB
  0
TABLE
  2
LAYER
 70
     3
  0
LAYER
  2
FOREGROUND
 70
    64
 62
     7
  6
CONTINUOUS
  0
LAYER
  2
BACKGROUND
 70
    65
 62
    -7
  6
CONTINUOUS
  0
LAYER
  2
0
 70
    64
 62
     7
  6
CONTINUOUS
  0
ENDTAB
  0
ENDSEC
  0
SECTION
  2
ENTITIES
  0
POLYLINE
  8
FOREGROUND
  6
CONTINUOUS
 66
     1
 40
0.000000
 41
0.000000
  0
VERTEX
  8
FOREGROUND
  6
CONTINUOUS
 10
0.000000
 20
6.118640
  0
VERTEX
  8
FOREGROUND
  6
CONTINUOUS
 10
8.499920
 20
6.118640
  0
VERTEX
  8
FOREGROUND
  6
CONTINUOUS
 10
8.499920
 20
-4.881360
  0
VERTEX
  8
FOREGROUND
  6
CONTINUOUS
 10
0.000000
 20
-4.881360
  0
VERTEX
  8
FOREGROUND
  6
CONTINUOUS
 10
0.000000
 20
6.118640
  0
SEQEND
  8
0
  0
POLYLINE
  8
FOREGROUND
  6
CONTINUOUS
 66
     1
 40
0.000000
 41
0.000000
  0
VERTEX
  8
FOREGROUND
  6
CONTINUOUS
 10
0.000000
 20
6.118640
  0
VERTEX
  8
FOREGROUND
  6
CONTINUOUS
 10
8.499920
 20
6.118640
  0
VERTEX
  8
FOREGROUND
  6
CONTINUOUS
 10
8.499920
 20
-4.881360
  0
VERTEX
  8
FOREGROUND
  6
CONTINUOUS
 10
0.000000
 20
-4.881360
  0
VERTEX
  8
FOREGROUND
  6
CONTINUOUS
 10
0.000000
 20
6.118640
  0
SEQEND
  8
0
  0
POLYLINE
  8
0
  6
CONTINUOUS
 66
     1
 40
0.014080
 41
0.014080
  0
VERTEX
  8
0
  6
CONTINUOUS
 10
5.004120
 20
4.297040
  0
VERTEX
  8
0
  6
CONTINUOUS
 10
2.431880
 20
4.297040
  0
VERTEX
  8
0
  6
CONTINUOUS
 10
2.430560
 20
4.294400
  0
VERTEX
  8
0
  6
CONTINUOUS
 10
2.161280
 20
4.647720
  0
VERTEX
  8
0
  6
CONTINUOUS
 10
2.545400
 20
4.940760
  0
VERTEX
  8
0
  6
CONTINUOUS
 10
2.549360
 20
4.939440
  0
VERTEX
  8
0
  6
CONTINUOUS
 10
2.678720
 20
4.791600
  0
VERTEX
  8
0
  6
CONTINUOUS
 10
2.750440
 20
4.846160
  0
VERTEX
  8
0
  6
CONTINUOUS
 10
2.824800
 20
4.895000
  0
VERTEX
  8
0
  6
CONTINUOUS
 10
2.901360
 20
4.939000
  0
VERTEX
  8
0
  6
CONTINUOUS
 10
2.980120
 20
4.977720
  0
VERTEX
  8
0
  6
CONTINUOUS
 10
3.033800
 20
5.000600
  0
VERTEX
  8
0
  6
CONTINUOUS
 10
3.087920
 20
5.021280
  0
VERTEX
  8
0
  6
CONTINUOUS
 10
3.142920
 20
5.039760
  0
VERTEX
  8
0
  6
CONTINUOUS
 10
3.198360
 20
5.056040
  0
VERTEX
  8
0
  6
CONTINUOUS
 10
3.254240
 20
5.070120
  0
VERTEX
  8
0
  6
CONTINUOUS
 10
3.310120
 20
5.082000
  0
VERTEX
  8
0
  6
CONTINUOUS
 10
3.366880
 20
5.091680
  0
VERTEX
  8
0
  6
CONTINUOUS
 10
3.423640
 20
5.099600
  0
VERTEX
  8
0
  6
CONTINUOUS
 10
3.480400
 20
5.104880
  0
VERTEX
  8
0
  6
CONTINUOUS
 10
3.537600
 20
5.107960
  0
VERTEX
  8
0
  6
CONTINUOUS
 10
3.594360
 20
5.109280
  0
VERTEX
  8
0
  6
CONTINUOUS
 10
3.651120
 20
5.108400
  0
VERTEX
  8
0
  6
CONTINUOUS
 10
3.707880
 20
5.105320
  0
VERTEX
  8
0
  6
CONTINUOUS
 10
3.764200
 20
5.100480
  0
VERTEX
  8
0
  6
CONTINUOUS
 10
3.820520
 20
5.093440
  0
VERTEX
  8
0
  6
CONTINUOUS
 10
3.875960
 20
5.084200
  0
VERTEX
  8
0
  6
CONTINUOUS
 10
3.930960
 20
5.073200
  0
VERTEX
  8
0
  6
CONTINUOUS
 10
3.985520
 20
5.060000
  0
VERTEX
  8
0
  6
CONTINUOUS
 10
4.039200
 20
5.045040
  0
VERTEX
  8
0
  6
CONTINUOUS
 10
4.092440
 20
5.027880
  0
VERTEX
  8
0
  6
CONTINUOUS
 10
4.144360
 20
5.008960
  0
VERTEX
  8
0
  6
CONTINUOUS
 10
4.195400
 20
4.987840
  0
VERTEX
  8
0
  6
CONTINUOUS
 10
4.245560
 20
4.964960
  0
VERTEX
  8
0
  6
CONTINUOUS
 10
4.294840
 20
4.940320
  0
VERTEX
  8
0
  6
CONTINUOUS
 10
4.342800
 20
4.913480
  0
VERTEX
  8
0
  6
CONTINUOUS
 10
4.389440
 20
4.884880
  0
VERTEX
  8
0
  6
CONTINUOUS
 10
4.388120
 20
4.884880
  0
VERTEX
  8
0
  6
CONTINUOUS
 10
4.621320
 20
5.028760
  0
VERTEX
  8
0
  6
CONTINUOUS
 10
4.620000
 20
5.028760
  0
VERTEX
  8
0
  6
CONTINUOUS
 10
4.671040
 20
4.972880
  0
VERTEX
  8
0
  6
CONTINUOUS
 10
4.697000
 20
4.948680
  0
VERTEX
  8
0
  6
CONTINUOUS
 10
4.749800
 20
4.906440
  0
VERTEX
  8
0
  6
CONTINUOUS
 10
4.802600
 20
4.873000
  0
VERTEX
  8
0
  6
CONTINUOUS
 10
4.829440
 20
4.858920
  0
VERTEX
  8
0
  6
CONTINUOUS
 10
4.882240
 20
4.836920
  0
VERTEX
  8
0
  6
CONTINUOUS
 10
4.908640
 20
4.828120
  0
VERTEX
  8
0
  6
CONTINUOUS
 10
4.935040
 20
4.821080
  0
VERTEX
  8
0
  6
CONTINUOUS
 10
4.986960
 20
4.811400
  0
VERTEX
  8
0
  6
CONTINUOUS
 10
5.037560
 20
4.807000
  0
VERTEX
  8
0
  6
CONTINUOUS
 10
5.086400
 20
4.807440
  0
VERTEX
  8
0
  6
CONTINUOUS
 10
5.133480
 20
4.811840
  0
VERTEX
  8
0
  6
CONTINUOUS
 10
5.178360
 20
4.819320
  0
VERTEX
  8
0
  6
CONTINUOUS
 10
5.240400
 20
4.835600
  0
VERTEX
  8
0
  6
CONTINUOUS
 10
5.295400
 20
4.855400
  0
VERTEX
  8
0
  6
CONTINUOUS
 10
5.354800
 20
4.883560
  0
VERTEX
  8
0
  6
CONTINUOUS
 10
5.529480
 20
4.642440
  0
VERTEX
  8
0
  6
CONTINUOUS
 10
5.025240
 20
4.312880
  0
VERTEX
  8
0
  6
CONTINUOUS
 10
5.004120
 20
4.297040
  0
SEQEND
  8
0
  0
SOLID
  8
0
 62
    15
 10
3.612400
 20
2.413400
 11
4.257880
 21
2.042040
 12
3.429800
 22
2.286680
 13
4.075280
 23
1.915320
  0
POLYLINE
  8
0
  6
CONTINUOUS
 66
     1
 40
0.000000
 41
0.000000
  0
VERTEX
  8
0
  6
CONTINUOUS
 10
3.612400
 20
2.413400
  0
VERTEX
  8
0
  6
CONTINUOUS
 10
4.257880
 20
2.042040
  0
VERTEX
  8
0
  6
CONTINUOUS
 10
4.075280
 20
1.915320
  0
VERTEX
  8
0
  6
CONTINUOUS
 10
3.429800
 20
2.286680
  0
VERTEX
  8
0
  6
CONTINUOUS
 10
3.612400
 20
2.413400
  0
SEQEND
  8
0
  0
SOLID
  8
0
 62
    15
 10
4.368760
 20
3.644520
 11
5.014240
 21
3.273160
 12
4.365240
 22
3.642320
 13
5.010720
 23
3.270960
  0
POLYLINE
  8
0
  6
CONTINUOUS
 66
     1
 40
0.000000
 41
0.000000
  0
VERTEX
  8
0
  6
CONTINUOUS
 10
4.368760
 20
3.644520
  0
VERTEX
  8
0
  6
CONTINUOUS
 10
5.014240
 20
3.273160
  0
VERTEX
  8
0
  6
CONTINUOUS
 10
5.010720
 20
3.270960
  0
VERTEX
  8
0
  6
CONTINUOUS
 10
4.365240
 20
3.642320
  0
VERTEX
  8
0
  6
CONTINUOUS
 10
4.368760
 20
3.644520
  0
SEQEND
  8
0
  0
SOLID
  8
0
 62
    15
 10
4.365240
 20
3.642320
 11
5.010720
 21
3.270960
 12
4.169440
 22
3.625600
 13
4.814920
 23
3.254240
  0
POLYLINE
  8
0
  6
CONTINUOUS
 66
     1
 40
0.000000
 41
0.000000
  0
VERTEX
  8
0
  6
CONTINUOUS
 10
4.365240
 20
3.642320
  0
VERTEX
  8
0
  6
CONTINUOUS
 10
5.010720
 20
3.270960
  0
VERTEX
  8
0
  6
CONTINUOUS
 10
4.814920
 20
3.254240
  0
VERTEX
  8
0
  6
CONTINUOUS
 10
4.169440
 20
3.625600
  0
VERTEX
  8
0
  6
CONTINUOUS
 10
4.365240
 20
3.642320
  0
SEQEND
  8
0
  0
SOLID
  8
0
 62
    15
 10
4.169440
 20
3.625600
 11
4.814920
 21
3.254240
 12
4.169880
 22
3.505920
 13
4.815360
 23
3.134560
  0
POLYLINE
  8
0
  6
CONTINUOUS
 66
     1
 40
0.000000
 41
0.000000
  0
VERTEX
  8
0
  6
CONTINUOUS
 10
4.169440
 20
3.625600
  0
VERTEX
  8
0
  6
CONTINUOUS
 10
4.814920
 20
3.254240
  0
VERTEX
  8
0
  6
CONTINUOUS
 10
4.815360
 20
3.134560
  0
VERTEX
  8
0
  6
CONTINUOUS
 10
4.169880
 20
3.505920
  0
VERTEX
  8
0
  6
CONTINUOUS
 10
4.169440
 20
3.625600
  0
SEQEND
  8
0
  0
SOLID
  8
0
 62
    15
 10
4.169880
 20
3.505920
 11
4.815360
 21
3.134560
 12
4.160200
 22
3.388000
 13
4.805680
 23
3.016640
  0
POLYLINE
  8
0
  6
CONTINUOUS
 66
     1
 40
0.000000
 41
0.000000
  0
VERTEX
  8
0
  6
CONTINUOUS
 10
4.169880
 20
3.505920
  0
VERTEX
  8
0
  6
CONTINUOUS
 10
4.815360
 20
3.134560
  0
VERTEX
  8
0
  6
CONTINUOUS
 10
4.805680
 20
3.016640
  0
VERTEX
  8
0
  6
CONTINUOUS
 10
4.160200
 20
3.388000
  0
VERTEX
  8
0
  6
CONTINUOUS
 10
4.169880
 20
3.505920
  0
SEQEND
  8
0
  0
SOLID
  8
0
 62
    15
 10
4.160200
 20
3.388000
 11
4.805680
 21
3.016640
 12
4.141280
 22
3.272280
 13
4.786320
 23
2.900920
  0
POLYLINE
  8
0
  6
CONTINUOUS
 66
     1
 40
0.000000
 41
0.000000
  0
VERTEX
  8
0
  6
CONTINUOUS
 10
4.160200
 20
3.388000
  0
VERTEX
  8
0
  6
CONTINUOUS
 10
4.805680
 20
3.016640
  0
VERTEX
  8
0
  6
CONTINUOUS
 10
4.786320
 20
2.900920
  0
VERTEX
  8
0
  6
CONTINUOUS
 10
4.141280
 20
3.272280
  0
VERTEX
  8
0
  6
CONTINUOUS
 10
4.160200
 20
3.388000
  0
SEQEND
  8
0
  0
SOLID
  8
0
 62
    15
 10
4.141280
 20
3.272280
 11
4.786320
 21
2.900920
 12
4.112680
 22
3.159640
 13
4.757720
 23
2.788280
  0
POLYLINE
  8
0
  6
CONTINUOUS
 66
     1
 40
0.000000
 41
0.000000
  0
VERTEX
  8
0
  6
CONTINUOUS
 10
4.141280
 20
3.272280
  0
VERTEX
  8
0
  6
CONTINUOUS
 10
4.786320
 20
2.900920
  0
VERTEX
  8
0
  6
CONTINUOUS
 10
4.757720
 20
2.788280
  0
VERTEX
  8
0
  6
CONTINUOUS
 10
4.112680
 20
3.159640
  0
VERTEX
  8
0
  6
CONTINUOUS
 10
4.141280
 20
3.272280
  0
SEQEND
  8
0
  0
SOLID
  8
0
 62
    15
 10
4.112680
 20
3.159640
 11
4.757720
 21
2.788280
 12
4.029960
 22
2.944480
 13
4.675440
 23
2.573120
  0
POLYLINE
  8
0
  6
CONTINUOUS
 66
     1
 40
0.000000
 41
0.000000
  0
VERTEX
  8
0
  6
CONTINUOUS
 10
4.112680
 20
3.159640
  0
VERTEX
  8
0
  6
CONTINUOUS
 10
4.757720
 20
2.788280
  0
VERTEX
  8
0
  6
CONTINUOUS
 10
4.675440
 20
2.573120
  0
VERTEX
  8
0
  6
CONTINUOUS
 10
4.029960
 20
2.944480
  0
VERTEX
  8
0
  6
CONTINUOUS
 10
4.112680
 20
3.159640
  0
SEQEND
  8
0
  0
SOLID
  8
0
 62
    15
 10
4.029960
 20
2.944480
 11
4.675440
 21
2.573120
 12
3.916440
 22
2.746040
 13
4.561480
 23
2.374680
  0
POLYLINE
  8
0
  6
CONTINUOUS
 66
     1
 40
0.000000
 41
0.000000
  0
VERTEX
  8
0
  6
CONTINUOUS
 10
4.029960
 20
2.944480
  0
VERTEX
  8
0
  6
CONTINUOUS
 10
4.675440
 20
2.573120
  0
VERTEX
  8
0
  6
CONTINUOUS
 10
4.561480
 20
2.374680
  0
VERTEX
  8
0
  6
CONTINUOUS
 10
3.916440
 20
2.746040
  0
VERTEX
  8
0
  6
CONTINUOUS
 10
4.029960
 20
2.944480
  0
SEQEND
  8
0
  0
SOLID
  8
0
 62
    15
 10
3.916440
 20
2.746040
 11
4.561480
 21
2.374680
 12
3.776080
 22
2.567840
 13
4.421120
 23
2.196480
  0
POLYLINE
  8
0
  6
CONTINUOUS
 66
     1
 40
0.000000
 41
0.000000
  0
VERTEX
  8
0
  6
CONTINUOUS
 10
3.916440
 20
2.746040
  0
VERTEX
  8
0
  6
CONTINUOUS
 10
4.561480
 20
2.374680
  0
VERTEX
  8
0
  6
CONTINUOUS
 10
4.421120
 20
2.196480
  0
VERTEX
  8
0
  6
CONTINUOUS
 10
3.776080
 20
2.567840
  0
VERTEX
  8
0
  6
CONTINUOUS
 10
3.916440
 20
2.746040
  0
SEQEND
  8
0
  0
SOLID
  8
0
 62
    15
 10
3.776080
 20
2.567840
 11
4.421120
 21
2.196480
 12
3.612400
 22
2.413400
 13
4.257880
 23
2.042040
  0
POLYLINE
  8
0
  6
CONTINUOUS
 66
     1
 40
0.000000
 41
0.000000
  0
VERTEX
  8
0
  6
CONTINUOUS
 10
3.776080
 20
2.567840
  0
VERTEX
  8
0
  6
CONTINUOUS
 10
4.421120
 20
2.196480
  0
VERTEX
  8
0
  6
CONTINUOUS
 10
4.257880
 20
2.042040
  0
VERTEX
  8
0
  6
CONTINUOUS
 10
3.612400
 20
2.413400
  0
VERTEX
  8
0
  6
CONTINUOUS
 10
3.776080
 20
2.567840
  0
SEQEND
  8
0
  0
SOLID
  8
0
 62
    15
 10
4.359960
 20
4.127640
 11
5.005000
 21
3.756280
 12
4.368760
 22
3.644520
 13
5.014240
 23
3.273160
  0
POLYLINE
  8
0
  6
CONTINUOUS
 66
     1
 40
0.000000
 41
0.000000
  0
VERTEX
  8
0
  6
CONTINUOUS
 10
4.359960
 20
4.127640
  0
VERTEX
  8
0
  6
CONTINUOUS
 10
5.005000
 20
3.756280
  0
VERTEX
  8
0
  6
CONTINUOUS
 10
5.014240
 20
3.273160
  0
VERTEX
  8
0
  6
CONTINUOUS
 10
4.368760
 20
3.644520
  0
VERTEX
  8
0
  6
CONTINUOUS
 10
4.359960
 20
4.127640
  0
SEQEND
  8
0
  0
SOLID
  8
0
 62
    15
 10
3.878160
 20
1.820720
 11
3.877280
 21
1.820280
 12
3.232680
 22
2.192080
 13
3.232240
 23
2.191640
  0
POLYLINE
  8
0
  6
CONTINUOUS
 66
     1
 40
0.000000
 41
0.000000
  0
VERTEX
  8
0
  6
CONTINUOUS
 10
3.878160
 20
1.820720
  0
VERTEX
  8
0
  6
CONTINUOUS
 10
3.877280
 20
1.820280
  0
VERTEX
  8
0
  6
CONTINUOUS
 10
3.232240
 20
2.191640
  0
VERTEX
  8
0
  6
CONTINUOUS
 10
3.232680
 20
2.192080
  0
VERTEX
  8
0
  6
CONTINUOUS
 10
3.878160
 20
1.820720
  0
SEQEND
  8
0
  0
SOLID
  8
0
 62
    15
 10
3.232680
 20
2.192520
 11
3.878160
 21
1.821160
 12
3.210680
 22
1.920160
 13
3.856160
 23
1.549240
  0
POLYLINE
  8
0
  6
CONTINUOUS
 66
     1
 40
0.000000
 41
0.000000
  0
VERTEX
  8
0
  6
CONTINUOUS
 10
3.232680
 20
2.192520
  0
VERTEX
  8
0
  6
CONTINUOUS
 10
3.878160
 20
1.821160
  0
VERTEX
  8
0
  6
CONTINUOUS
 10
3.856160
 20
1.549240
  0
VERTEX
  8
0
  6
CONTINUOUS
 10
3.210680
 20
1.920160
  0
VERTEX
  8
0
  6
CONTINUOUS
 10
3.232680
 20
2.192520
  0
SEQEND
  8
0
  0
SOLID
  8
0
 62
    15
 10
3.211560
 20
1.920600
 11
3.857040
 21
1.549240
 12
3.068120
 22
1.897720
 13
3.713160
 23
1.526360
  0
POLYLINE
  8
0
  6
CONTINUOUS
 66
     1
 40
0.000000
 41
0.000000
  0
VERTEX
  8
0
  6
CONTINUOUS
 10
3.211560
 20
1.920600
  0
VERTEX
  8
0
  6
CONTINUOUS
 10
3.857040
 20
1.549240
  0
VERTEX
  8
0
  6
CONTINUOUS
 10
3.713160
 20
1.526360
  0
VERTEX
  8
0
  6
CONTINUOUS
 10
3.068120
 20
1.897720
  0
VERTEX
  8
0
  6
CONTINUOUS
 10
3.211560
 20
1.920600
  0
SEQEND
  8
0
  0
SOLID
  8
0
 62
    15
 10
3.429800
 20
2.286680
 11
4.075280
 21
1.915320
 12
3.232680
 22
2.192080
 13
3.878160
 23
1.820720
  0
POLYLINE
  8
0
  6
CONTINUOUS
 66
     1
 40
0.000000
 41
0.000000
  0
VERTEX
  8
0
  6
CONTINUOUS
 10
3.429800
 20
2.286680
  0
VERTEX
  8
0
  6
CONTINUOUS
 10
4.075280
 20
1.915320
  0
VERTEX
  8
0
  6
CONTINUOUS
 10
3.878160
 20
1.820720
  0
VERTEX
  8
0
  6
CONTINUOUS
 10
3.232680
 20
2.192080
  0
VERTEX
  8
0
  6
CONTINUOUS
 10
3.429800
 20
2.286680
  0
SEQEND
  8
0
  0
SOLID
  8
0
 62
    15
 10
3.856160
 20
1.549240
 11
3.856160
 21
1.547920
 12
3.210680
 22
1.920160
 13
3.210680
 23
1.919280
  0
POLYLINE
  8
0
  6
CONTINUOUS
 66
     1
 40
0.000000
 41
0.000000
  0
VERTEX
  8
0
  6
CONTINUOUS
 10
3.856160
 20
1.549240
  0
VERTEX
  8
0
  6
CONTINUOUS
 10
3.856160
 20
1.547920
  0
VERTEX
  8
0
  6
CONTINUOUS
 10
3.210680
 20
1.919280
  0
VERTEX
  8
0
  6
CONTINUOUS
 10
3.210680
 20
1.920160
  0
VERTEX
  8
0
  6
CONTINUOUS
 10
3.856160
 20
1.549240
  0
SEQEND
  8
0
  0
SOLID
  8
0
 62
    15
 10
3.068120
 20
1.897720
 11
3.713160
 21
1.526360
 12
2.950640
 22
1.852400
 13
3.596120
 23
1.481040
  0
POLYLINE
  8
0
  6
CONTINUOUS
 66
     1
 40
0.000000
 41
0.000000
  0
VERTEX
  8
0
  6
CONTINUOUS
 10
3.068120
 20
1.897720
  0
VERTEX
  8
0
  6
CONTINUOUS
 10
3.713160
 20
1.526360
  0
VERTEX
  8
0
  6
CONTINUOUS
 10
3.596120
 20
1.481040
  0
VERTEX
  8
0
  6
CONTINUOUS
 10
2.950640
 20
1.852400
  0
VERTEX
  8
0
  6
CONTINUOUS
 10
3.068120
 20
1.897720
  0
SEQEND
  8
0
  0
SOLID
  8
0
 62
    15
 10
2.950640
 20
1.852400
 11
3.596120
 21
1.481040
 12
2.857800
 22
1.789480
 13
3.502840
 23
1.418120
  0
POLYLINE
  8
0
  6
CONTINUOUS
 66
     1
 40
0.000000
 41
0.000000
  0
VERTEX
  8
0
  6
CONTINUOUS
 10
2.950640
 20
1.852400
  0
VERTEX
  8
0
  6
CONTINUOUS
 10
3.596120
 20
1.481040
  0
VERTEX
  8
0
  6
CONTINUOUS
 10
3.502840
 20
1.418120
  0
VERTEX
  8
0
  6
CONTINUOUS
 10
2.857800
 20
1.789480
  0
VERTEX
  8
0
  6
CONTINUOUS
 10
2.950640
 20
1.852400
  0
SEQEND
  8
0
  0
SOLID
  8
0
 62
    15
 10
2.857800
 20
1.789480
 11
3.502840
 21
1.418120
 12
2.785640
 22
1.715120
 13
3.431120
 23
1.344200
  0
POLYLINE
  8
0
  6
CONTINUOUS
 66
     1
 40
0.000000
 41
0.000000
  0
VERTEX
  8
0
  6
CONTINUOUS
 10
2.857800
 20
1.789480
  0
VERTEX
  8
0
  6
CONTINUOUS
 10
3.502840
 20
1.418120
  0
VERTEX
  8
0
  6
CONTINUOUS
 10
3.431120
 20
1.344200
  0
VERTEX
  8
0
  6
CONTINUOUS
 10
2.785640
 20
1.715120
  0
VERTEX
  8
0
  6
CONTINUOUS
 10
2.857800
 20
1.789480
  0
SEQEND
  8
0
  0
SOLID
  8
0
 62
    15
 10
2.785640
 20
1.715120
 11
3.431120
 21
1.344200
 12
2.732840
 22
1.635040
 13
3.377880
 23
1.263680
  0
POLYLINE
  8
0
  6
CONTINUOUS
 66
     1
 40
0.000000
 41
0.000000
  0
VERTEX
  8
0
  6
CONTINUOUS
 10
2.785640
 20
1.715120
  0
VERTEX
  8
0
  6
CONTINUOUS
 10
3.431120
 20
1.344200
  0
VERTEX
  8
0
  6
CONTINUOUS
 10
3.377880
 20
1.263680
  0
VERTEX
  8
0
  6
CONTINUOUS
 10
2.732840
 20
1.635040
  0
VERTEX
  8
0
  6
CONTINUOUS
 10
2.785640
 20
1.715120
  0
SEQEND
  8
0
  0
SOLID
  8
0
 62
    15
 10
2.732840
 20
1.635040
 11
3.377880
 21
1.263680
 12
2.695440
 22
1.554520
 13
3.340920
 23
1.183160
  0
POLYLINE
  8
0
  6
CONTINUOUS
 66
     1
 40
0.000000
 41
0.000000
  0
VERTEX
  8
0
  6
CONTINUOUS
 10
2.732840
 20
1.635040
  0
VERTEX
  8
0
  6
CONTINUOUS
 10
3.377880
 20
1.263680
  0
VERTEX
  8
0
  6
CONTINUOUS
 10
3.340920
 20
1.183160
  0
VERTEX
  8
0
  6
CONTINUOUS
 10
2.695440
 20
1.554520
  0
VERTEX
  8
0
  6
CONTINUOUS
 10
2.732840
 20
1.635040
  0
SEQEND
  8
0
  0
SOLID
  8
0
 62
    15
 10
2.695440
 20
1.554520
 11
3.340920
 21
1.183160
 12
2.672120
 22
1.478840
 13
3.317600
 23
1.107920
  0
POLYLINE
  8
0
  6
CONTINUOUS
 66
     1
 40
0.000000
 41
0.000000
  0
VERTEX
  8
0
  6
CONTINUOUS
 10
2.695440
 20
1.554520
  0
VERTEX
  8
0
  6
CONTINUOUS
 10
3.340920
 20
1.183160
  0
VERTEX
  8
0
  6
CONTINUOUS
 10
3.317600
 20
1.107920
  0
VERTEX
  8
0
  6
CONTINUOUS
 10
2.672120
 20
1.478840
  0
VERTEX
  8
0
  6
CONTINUOUS
 10
2.695440
 20
1.554520
  0
SEQEND
  8
0
  0
SOLID
  8
0
 62
    15
 10
2.672120
 20
1.478840
 11
3.317600
 21
1.107920
 12
2.659360
 22
1.414160
 13
3.304840
 23
1.042800
  0
POLYLINE
  8
0
  6
CONTINUOUS
 66
     1
 40
0.000000
 41
0.000000
  0
VERTEX
  8
0
  6
CONTINUOUS
 10
2.672120
 20
1.478840
  0
VERTEX
  8
0
  6
CONTINUOUS
 10
3.317600
 20
1.107920
  0
VERTEX
  8
0
  6
CONTINUOUS
 10
3.304840
 20
1.042800
  0
VERTEX
  8
0
  6
CONTINUOUS
 10
2.659360
 20
1.414160
  0
VERTEX
  8
0
  6
CONTINUOUS
 10
2.672120
 20
1.478840
  0
SEQEND
  8
0
  0
SOLID
  8
0
 62
    15
 10
2.659360
 20
1.414160
 11
3.304840
 21
1.042800
 12
2.361480
 22
1.416360
 13
3.006960
 23
1.045000
  0
POLYLINE
  8
0
  6
CONTINUOUS
 66
     1
 40
0.000000
 41
0.000000
  0
VERTEX
  8
0
  6
CONTINUOUS
 10
2.659360
 20
1.414160
  0
VERTEX
  8
0
  6
CONTINUOUS
 10
3.304840
 20
1.042800
  0
VERTEX
  8
0
  6
CONTINUOUS
 10
3.006960
 20
1.045000
  0
VERTEX
  8
0
  6
CONTINUOUS
 10
2.361480
 20
1.416360
  0
VERTEX
  8
0
  6
CONTINUOUS
 10
2.659360
 20
1.414160
  0
SEQEND
  8
0
  0
POLYLINE
  8
0
  6
CONTINUOUS
 66
     1
 40
0.000000
 41
0.000000
  0
VERTEX
  8
0
  6
CONTINUOUS
 10
2.394480
 20
2.044240
  0
VERTEX
  8
0
  6
CONTINUOUS
 10
3.916880
 20
4.117080
  0
VERTEX
  8
0
  6
CONTINUOUS
 10
3.915560
 20
4.119720
  0
VERTEX
  8
0
  6
CONTINUOUS
 10
4.359960
 20
4.127640
  0
VERTEX
  8
0
  6
CONTINUOUS
 10
4.368760
 20
3.644520
  0
VERTEX
  8
0
  6
CONTINUOUS
 10
4.365240
 20
3.642320
  0
VERTEX
  8
0
  6
CONTINUOUS
 10
4.169440
 20
3.625600
  0
VERTEX
  8
0
  6
CONTINUOUS
 10
4.169880
 20
3.505920
  0
VERTEX
  8
0
  6
CONTINUOUS
 10
4.160200
 20
3.388000
  0
VERTEX
  8
0
  6
CONTINUOUS
 10
4.141280
 20
3.272280
  0
VERTEX
  8
0
  6
CONTINUOUS
 10
4.112680
 20
3.159640
  0
VERTEX
  8
0
  6
CONTINUOUS
 10
4.029960
 20
2.944480
  0
VERTEX
  8
0
  6
CONTINUOUS
 10
3.916440
 20
2.746040
  0
VERTEX
  8
0
  6
CONTINUOUS
 10
3.776080
 20
2.567840
  0
VERTEX
  8
0
  6
CONTINUOUS
 10
3.612400
 20
2.413400
  0
VERTEX
  8
0
  6
CONTINUOUS
 10
3.429800
 20
2.286680
  0
VERTEX
  8
0
  6
CONTINUOUS
 10
3.232240
 20
2.191640
  0
VERTEX
  8
0
  6
CONTINUOUS
 10
3.232680
 20
2.192520
  0
VERTEX
  8
0
  6
CONTINUOUS
 10
3.210680
 20
1.919280
  0
VERTEX
  8
0
  6
CONTINUOUS
 10
3.211560
 20
1.920600
  0
VERTEX
  8
0
  6
CONTINUOUS
 10
3.068120
 20
1.897720
  0
VERTEX
  8
0
  6
CONTINUOUS
 10
2.950640
 20
1.852400
  0
VERTEX
  8
0
  6
CONTINUOUS
 10
2.857800
 20
1.789480
  0
VERTEX
  8
0
  6
CONTINUOUS
 10
2.785640
 20
1.715120
  0
VERTEX
  8
0
  6
CONTINUOUS
 10
2.732840
 20
1.635040
  0
VERTEX
  8
0
  6
CONTINUOUS
 10
2.695440
 20
1.554520
  0
VERTEX
  8
0
  6
CONTINUOUS
 10
2.672120
 20
1.478840
  0
VERTEX
  8
0
  6
CONTINUOUS
 10
2.659360
 20
1.414160
  0
VERTEX
  8
0
  6
CONTINUOUS
 10
2.361480
 20
1.416360
  0
VERTEX
  8
0
  6
CONTINUOUS
 10
2.394480
 20
2.017400
  0
VERTEX
  8
0
  6
CONTINUOUS
 10
2.394480
 20
2.044240
  0
SEQEND
  8
0
  0
TEXT
  8
0
 10
4.007520
 20
1.236840
 40
0.138089
  1
BA  75
 41
1.000000
  7
SN0
 71
     0
 72
     5
 11
4.505527
 21
1.236840
  0
TEXT
  8
0
 10
3.805560
 20
1.045440
 40
0.138089
  1
3/4" x 3-3/8"
 41
1.000000
  7
SN0
 71
     0
 72
     5
 11
4.705677
 21
1.045440
  0
ENDSEC
  0
EOF
