  0
SECTION
  2
HEADER
  9
$ACADVER
  1
AC1006
  9
$EXTMIN
 10
1.730080
 20
0.934560
  9
$EXTMAX
 10
6.422240
 20
6.752240
  9
$LTSCALE
 40
0.044000
  9
$PDMODE
 70
    35
  9
$PDSIZE
 40
0.035200
  0
ENDSEC
  0
SECTION
  2
TABLES
  0
TABLE
  2
LTYPE
 70
     9
  0
LTYPE
  2
CONTINUOUS
 70
    64
  3
Solid line
 72
    65
 73
     0
 40
0.000000
  0
LTYPE
  2
DASHED
 70
    64
  3
__ __ __ __ __ __ __ __ __ __ __ __ __ __ __
 72
    65
 73
     2
 40
0.000330
 49
0.000220
 49
-0.000110
  0
LTYPE
  2
HIDDEN
 70
    64
  3
 _ _ _ _ _ _ _ _ _ _ _ _ _ _ _ _ _ _ _ _ _ _
 72
    65
 73
     2
 40
0.000165
 49
0.000110
 49
-0.000055
  0
LTYPE
  2
CENTER
 70
    64
  3
____ _ ____ _ ____ _ ____ _ ____ _ ____ _ ____
 72
    65
 73
     4
 40
0.000880
 49
0.000550
 49
-0.000110
 49
0.000110
 49
-0.000110
  0
LTYPE
  2
PHANTOM
 70
    64
  3
_____ _ _ _____ _ _ _____ _ _ _____ _ _ ____
 72
    65
 73
     6
 40
0.001100
 49
0.000550
 49
-0.000110
 49
0.000110
 49
-0.000110
 49
0.000110
 49
-0.000110
  0
LTYPE
  2
DOT
 70
    64
  3
...............................................
 72
    65
 73
     2
 40
0.000110
 49
0.000000
 49
-0.000110
  0
LTYPE
  2
DASHDOT
 70
    64
  3
__ . __ . __ . __ . __ . __ . __ . __ . __ . __
 72
    65
 73
     4
 40
0.000440
 49
0.000220
 49
-0.000110
 49
0.000000
 49
-0.000110
  0
LTYPE
  2
BORDER
 70
    64
  3
__ __ . __ __ . __ __ . __ __ . __ __ . __ __
 72
    65
 73
     6
 40
0.000770
 49
0.000220
 49
-0.000110
 49
0.000220
 49
-0.000110
 49
0.000000
 49
-0.000110
  0
LTYPE
  2
DIVIDE
 70
    64
  3
__ . . __ . . __ . . __ . . __ . . __ . . __
 72
    65
 73
     6
 40
0.000550
 49
0.000220
 49
-0.000110
 49
0.000000
 49
-0.000110
 49
0.000000
 49
-0.000110
  0
LTYPE
  2
DOTDOT
 70
    64
  3
 . .  . .  . .  . .  . .  . . 
 72
    65
 73
     5
 40
0.000242
 49
-0.000110
 49
0.000000
 49
-0.000110
 49
0.000000
 49
-0.000110
  0
ENDTAB
  0
TABLE
  2
STYLE
 70
     2
  0
STYLE
 70
     0
  2
SN0
 40
0.000000
 41
0.000440
 50
0.000000
 71
     0
 42
0.000000
  3
ROMAND
  0
STYLE
 70
    68
  2
SV0
 40
0.000000
 41
0.000440
 50
0.000000
 71
     0
 42
0.000000
  3
ROMAND
  0
ENDTAB
  0
TABLE
  2
LAYER
 70
     3
  0
LAYER
  2
FOREGROUND
 70
    64
 62
     7
  6
CONTINUOUS
  0
LAYER
  2
BACKGROUND
 70
    65
 62
    -7
  6
CONTINUOUS
  0
LAYER
  2
0
 70
    64
 62
     7
  6
CONTINUOUS
  0
ENDTAB
  0
ENDSEC
  0
SECTION
  2
ENTITIES
  0
POLYLINE
  8
FOREGROUND
  6
CONTINUOUS
 66
     1
 40
0.000000
 41
0.000000
  0
VERTEX
  8
FOREGROUND
  6
CONTINUOUS
 10
0.000000
 20
7.686800
  0
VERTEX
  8
FOREGROUND
  6
CONTINUOUS
 10
8.499920
 20
7.686800
  0
VERTEX
  8
FOREGROUND
  6
CONTINUOUS
 10
8.499920
 20
-3.313200
  0
VERTEX
  8
FOREGROUND
  6
CONTINUOUS
 10
0.000000
 20
-3.313200
  0
VERTEX
  8
FOREGROUND
  6
CONTINUOUS
 10
0.000000
 20
7.686800
  0
SEQEND
  8
0
  0
POLYLINE
  8
FOREGROUND
  6
CONTINUOUS
 66
     1
 40
0.000000
 41
0.000000
  0
VERTEX
  8
FOREGROUND
  6
CONTINUOUS
 10
0.000000
 20
7.686800
  0
VERTEX
  8
FOREGROUND
  6
CONTINUOUS
 10
8.499920
 20
7.686800
  0
VERTEX
  8
FOREGROUND
  6
CONTINUOUS
 10
8.499920
 20
-3.313200
  0
VERTEX
  8
FOREGROUND
  6
CONTINUOUS
 10
0.000000
 20
-3.313200
  0
VERTEX
  8
FOREGROUND
  6
CONTINUOUS
 10
0.000000
 20
7.686800
  0
SEQEND
  8
0
  0
POLYLINE
  8
0
  6
CONTINUOUS
 66
     1
 40
0.014080
 41
0.014080
  0
VERTEX
  8
0
  6
CONTINUOUS
 10
2.729760
 20
6.743880
  0
VERTEX
  8
0
  6
CONTINUOUS
 10
2.801040
 20
6.675240
  0
VERTEX
  8
0
  6
CONTINUOUS
 10
2.849880
 20
6.634760
  0
VERTEX
  8
0
  6
CONTINUOUS
 10
2.924240
 20
6.581520
  0
VERTEX
  8
0
  6
CONTINUOUS
 10
3.000800
 20
6.537080
  0
VERTEX
  8
0
  6
CONTINUOUS
 10
3.052280
 20
6.511560
  0
VERTEX
  8
0
  6
CONTINUOUS
 10
3.104640
 20
6.489560
  0
VERTEX
  8
0
  6
CONTINUOUS
 10
3.184280
 20
6.462280
  0
VERTEX
  8
0
  6
CONTINUOUS
 10
3.237520
 20
6.448200
  0
VERTEX
  8
0
  6
CONTINUOUS
 10
3.318920
 20
6.431920
  0
VERTEX
  8
0
  6
CONTINUOUS
 10
3.400760
 20
6.421800
  0
VERTEX
  8
0
  6
CONTINUOUS
 10
3.455320
 20
6.417840
  0
VERTEX
  8
0
  6
CONTINUOUS
 10
3.510320
 20
6.416080
  0
VERTEX
  8
0
  6
CONTINUOUS
 10
3.565760
 20
6.416520
  0
VERTEX
  8
0
  6
CONTINUOUS
 10
3.620760
 20
6.418720
  0
VERTEX
  8
0
  6
CONTINUOUS
 10
3.676200
 20
6.422680
  0
VERTEX
  8
0
  6
CONTINUOUS
 10
3.786200
 20
6.435440
  0
VERTEX
  8
0
  6
CONTINUOUS
 10
3.895760
 20
6.453480
  0
VERTEX
  8
0
  6
CONTINUOUS
 10
4.004000
 20
6.475480
  0
VERTEX
  8
0
  6
CONTINUOUS
 10
4.110920
 20
6.499680
  0
VERTEX
  8
0
  6
CONTINUOUS
 10
4.625720
 20
6.628600
  0
VERTEX
  8
0
  6
CONTINUOUS
 10
4.787200
 20
6.665120
  0
VERTEX
  8
0
  6
CONTINUOUS
 10
4.897640
 20
6.687120
  0
VERTEX
  8
0
  6
CONTINUOUS
 10
5.010280
 20
6.706480
  0
VERTEX
  8
0
  6
CONTINUOUS
 10
5.067920
 20
6.715280
  0
VERTEX
  8
0
  6
CONTINUOUS
 10
5.185400
 20
6.728920
  0
VERTEX
  8
0
  6
CONTINUOUS
 10
5.305960
 20
6.737720
  0
VERTEX
  8
0
  6
CONTINUOUS
 10
5.367560
 20
6.740360
  0
VERTEX
  8
0
  6
CONTINUOUS
 10
5.493400
 20
6.740800
  0
VERTEX
  8
0
  6
CONTINUOUS
 10
5.558080
 20
6.738600
  0
VERTEX
  8
0
  6
CONTINUOUS
 10
5.623200
 20
6.734640
  0
VERTEX
  8
0
  6
CONTINUOUS
 10
5.689640
 20
6.728920
  0
VERTEX
  8
0
  6
CONTINUOUS
 10
5.757400
 20
6.721000
  0
VERTEX
  8
0
  6
CONTINUOUS
 10
5.860800
 20
6.705600
  0
VERTEX
  8
0
  6
CONTINUOUS
 10
5.966400
 20
6.684920
  0
VERTEX
  8
0
  6
CONTINUOUS
 10
6.075080
 20
6.658960
  0
VERTEX
  8
0
  6
CONTINUOUS
 10
6.186400
 20
6.627720
  0
VERTEX
  8
0
  6
CONTINUOUS
 10
6.300800
 20
6.590320
  0
VERTEX
  8
0
  6
CONTINUOUS
 10
6.417840
 20
6.546760
  0
VERTEX
  8
0
  6
CONTINUOUS
 10
6.418720
 20
6.544120
  0
VERTEX
  8
0
  6
CONTINUOUS
 10
5.122920
 20
5.953200
  0
VERTEX
  8
0
  6
CONTINUOUS
 10
1.997600
 20
5.953200
  0
VERTEX
  8
0
  6
CONTINUOUS
 10
1.734920
 20
6.278800
  0
VERTEX
  8
0
  6
CONTINUOUS
 10
2.725800
 20
6.745200
  0
VERTEX
  8
0
  6
CONTINUOUS
 10
2.729760
 20
6.743880
  0
SEQEND
  8
0
  0
SOLID
  8
0
 62
    15
 10
3.348840
 20
3.135000
 11
3.976280
 21
2.775520
 12
3.308360
 22
2.924240
 13
3.935800
 23
2.565200
  0
POLYLINE
  8
0
  6
CONTINUOUS
 66
     1
 40
0.000000
 41
0.000000
  0
VERTEX
  8
0
  6
CONTINUOUS
 10
3.348840
 20
3.135000
  0
VERTEX
  8
0
  6
CONTINUOUS
 10
3.976280
 20
2.775520
  0
VERTEX
  8
0
  6
CONTINUOUS
 10
3.935800
 20
2.565200
  0
VERTEX
  8
0
  6
CONTINUOUS
 10
3.308360
 20
2.924240
  0
VERTEX
  8
0
  6
CONTINUOUS
 10
3.348840
 20
3.135000
  0
SEQEND
  8
0
  0
SOLID
  8
0
 62
    15
 10
4.087160
 20
4.547840
 11
4.714600
 21
4.188800
 12
3.979360
 22
4.488440
 13
4.606800
 23
4.129400
  0
POLYLINE
  8
0
  6
CONTINUOUS
 66
     1
 40
0.000000
 41
0.000000
  0
VERTEX
  8
0
  6
CONTINUOUS
 10
4.087160
 20
4.547840
  0
VERTEX
  8
0
  6
CONTINUOUS
 10
4.714600
 20
4.188800
  0
VERTEX
  8
0
  6
CONTINUOUS
 10
4.606800
 20
4.129400
  0
VERTEX
  8
0
  6
CONTINUOUS
 10
3.979360
 20
4.488440
  0
VERTEX
  8
0
  6
CONTINUOUS
 10
4.087160
 20
4.547840
  0
SEQEND
  8
0
  0
SOLID
  8
0
 62
    15
 10
3.979360
 20
4.488440
 11
4.606800
 21
4.129400
 12
3.883880
 22
4.420240
 13
4.511760
 23
4.060760
  0
POLYLINE
  8
0
  6
CONTINUOUS
 66
     1
 40
0.000000
 41
0.000000
  0
VERTEX
  8
0
  6
CONTINUOUS
 10
3.979360
 20
4.488440
  0
VERTEX
  8
0
  6
CONTINUOUS
 10
4.606800
 20
4.129400
  0
VERTEX
  8
0
  6
CONTINUOUS
 10
4.511760
 20
4.060760
  0
VERTEX
  8
0
  6
CONTINUOUS
 10
3.883880
 20
4.420240
  0
VERTEX
  8
0
  6
CONTINUOUS
 10
3.979360
 20
4.488440
  0
SEQEND
  8
0
  0
SOLID
  8
0
 62
    15
 10
3.883880
 20
4.420240
 11
4.511760
 21
4.060760
 12
3.800280
 22
4.343680
 13
4.427720
 23
3.984640
  0
POLYLINE
  8
0
  6
CONTINUOUS
 66
     1
 40
0.000000
 41
0.000000
  0
VERTEX
  8
0
  6
CONTINUOUS
 10
3.883880
 20
4.420240
  0
VERTEX
  8
0
  6
CONTINUOUS
 10
4.511760
 20
4.060760
  0
VERTEX
  8
0
  6
CONTINUOUS
 10
4.427720
 20
3.984640
  0
VERTEX
  8
0
  6
CONTINUOUS
 10
3.800280
 20
4.343680
  0
VERTEX
  8
0
  6
CONTINUOUS
 10
3.883880
 20
4.420240
  0
SEQEND
  8
0
  0
SOLID
  8
0
 62
    15
 10
3.800280
 20
4.343680
 11
4.427720
 21
3.984640
 12
3.726800
 22
4.260080
 13
4.354240
 23
3.901040
  0
POLYLINE
  8
0
  6
CONTINUOUS
 66
     1
 40
0.000000
 41
0.000000
  0
VERTEX
  8
0
  6
CONTINUOUS
 10
3.800280
 20
4.343680
  0
VERTEX
  8
0
  6
CONTINUOUS
 10
4.427720
 20
3.984640
  0
VERTEX
  8
0
  6
CONTINUOUS
 10
4.354240
 20
3.901040
  0
VERTEX
  8
0
  6
CONTINUOUS
 10
3.726800
 20
4.260080
  0
VERTEX
  8
0
  6
CONTINUOUS
 10
3.800280
 20
4.343680
  0
SEQEND
  8
0
  0
SOLID
  8
0
 62
    15
 10
3.726800
 20
4.260080
 11
4.354240
 21
3.901040
 12
3.663000
 22
4.170320
 13
4.290440
 23
3.810840
  0
POLYLINE
  8
0
  6
CONTINUOUS
 66
     1
 40
0.000000
 41
0.000000
  0
VERTEX
  8
0
  6
CONTINUOUS
 10
3.726800
 20
4.260080
  0
VERTEX
  8
0
  6
CONTINUOUS
 10
4.354240
 20
3.901040
  0
VERTEX
  8
0
  6
CONTINUOUS
 10
4.290440
 20
3.810840
  0
VERTEX
  8
0
  6
CONTINUOUS
 10
3.663000
 20
4.170320
  0
VERTEX
  8
0
  6
CONTINUOUS
 10
3.726800
 20
4.260080
  0
SEQEND
  8
0
  0
SOLID
  8
0
 62
    15
 10
3.663000
 20
4.170320
 11
4.290440
 21
3.810840
 12
3.608000
 22
4.075280
 13
4.235440
 23
3.715800
  0
POLYLINE
  8
0
  6
CONTINUOUS
 66
     1
 40
0.000000
 41
0.000000
  0
VERTEX
  8
0
  6
CONTINUOUS
 10
3.663000
 20
4.170320
  0
VERTEX
  8
0
  6
CONTINUOUS
 10
4.290440
 20
3.810840
  0
VERTEX
  8
0
  6
CONTINUOUS
 10
4.235440
 20
3.715800
  0
VERTEX
  8
0
  6
CONTINUOUS
 10
3.608000
 20
4.075280
  0
VERTEX
  8
0
  6
CONTINUOUS
 10
3.663000
 20
4.170320
  0
SEQEND
  8
0
  0
SOLID
  8
0
 62
    15
 10
3.608000
 20
4.075280
 11
4.235440
 21
3.715800
 12
3.560480
 22
3.975840
 13
4.187920
 23
3.616360
  0
POLYLINE
  8
0
  6
CONTINUOUS
 66
     1
 40
0.000000
 41
0.000000
  0
VERTEX
  8
0
  6
CONTINUOUS
 10
3.608000
 20
4.075280
  0
VERTEX
  8
0
  6
CONTINUOUS
 10
4.235440
 20
3.715800
  0
VERTEX
  8
0
  6
CONTINUOUS
 10
4.187920
 20
3.616360
  0
VERTEX
  8
0
  6
CONTINUOUS
 10
3.560480
 20
3.975840
  0
VERTEX
  8
0
  6
CONTINUOUS
 10
3.608000
 20
4.075280
  0
SEQEND
  8
0
  0
SOLID
  8
0
 62
    15
 10
3.560480
 20
3.975840
 11
4.187920
 21
3.616360
 12
3.485240
 22
3.767280
 13
4.112680
 23
3.408240
  0
POLYLINE
  8
0
  6
CONTINUOUS
 66
     1
 40
0.000000
 41
0.000000
  0
VERTEX
  8
0
  6
CONTINUOUS
 10
3.560480
 20
3.975840
  0
VERTEX
  8
0
  6
CONTINUOUS
 10
4.187920
 20
3.616360
  0
VERTEX
  8
0
  6
CONTINUOUS
 10
4.112680
 20
3.408240
  0
VERTEX
  8
0
  6
CONTINUOUS
 10
3.485240
 20
3.767280
  0
VERTEX
  8
0
  6
CONTINUOUS
 10
3.560480
 20
3.975840
  0
SEQEND
  8
0
  0
SOLID
  8
0
 62
    15
 10
3.485240
 20
3.767280
 11
4.112680
 21
3.408240
 12
3.429800
 22
3.553000
 13
4.057240
 23
3.193520
  0
POLYLINE
  8
0
  6
CONTINUOUS
 66
     1
 40
0.000000
 41
0.000000
  0
VERTEX
  8
0
  6
CONTINUOUS
 10
3.485240
 20
3.767280
  0
VERTEX
  8
0
  6
CONTINUOUS
 10
4.112680
 20
3.408240
  0
VERTEX
  8
0
  6
CONTINUOUS
 10
4.057240
 20
3.193520
  0
VERTEX
  8
0
  6
CONTINUOUS
 10
3.429800
 20
3.553000
  0
VERTEX
  8
0
  6
CONTINUOUS
 10
3.485240
 20
3.767280
  0
SEQEND
  8
0
  0
SOLID
  8
0
 62
    15
 10
3.429800
 20
3.553000
 11
4.057240
 21
3.193520
 12
3.387120
 22
3.339600
 13
4.014560
 23
2.980120
  0
POLYLINE
  8
0
  6
CONTINUOUS
 66
     1
 40
0.000000
 41
0.000000
  0
VERTEX
  8
0
  6
CONTINUOUS
 10
3.429800
 20
3.553000
  0
VERTEX
  8
0
  6
CONTINUOUS
 10
4.057240
 20
3.193520
  0
VERTEX
  8
0
  6
CONTINUOUS
 10
4.014560
 20
2.980120
  0
VERTEX
  8
0
  6
CONTINUOUS
 10
3.387120
 20
3.339600
  0
VERTEX
  8
0
  6
CONTINUOUS
 10
3.429800
 20
3.553000
  0
SEQEND
  8
0
  0
SOLID
  8
0
 62
    15
 10
3.387120
 20
3.339600
 11
4.014560
 21
2.980120
 12
3.377440
 22
3.287240
 13
4.004880
 23
2.928200
  0
POLYLINE
  8
0
  6
CONTINUOUS
 66
     1
 40
0.000000
 41
0.000000
  0
VERTEX
  8
0
  6
CONTINUOUS
 10
3.387120
 20
3.339600
  0
VERTEX
  8
0
  6
CONTINUOUS
 10
4.014560
 20
2.980120
  0
VERTEX
  8
0
  6
CONTINUOUS
 10
4.004880
 20
2.928200
  0
VERTEX
  8
0
  6
CONTINUOUS
 10
3.377440
 20
3.287240
  0
VERTEX
  8
0
  6
CONTINUOUS
 10
3.387120
 20
3.339600
  0
SEQEND
  8
0
  0
SOLID
  8
0
 62
    15
 10
3.377440
 20
3.287240
 11
4.004880
 21
2.928200
 12
3.367760
 22
3.235760
 13
3.995200
 23
2.876280
  0
POLYLINE
  8
0
  6
CONTINUOUS
 66
     1
 40
0.000000
 41
0.000000
  0
VERTEX
  8
0
  6
CONTINUOUS
 10
3.377440
 20
3.287240
  0
VERTEX
  8
0
  6
CONTINUOUS
 10
4.004880
 20
2.928200
  0
VERTEX
  8
0
  6
CONTINUOUS
 10
3.995200
 20
2.876280
  0
VERTEX
  8
0
  6
CONTINUOUS
 10
3.367760
 20
3.235760
  0
VERTEX
  8
0
  6
CONTINUOUS
 10
3.377440
 20
3.287240
  0
SEQEND
  8
0
  0
SOLID
  8
0
 62
    15
 10
3.367760
 20
3.235760
 11
3.995200
 21
2.876280
 12
3.348840
 22
3.135000
 13
3.976280
 23
2.775520
  0
POLYLINE
  8
0
  6
CONTINUOUS
 66
     1
 40
0.000000
 41
0.000000
  0
VERTEX
  8
0
  6
CONTINUOUS
 10
3.367760
 20
3.235760
  0
VERTEX
  8
0
  6
CONTINUOUS
 10
3.995200
 20
2.876280
  0
VERTEX
  8
0
  6
CONTINUOUS
 10
3.976280
 20
2.775520
  0
VERTEX
  8
0
  6
CONTINUOUS
 10
3.348840
 20
3.135000
  0
VERTEX
  8
0
  6
CONTINUOUS
 10
3.367760
 20
3.235760
  0
SEQEND
  8
0
  0
SOLID
  8
0
 62
    15
 10
4.208160
 20
4.597560
 11
4.836040
 21
4.238080
 12
4.087160
 22
4.547840
 13
4.714600
 23
4.188800
  0
POLYLINE
  8
0
  6
CONTINUOUS
 66
     1
 40
0.000000
 41
0.000000
  0
VERTEX
  8
0
  6
CONTINUOUS
 10
4.208160
 20
4.597560
  0
VERTEX
  8
0
  6
CONTINUOUS
 10
4.836040
 20
4.238080
  0
VERTEX
  8
0
  6
CONTINUOUS
 10
4.714600
 20
4.188800
  0
VERTEX
  8
0
  6
CONTINUOUS
 10
4.087160
 20
4.547840
  0
VERTEX
  8
0
  6
CONTINUOUS
 10
4.208160
 20
4.597560
  0
SEQEND
  8
0
  0
SOLID
  8
0
 62
    15
 10
3.308360
 20
2.924240
 11
3.935800
 21
2.565200
 12
3.261280
 22
2.708200
 13
3.888720
 23
2.348720
  0
POLYLINE
  8
0
  6
CONTINUOUS
 66
     1
 40
0.000000
 41
0.000000
  0
VERTEX
  8
0
  6
CONTINUOUS
 10
3.308360
 20
2.924240
  0
VERTEX
  8
0
  6
CONTINUOUS
 10
3.935800
 20
2.565200
  0
VERTEX
  8
0
  6
CONTINUOUS
 10
3.888720
 20
2.348720
  0
VERTEX
  8
0
  6
CONTINUOUS
 10
3.261280
 20
2.708200
  0
VERTEX
  8
0
  6
CONTINUOUS
 10
3.308360
 20
2.924240
  0
SEQEND
  8
0
  0
SOLID
  8
0
 62
    15
 10
3.261280
 20
2.708200
 11
3.888720
 21
2.348720
 12
3.201440
 22
2.486440
 13
3.828880
 23
2.127400
  0
POLYLINE
  8
0
  6
CONTINUOUS
 66
     1
 40
0.000000
 41
0.000000
  0
VERTEX
  8
0
  6
CONTINUOUS
 10
3.261280
 20
2.708200
  0
VERTEX
  8
0
  6
CONTINUOUS
 10
3.888720
 20
2.348720
  0
VERTEX
  8
0
  6
CONTINUOUS
 10
3.828880
 20
2.127400
  0
VERTEX
  8
0
  6
CONTINUOUS
 10
3.201440
 20
2.486440
  0
VERTEX
  8
0
  6
CONTINUOUS
 10
3.261280
 20
2.708200
  0
SEQEND
  8
0
  0
SOLID
  8
0
 62
    15
 10
3.201440
 20
2.486440
 11
3.828880
 21
2.127400
 12
3.122240
 22
2.261160
 13
3.749680
 23
1.901680
  0
POLYLINE
  8
0
  6
CONTINUOUS
 66
     1
 40
0.000000
 41
0.000000
  0
VERTEX
  8
0
  6
CONTINUOUS
 10
3.201440
 20
2.486440
  0
VERTEX
  8
0
  6
CONTINUOUS
 10
3.828880
 20
2.127400
  0
VERTEX
  8
0
  6
CONTINUOUS
 10
3.749680
 20
1.901680
  0
VERTEX
  8
0
  6
CONTINUOUS
 10
3.122240
 20
2.261160
  0
VERTEX
  8
0
  6
CONTINUOUS
 10
3.201440
 20
2.486440
  0
SEQEND
  8
0
  0
SOLID
  8
0
 62
    15
 10
3.122240
 20
2.261160
 11
3.749680
 21
1.901680
 12
3.017080
 22
2.031920
 13
3.644520
 23
1.672880
  0
POLYLINE
  8
0
  6
CONTINUOUS
 66
     1
 40
0.000000
 41
0.000000
  0
VERTEX
  8
0
  6
CONTINUOUS
 10
3.122240
 20
2.261160
  0
VERTEX
  8
0
  6
CONTINUOUS
 10
3.749680
 20
1.901680
  0
VERTEX
  8
0
  6
CONTINUOUS
 10
3.644520
 20
1.672880
  0
VERTEX
  8
0
  6
CONTINUOUS
 10
3.017080
 20
2.031920
  0
VERTEX
  8
0
  6
CONTINUOUS
 10
3.122240
 20
2.261160
  0
SEQEND
  8
0
  0
SOLID
  8
0
 62
    15
 10
3.017080
 20
2.031920
 11
3.644520
 21
1.672880
 12
2.952840
 22
1.916640
 13
3.580280
 23
1.557160
  0
POLYLINE
  8
0
  6
CONTINUOUS
 66
     1
 40
0.000000
 41
0.000000
  0
VERTEX
  8
0
  6
CONTINUOUS
 10
3.017080
 20
2.031920
  0
VERTEX
  8
0
  6
CONTINUOUS
 10
3.644520
 20
1.672880
  0
VERTEX
  8
0
  6
CONTINUOUS
 10
3.580280
 20
1.557160
  0
VERTEX
  8
0
  6
CONTINUOUS
 10
2.952840
 20
1.916640
  0
VERTEX
  8
0
  6
CONTINUOUS
 10
3.017080
 20
2.031920
  0
SEQEND
  8
0
  0
SOLID
  8
0
 62
    15
 10
2.952840
 20
1.916640
 11
3.580280
 21
1.557160
 12
2.879800
 22
1.800480
 13
3.507240
 23
1.441000
  0
POLYLINE
  8
0
  6
CONTINUOUS
 66
     1
 40
0.000000
 41
0.000000
  0
VERTEX
  8
0
  6
CONTINUOUS
 10
2.952840
 20
1.916640
  0
VERTEX
  8
0
  6
CONTINUOUS
 10
3.580280
 20
1.557160
  0
VERTEX
  8
0
  6
CONTINUOUS
 10
3.507240
 20
1.441000
  0
VERTEX
  8
0
  6
CONTINUOUS
 10
2.879800
 20
1.800480
  0
VERTEX
  8
0
  6
CONTINUOUS
 10
2.952840
 20
1.916640
  0
SEQEND
  8
0
  0
SOLID
  8
0
 62
    15
 10
2.879800
 20
1.800480
 11
3.507240
 21
1.441000
 12
2.797080
 22
1.683880
 13
3.424520
 23
1.324400
  0
POLYLINE
  8
0
  6
CONTINUOUS
 66
     1
 40
0.000000
 41
0.000000
  0
VERTEX
  8
0
  6
CONTINUOUS
 10
2.879800
 20
1.800480
  0
VERTEX
  8
0
  6
CONTINUOUS
 10
3.507240
 20
1.441000
  0
VERTEX
  8
0
  6
CONTINUOUS
 10
3.424520
 20
1.324400
  0
VERTEX
  8
0
  6
CONTINUOUS
 10
2.797080
 20
1.683880
  0
VERTEX
  8
0
  6
CONTINUOUS
 10
2.879800
 20
1.800480
  0
SEQEND
  8
0
  0
SOLID
  8
0
 62
    15
 10
2.797080
 20
1.683880
 11
3.424520
 21
1.324400
 12
2.703800
 22
1.566840
 13
3.331240
 23
1.207800
  0
POLYLINE
  8
0
  6
CONTINUOUS
 66
     1
 40
0.000000
 41
0.000000
  0
VERTEX
  8
0
  6
CONTINUOUS
 10
2.797080
 20
1.683880
  0
VERTEX
  8
0
  6
CONTINUOUS
 10
3.424520
 20
1.324400
  0
VERTEX
  8
0
  6
CONTINUOUS
 10
3.331240
 20
1.207800
  0
VERTEX
  8
0
  6
CONTINUOUS
 10
2.703800
 20
1.566840
  0
VERTEX
  8
0
  6
CONTINUOUS
 10
2.797080
 20
1.683880
  0
SEQEND
  8
0
  0
SOLID
  8
0
 62
    15
 10
2.703800
 20
1.566840
 11
3.331240
 21
1.207800
 12
2.599080
 22
1.449800
 13
3.226520
 23
1.090320
  0
POLYLINE
  8
0
  6
CONTINUOUS
 66
     1
 40
0.000000
 41
0.000000
  0
VERTEX
  8
0
  6
CONTINUOUS
 10
2.703800
 20
1.566840
  0
VERTEX
  8
0
  6
CONTINUOUS
 10
3.331240
 20
1.207800
  0
VERTEX
  8
0
  6
CONTINUOUS
 10
3.226520
 20
1.090320
  0
VERTEX
  8
0
  6
CONTINUOUS
 10
2.599080
 20
1.449800
  0
VERTEX
  8
0
  6
CONTINUOUS
 10
2.703800
 20
1.566840
  0
SEQEND
  8
0
  0
SOLID
  8
0
 62
    15
 10
2.599080
 20
1.449800
 11
3.226520
 21
1.090320
 12
2.482040
 22
1.332320
 13
3.109920
 23
0.972840
  0
POLYLINE
  8
0
  6
CONTINUOUS
 66
     1
 40
0.000000
 41
0.000000
  0
VERTEX
  8
0
  6
CONTINUOUS
 10
2.599080
 20
1.449800
  0
VERTEX
  8
0
  6
CONTINUOUS
 10
3.226520
 20
1.090320
  0
VERTEX
  8
0
  6
CONTINUOUS
 10
3.109920
 20
0.972840
  0
VERTEX
  8
0
  6
CONTINUOUS
 10
2.482040
 20
1.332320
  0
VERTEX
  8
0
  6
CONTINUOUS
 10
2.599080
 20
1.449800
  0
SEQEND
  8
0
  0
SOLID
  8
0
 62
    15
 10
2.482040
 20
1.332320
 11
3.109920
 21
0.972840
 12
2.479400
 22
1.332320
 13
3.106840
 23
0.972840
  0
POLYLINE
  8
0
  6
CONTINUOUS
 66
     1
 40
0.000000
 41
0.000000
  0
VERTEX
  8
0
  6
CONTINUOUS
 10
2.482040
 20
1.332320
  0
VERTEX
  8
0
  6
CONTINUOUS
 10
3.109920
 20
0.972840
  0
VERTEX
  8
0
  6
CONTINUOUS
 10
3.106840
 20
0.972840
  0
VERTEX
  8
0
  6
CONTINUOUS
 10
2.479400
 20
1.332320
  0
VERTEX
  8
0
  6
CONTINUOUS
 10
2.482040
 20
1.332320
  0
SEQEND
  8
0
  0
SOLID
  8
0
 62
    15
 10
4.203320
 20
5.695360
 11
4.830760
 21
5.336320
 12
4.211240
 22
4.600640
 13
4.838680
 23
4.241160
  0
POLYLINE
  8
0
  6
CONTINUOUS
 66
     1
 40
0.000000
 41
0.000000
  0
VERTEX
  8
0
  6
CONTINUOUS
 10
4.203320
 20
5.695360
  0
VERTEX
  8
0
  6
CONTINUOUS
 10
4.830760
 20
5.336320
  0
VERTEX
  8
0
  6
CONTINUOUS
 10
4.838680
 20
4.241160
  0
VERTEX
  8
0
  6
CONTINUOUS
 10
4.211240
 20
4.600640
  0
VERTEX
  8
0
  6
CONTINUOUS
 10
4.203320
 20
5.695360
  0
SEQEND
  8
0
  0
SOLID
  8
0
 62
    15
 10
4.211240
 20
4.600640
 11
4.838680
 21
4.241160
 12
4.208160
 22
4.597560
 13
4.836040
 23
4.238080
  0
POLYLINE
  8
0
  6
CONTINUOUS
 66
     1
 40
0.000000
 41
0.000000
  0
VERTEX
  8
0
  6
CONTINUOUS
 10
4.211240
 20
4.600640
  0
VERTEX
  8
0
  6
CONTINUOUS
 10
4.838680
 20
4.241160
  0
VERTEX
  8
0
  6
CONTINUOUS
 10
4.836040
 20
4.238080
  0
VERTEX
  8
0
  6
CONTINUOUS
 10
4.208160
 20
4.597560
  0
VERTEX
  8
0
  6
CONTINUOUS
 10
4.211240
 20
4.600640
  0
SEQEND
  8
0
  0
POLYLINE
  8
0
  6
CONTINUOUS
 66
     1
 40
0.000000
 41
0.000000
  0
VERTEX
  8
0
  6
CONTINUOUS
 10
4.208160
 20
4.597560
  0
VERTEX
  8
0
  6
CONTINUOUS
 10
4.087160
 20
4.547840
  0
VERTEX
  8
0
  6
CONTINUOUS
 10
3.979360
 20
4.488440
  0
VERTEX
  8
0
  6
CONTINUOUS
 10
3.883880
 20
4.420240
  0
VERTEX
  8
0
  6
CONTINUOUS
 10
3.800280
 20
4.343680
  0
VERTEX
  8
0
  6
CONTINUOUS
 10
3.726800
 20
4.260080
  0
VERTEX
  8
0
  6
CONTINUOUS
 10
3.663000
 20
4.170320
  0
VERTEX
  8
0
  6
CONTINUOUS
 10
3.608000
 20
4.075280
  0
VERTEX
  8
0
  6
CONTINUOUS
 10
3.560480
 20
3.975840
  0
VERTEX
  8
0
  6
CONTINUOUS
 10
3.485240
 20
3.767280
  0
VERTEX
  8
0
  6
CONTINUOUS
 10
3.429800
 20
3.553000
  0
VERTEX
  8
0
  6
CONTINUOUS
 10
3.387120
 20
3.339600
  0
VERTEX
  8
0
  6
CONTINUOUS
 10
3.377440
 20
3.287240
  0
VERTEX
  8
0
  6
CONTINUOUS
 10
3.367760
 20
3.235760
  0
VERTEX
  8
0
  6
CONTINUOUS
 10
3.348840
 20
3.135000
  0
VERTEX
  8
0
  6
CONTINUOUS
 10
3.308360
 20
2.924240
  0
VERTEX
  8
0
  6
CONTINUOUS
 10
3.261280
 20
2.708200
  0
VERTEX
  8
0
  6
CONTINUOUS
 10
3.201440
 20
2.486440
  0
VERTEX
  8
0
  6
CONTINUOUS
 10
3.122240
 20
2.261160
  0
VERTEX
  8
0
  6
CONTINUOUS
 10
3.017080
 20
2.031920
  0
VERTEX
  8
0
  6
CONTINUOUS
 10
2.952840
 20
1.916640
  0
VERTEX
  8
0
  6
CONTINUOUS
 10
2.879800
 20
1.800480
  0
VERTEX
  8
0
  6
CONTINUOUS
 10
2.797080
 20
1.683880
  0
VERTEX
  8
0
  6
CONTINUOUS
 10
2.703800
 20
1.566840
  0
VERTEX
  8
0
  6
CONTINUOUS
 10
2.599080
 20
1.449800
  0
VERTEX
  8
0
  6
CONTINUOUS
 10
2.482040
 20
1.332320
  0
VERTEX
  8
0
  6
CONTINUOUS
 10
2.479400
 20
1.332320
  0
VERTEX
  8
0
  6
CONTINUOUS
 10
2.486880
 20
2.756600
  0
VERTEX
  8
0
  6
CONTINUOUS
 10
3.797640
 20
5.593720
  0
VERTEX
  8
0
  6
CONTINUOUS
 10
4.201560
 20
5.694920
  0
VERTEX
  8
0
  6
CONTINUOUS
 10
4.203320
 20
5.695360
  0
VERTEX
  8
0
  6
CONTINUOUS
 10
4.211240
 20
4.600640
  0
VERTEX
  8
0
  6
CONTINUOUS
 10
4.208160
 20
4.597560
  0
SEQEND
  8
0
  0
TEXT
  8
0
 10
4.021600
 20
1.170400
 40
0.138126
  1
BA  74
 41
1.000000
  7
SN0
 71
     0
 72
     5
 11
4.519884
 21
1.170400
  0
TEXT
  8
0
 10
3.727240
 20
0.979000
 40
0.138126
  1
3/4" x 4-11/16"
 41
1.000000
  7
SN0
 71
     0
 72
     5
 11
4.812237
 21
0.979000
  0
ENDSEC
  0
EOF
