  0
SECTION
  2
HEADER
  9
$ACADVER
  1
AC1006
  9
$EXTMIN
 10
2.887280
 20
2.614480
  9
$EXTMAX
 10
5.134800
 20
7.317200
  9
$LTSCALE
 40
0.044000
  9
$PDMODE
 70
    35
  9
$PDSIZE
 40
0.035200
  0
ENDSEC
  0
SECTION
  2
TABLES
  0
TABLE
  2
LTYPE
 70
     9
  0
LTYPE
  2
CONTINUOUS
 70
    64
  3
Solid line
 72
    65
 73
     0
 40
0.000000
  0
LTYPE
  2
DASHED
 70
    64
  3
__ __ __ __ __ __ __ __ __ __ __ __ __ __ __
 72
    65
 73
     2
 40
0.000330
 49
0.000220
 49
-0.000110
  0
LTYPE
  2
HIDDEN
 70
    64
  3
 _ _ _ _ _ _ _ _ _ _ _ _ _ _ _ _ _ _ _ _ _ _
 72
    65
 73
     2
 40
0.000165
 49
0.000110
 49
-0.000055
  0
LTYPE
  2
CENTER
 70
    64
  3
____ _ ____ _ ____ _ ____ _ ____ _ ____ _ ____
 72
    65
 73
     4
 40
0.000880
 49
0.000550
 49
-0.000110
 49
0.000110
 49
-0.000110
  0
LTYPE
  2
PHANTOM
 70
    64
  3
_____ _ _ _____ _ _ _____ _ _ _____ _ _ ____
 72
    65
 73
     6
 40
0.001100
 49
0.000550
 49
-0.000110
 49
0.000110
 49
-0.000110
 49
0.000110
 49
-0.000110
  0
LTYPE
  2
DOT
 70
    64
  3
...............................................
 72
    65
 73
     2
 40
0.000110
 49
0.000000
 49
-0.000110
  0
LTYPE
  2
DASHDOT
 70
    64
  3
__ . __ . __ . __ . __ . __ . __ . __ . __ . __
 72
    65
 73
     4
 40
0.000440
 49
0.000220
 49
-0.000110
 49
0.000000
 49
-0.000110
  0
LTYPE
  2
BORDER
 70
    64
  3
__ __ . __ __ . __ __ . __ __ . __ __ . __ __
 72
    65
 73
     6
 40
0.000770
 49
0.000220
 49
-0.000110
 49
0.000220
 49
-0.000110
 49
0.000000
 49
-0.000110
  0
LTYPE
  2
DIVIDE
 70
    64
  3
__ . . __ . . __ . . __ . . __ . . __ . . __
 72
    65
 73
     6
 40
0.000550
 49
0.000220
 49
-0.000110
 49
0.000000
 49
-0.000110
 49
0.000000
 49
-0.000110
  0
LTYPE
  2
DOTDOT
 70
    64
  3
 . .  . .  . .  . .  . .  . . 
 72
    65
 73
     5
 40
0.000242
 49
-0.000110
 49
0.000000
 49
-0.000110
 49
0.000000
 49
-0.000110
  0
ENDTAB
  0
TABLE
  2
STYLE
 70
     2
  0
STYLE
 70
     0
  2
SN0
 40
0.000000
 41
0.000440
 50
0.000000
 71
     0
 42
0.000000
  3
ROMAND
  0
STYLE
 70
    68
  2
SV0
 40
0.000000
 41
0.000440
 50
0.000000
 71
     0
 42
0.000000
  3
ROMAND
  0
ENDTAB
  0
TABLE
  2
LAYER
 70
     3
  0
LAYER
  2
FOREGROUND
 70
    64
 62
     7
  6
CONTINUOUS
  0
LAYER
  2
BACKGROUND
 70
    65
 62
    -7
  6
CONTINUOUS
  0
LAYER
  2
0
 70
    64
 62
     7
  6
CONTINUOUS
  0
ENDTAB
  0
ENDSEC
  0
SECTION
  2
ENTITIES
  0
POLYLINE
  8
FOREGROUND
  6
CONTINUOUS
 66
     1
 40
0.000000
 41
0.000000
  0
VERTEX
  8
FOREGROUND
  6
CONTINUOUS
 10
0.000000
 20
9.931680
  0
VERTEX
  8
FOREGROUND
  6
CONTINUOUS
 10
8.499920
 20
9.931680
  0
VERTEX
  8
FOREGROUND
  6
CONTINUOUS
 10
8.499920
 20
-1.068320
  0
VERTEX
  8
FOREGROUND
  6
CONTINUOUS
 10
0.000000
 20
-1.068320
  0
VERTEX
  8
FOREGROUND
  6
CONTINUOUS
 10
0.000000
 20
9.931680
  0
SEQEND
  8
0
  0
POLYLINE
  8
FOREGROUND
  6
CONTINUOUS
 66
     1
 40
0.000000
 41
0.000000
  0
VERTEX
  8
FOREGROUND
  6
CONTINUOUS
 10
0.000000
 20
9.931680
  0
VERTEX
  8
FOREGROUND
  6
CONTINUOUS
 10
8.499920
 20
9.931680
  0
VERTEX
  8
FOREGROUND
  6
CONTINUOUS
 10
8.499920
 20
-1.068320
  0
VERTEX
  8
FOREGROUND
  6
CONTINUOUS
 10
0.000000
 20
-1.068320
  0
VERTEX
  8
FOREGROUND
  6
CONTINUOUS
 10
0.000000
 20
9.931680
  0
SEQEND
  8
0
  0
POLYLINE
  8
0
  6
CONTINUOUS
 66
     1
 40
0.014080
 41
0.014080
  0
VERTEX
  8
0
  6
CONTINUOUS
 10
4.403080
 20
5.813280
  0
VERTEX
  8
0
  6
CONTINUOUS
 10
3.297800
 20
5.813280
  0
VERTEX
  8
0
  6
CONTINUOUS
 10
3.299120
 20
5.814600
  0
VERTEX
  8
0
  6
CONTINUOUS
 10
3.299120
 20
6.768960
  0
VERTEX
  8
0
  6
CONTINUOUS
 10
3.297800
 20
6.771600
  0
VERTEX
  8
0
  6
CONTINUOUS
 10
3.296920
 20
6.823080
  0
VERTEX
  8
0
  6
CONTINUOUS
 10
3.298240
 20
6.872360
  0
VERTEX
  8
0
  6
CONTINUOUS
 10
3.302200
 20
6.919440
  0
VERTEX
  8
0
  6
CONTINUOUS
 10
3.312760
 20
6.985000
  0
VERTEX
  8
0
  6
CONTINUOUS
 10
3.328160
 20
7.045280
  0
VERTEX
  8
0
  6
CONTINUOUS
 10
3.348840
 20
7.099840
  0
VERTEX
  8
0
  6
CONTINUOUS
 10
3.364680
 20
7.132840
  0
VERTEX
  8
0
  6
CONTINUOUS
 10
3.392400
 20
7.177280
  0
VERTEX
  8
0
  6
CONTINUOUS
 10
3.424080
 20
7.216000
  0
VERTEX
  8
0
  6
CONTINUOUS
 10
3.447400
 20
7.238000
  0
VERTEX
  8
0
  6
CONTINUOUS
 10
3.485240
 20
7.265720
  0
VERTEX
  8
0
  6
CONTINUOUS
 10
3.512080
 20
7.280680
  0
VERTEX
  8
0
  6
CONTINUOUS
 10
3.555200
 20
7.296960
  0
VERTEX
  8
0
  6
CONTINUOUS
 10
3.586000
 20
7.304440
  0
VERTEX
  8
0
  6
CONTINUOUS
 10
3.617240
 20
7.308840
  0
VERTEX
  8
0
  6
CONTINUOUS
 10
3.649800
 20
7.309720
  0
VERTEX
  8
0
  6
CONTINUOUS
 10
3.683680
 20
7.307960
  0
VERTEX
  8
0
  6
CONTINUOUS
 10
3.718440
 20
7.302680
  0
VERTEX
  8
0
  6
CONTINUOUS
 10
3.771680
 20
7.288600
  0
VERTEX
  8
0
  6
CONTINUOUS
 10
3.827120
 20
7.267040
  0
VERTEX
  8
0
  6
CONTINUOUS
 10
3.883440
 20
7.237560
  0
VERTEX
  8
0
  6
CONTINUOUS
 10
3.941080
 20
7.200600
  0
VERTEX
  8
0
  6
CONTINUOUS
 10
3.999600
 20
7.155720
  0
VERTEX
  8
0
  6
CONTINUOUS
 10
4.058560
 20
7.102480
  0
VERTEX
  8
0
  6
CONTINUOUS
 10
4.121480
 20
7.036920
  0
VERTEX
  8
0
  6
CONTINUOUS
 10
4.584360
 20
6.594280
  0
VERTEX
  8
0
  6
CONTINUOUS
 10
4.609880
 20
6.568320
  0
VERTEX
  8
0
  6
CONTINUOUS
 10
4.634080
 20
6.541040
  0
VERTEX
  8
0
  6
CONTINUOUS
 10
4.656520
 20
6.512000
  0
VERTEX
  8
0
  6
CONTINUOUS
 10
4.677200
 20
6.482080
  0
VERTEX
  8
0
  6
CONTINUOUS
 10
4.696120
 20
6.450840
  0
VERTEX
  8
0
  6
CONTINUOUS
 10
4.729120
 20
6.385280
  0
VERTEX
  8
0
  6
CONTINUOUS
 10
4.742760
 20
6.350960
  0
VERTEX
  8
0
  6
CONTINUOUS
 10
4.764320
 20
6.280120
  0
VERTEX
  8
0
  6
CONTINUOUS
 10
4.772240
 20
6.243600
  0
VERTEX
  8
0
  6
CONTINUOUS
 10
4.777960
 20
6.206640
  0
VERTEX
  8
0
  6
CONTINUOUS
 10
4.781920
 20
6.168800
  0
VERTEX
  8
0
  6
CONTINUOUS
 10
4.783680
 20
6.130960
  0
VERTEX
  8
0
  6
CONTINUOUS
 10
4.783240
 20
6.093120
  0
VERTEX
  8
0
  6
CONTINUOUS
 10
4.780600
 20
6.054400
  0
VERTEX
  8
0
  6
CONTINUOUS
 10
4.775760
 20
6.016120
  0
VERTEX
  8
0
  6
CONTINUOUS
 10
4.768720
 20
5.977400
  0
VERTEX
  8
0
  6
CONTINUOUS
 10
4.759480
 20
5.939120
  0
VERTEX
  8
0
  6
CONTINUOUS
 10
4.747600
 20
5.900400
  0
VERTEX
  8
0
  6
CONTINUOUS
 10
4.733520
 20
5.862560
  0
VERTEX
  8
0
  6
CONTINUOUS
 10
4.707560
 20
5.805800
  0
VERTEX
  8
0
  6
CONTINUOUS
 10
4.676320
 20
5.750360
  0
VERTEX
  8
0
  6
CONTINUOUS
 10
4.638920
 20
5.696240
  0
VERTEX
  8
0
  6
CONTINUOUS
 10
4.595800
 20
5.643440
  0
VERTEX
  8
0
  6
CONTINUOUS
 10
4.546520
 20
5.592840
  0
VERTEX
  8
0
  6
CONTINUOUS
 10
4.491080
 20
5.544440
  0
VERTEX
  8
0
  6
CONTINUOUS
 10
4.429040
 20
5.498240
  0
VERTEX
  8
0
  6
CONTINUOUS
 10
4.407040
 20
5.483720
  0
VERTEX
  8
0
  6
CONTINUOUS
 10
4.407040
 20
5.810200
  0
VERTEX
  8
0
  6
CONTINUOUS
 10
4.403080
 20
5.813280
  0
SEQEND
  8
0
  0
SOLID
  8
0
 62
    15
 10
3.886080
 20
4.462920
 11
4.307160
 21
5.119840
 12
3.822720
 22
4.499440
 13
4.243800
 23
5.156360
  0
POLYLINE
  8
0
  6
CONTINUOUS
 66
     1
 40
0.000000
 41
0.000000
  0
VERTEX
  8
0
  6
CONTINUOUS
 10
3.886080
 20
4.462920
  0
VERTEX
  8
0
  6
CONTINUOUS
 10
4.307160
 20
5.119840
  0
VERTEX
  8
0
  6
CONTINUOUS
 10
4.243800
 20
5.156360
  0
VERTEX
  8
0
  6
CONTINUOUS
 10
3.822720
 20
4.499440
  0
VERTEX
  8
0
  6
CONTINUOUS
 10
3.886080
 20
4.462920
  0
SEQEND
  8
0
  0
SOLID
  8
0
 62
    15
 10
4.696560
 20
3.326400
 11
5.117640
 21
3.983320
 12
4.711080
 22
3.387120
 13
5.132160
 23
4.044480
  0
POLYLINE
  8
0
  6
CONTINUOUS
 66
     1
 40
0.000000
 41
0.000000
  0
VERTEX
  8
0
  6
CONTINUOUS
 10
4.696560
 20
3.326400
  0
VERTEX
  8
0
  6
CONTINUOUS
 10
5.117640
 20
3.983320
  0
VERTEX
  8
0
  6
CONTINUOUS
 10
5.132160
 20
4.044480
  0
VERTEX
  8
0
  6
CONTINUOUS
 10
4.711080
 20
3.387120
  0
VERTEX
  8
0
  6
CONTINUOUS
 10
4.696560
 20
3.326400
  0
SEQEND
  8
0
  0
SOLID
  8
0
 62
    15
 10
4.711080
 20
3.387120
 11
5.132160
 21
4.044480
 12
4.713280
 22
3.452680
 13
5.134360
 23
4.109600
  0
POLYLINE
  8
0
  6
CONTINUOUS
 66
     1
 40
0.000000
 41
0.000000
  0
VERTEX
  8
0
  6
CONTINUOUS
 10
4.711080
 20
3.387120
  0
VERTEX
  8
0
  6
CONTINUOUS
 10
5.132160
 20
4.044480
  0
VERTEX
  8
0
  6
CONTINUOUS
 10
5.134360
 20
4.109600
  0
VERTEX
  8
0
  6
CONTINUOUS
 10
4.713280
 20
3.452680
  0
VERTEX
  8
0
  6
CONTINUOUS
 10
4.711080
 20
3.387120
  0
SEQEND
  8
0
  0
SOLID
  8
0
 62
    15
 10
4.713280
 20
3.452680
 11
5.134360
 21
4.109600
 12
4.702720
 22
3.521760
 13
5.123800
 23
4.178680
  0
POLYLINE
  8
0
  6
CONTINUOUS
 66
     1
 40
0.000000
 41
0.000000
  0
VERTEX
  8
0
  6
CONTINUOUS
 10
4.713280
 20
3.452680
  0
VERTEX
  8
0
  6
CONTINUOUS
 10
5.134360
 20
4.109600
  0
VERTEX
  8
0
  6
CONTINUOUS
 10
5.123800
 20
4.178680
  0
VERTEX
  8
0
  6
CONTINUOUS
 10
4.702720
 20
3.521760
  0
VERTEX
  8
0
  6
CONTINUOUS
 10
4.713280
 20
3.452680
  0
SEQEND
  8
0
  0
SOLID
  8
0
 62
    15
 10
4.702720
 20
3.521760
 11
5.123800
 21
4.178680
 12
4.678960
 22
3.594360
 13
5.100040
 23
4.251280
  0
POLYLINE
  8
0
  6
CONTINUOUS
 66
     1
 40
0.000000
 41
0.000000
  0
VERTEX
  8
0
  6
CONTINUOUS
 10
4.702720
 20
3.521760
  0
VERTEX
  8
0
  6
CONTINUOUS
 10
5.123800
 20
4.178680
  0
VERTEX
  8
0
  6
CONTINUOUS
 10
5.100040
 20
4.251280
  0
VERTEX
  8
0
  6
CONTINUOUS
 10
4.678960
 20
3.594360
  0
VERTEX
  8
0
  6
CONTINUOUS
 10
4.702720
 20
3.521760
  0
SEQEND
  8
0
  0
SOLID
  8
0
 62
    15
 10
4.678960
 20
3.594360
 11
5.100040
 21
4.251280
 12
4.642000
 22
3.669160
 13
5.063080
 23
4.326520
  0
POLYLINE
  8
0
  6
CONTINUOUS
 66
     1
 40
0.000000
 41
0.000000
  0
VERTEX
  8
0
  6
CONTINUOUS
 10
4.678960
 20
3.594360
  0
VERTEX
  8
0
  6
CONTINUOUS
 10
5.100040
 20
4.251280
  0
VERTEX
  8
0
  6
CONTINUOUS
 10
5.063080
 20
4.326520
  0
VERTEX
  8
0
  6
CONTINUOUS
 10
4.642000
 20
3.669160
  0
VERTEX
  8
0
  6
CONTINUOUS
 10
4.678960
 20
3.594360
  0
SEQEND
  8
0
  0
SOLID
  8
0
 62
    15
 10
4.642000
 20
3.669160
 11
5.063080
 21
4.326520
 12
4.590520
 22
3.746160
 13
5.011600
 23
4.403520
  0
POLYLINE
  8
0
  6
CONTINUOUS
 66
     1
 40
0.000000
 41
0.000000
  0
VERTEX
  8
0
  6
CONTINUOUS
 10
4.642000
 20
3.669160
  0
VERTEX
  8
0
  6
CONTINUOUS
 10
5.063080
 20
4.326520
  0
VERTEX
  8
0
  6
CONTINUOUS
 10
5.011600
 20
4.403520
  0
VERTEX
  8
0
  6
CONTINUOUS
 10
4.590520
 20
3.746160
  0
VERTEX
  8
0
  6
CONTINUOUS
 10
4.642000
 20
3.669160
  0
SEQEND
  8
0
  0
SOLID
  8
0
 62
     7
 10
4.590520
 20
3.746160
 11
5.011600
 21
4.403520
 12
4.525400
 22
3.824480
 13
4.946480
 23
4.481400
  0
POLYLINE
  8
0
  6
CONTINUOUS
 66
     1
 40
0.000000
 41
0.000000
  0
VERTEX
  8
0
  6
CONTINUOUS
 10
4.590520
 20
3.746160
  0
VERTEX
  8
0
  6
CONTINUOUS
 10
5.011600
 20
4.403520
  0
VERTEX
  8
0
  6
CONTINUOUS
 10
4.946480
 20
4.481400
  0
VERTEX
  8
0
  6
CONTINUOUS
 10
4.525400
 20
3.824480
  0
VERTEX
  8
0
  6
CONTINUOUS
 10
4.590520
 20
3.746160
  0
SEQEND
  8
0
  0
SOLID
  8
0
 62
     7
 10
4.525400
 20
3.824480
 11
4.946480
 21
4.481400
 12
4.441360
 22
3.907640
 13
4.862440
 23
4.564560
  0
POLYLINE
  8
0
  6
CONTINUOUS
 66
     1
 40
0.000000
 41
0.000000
  0
VERTEX
  8
0
  6
CONTINUOUS
 10
4.525400
 20
3.824480
  0
VERTEX
  8
0
  6
CONTINUOUS
 10
4.946480
 20
4.481400
  0
VERTEX
  8
0
  6
CONTINUOUS
 10
4.862440
 20
4.564560
  0
VERTEX
  8
0
  6
CONTINUOUS
 10
4.441360
 20
3.907640
  0
VERTEX
  8
0
  6
CONTINUOUS
 10
4.525400
 20
3.824480
  0
SEQEND
  8
0
  0
SOLID
  8
0
 62
     7
 10
4.441360
 20
3.907640
 11
4.862440
 21
4.564560
 12
4.002680
 22
4.366120
 13
4.423760
 23
5.023040
  0
POLYLINE
  8
0
  6
CONTINUOUS
 66
     1
 40
0.000000
 41
0.000000
  0
VERTEX
  8
0
  6
CONTINUOUS
 10
4.441360
 20
3.907640
  0
VERTEX
  8
0
  6
CONTINUOUS
 10
4.862440
 20
4.564560
  0
VERTEX
  8
0
  6
CONTINUOUS
 10
4.423760
 20
5.023040
  0
VERTEX
  8
0
  6
CONTINUOUS
 10
4.002680
 20
4.366120
  0
VERTEX
  8
0
  6
CONTINUOUS
 10
4.441360
 20
3.907640
  0
SEQEND
  8
0
  0
SOLID
  8
0
 62
     7
 10
4.002680
 20
4.366120
 11
4.423760
 21
5.023040
 12
3.998720
 22
4.370080
 13
4.419800
 23
5.027000
  0
POLYLINE
  8
0
  6
CONTINUOUS
 66
     1
 40
0.000000
 41
0.000000
  0
VERTEX
  8
0
  6
CONTINUOUS
 10
4.002680
 20
4.366120
  0
VERTEX
  8
0
  6
CONTINUOUS
 10
4.423760
 20
5.023040
  0
VERTEX
  8
0
  6
CONTINUOUS
 10
4.419800
 20
5.027000
  0
VERTEX
  8
0
  6
CONTINUOUS
 10
3.998720
 20
4.370080
  0
VERTEX
  8
0
  6
CONTINUOUS
 10
4.002680
 20
4.366120
  0
SEQEND
  8
0
  0
SOLID
  8
0
 62
    15
 10
3.998720
 20
4.370080
 11
4.419800
 21
5.027000
 12
3.945040
 22
4.419800
 13
4.366120
 23
5.076720
  0
POLYLINE
  8
0
  6
CONTINUOUS
 66
     1
 40
0.000000
 41
0.000000
  0
VERTEX
  8
0
  6
CONTINUOUS
 10
3.998720
 20
4.370080
  0
VERTEX
  8
0
  6
CONTINUOUS
 10
4.419800
 20
5.027000
  0
VERTEX
  8
0
  6
CONTINUOUS
 10
4.366120
 20
5.076720
  0
VERTEX
  8
0
  6
CONTINUOUS
 10
3.945040
 20
4.419800
  0
VERTEX
  8
0
  6
CONTINUOUS
 10
3.998720
 20
4.370080
  0
SEQEND
  8
0
  0
SOLID
  8
0
 62
    15
 10
3.945040
 20
4.419800
 11
4.366120
 21
5.076720
 12
3.886080
 22
4.462920
 13
4.307160
 23
5.119840
  0
POLYLINE
  8
0
  6
CONTINUOUS
 66
     1
 40
0.000000
 41
0.000000
  0
VERTEX
  8
0
  6
CONTINUOUS
 10
3.945040
 20
4.419800
  0
VERTEX
  8
0
  6
CONTINUOUS
 10
4.366120
 20
5.076720
  0
VERTEX
  8
0
  6
CONTINUOUS
 10
4.307160
 20
5.119840
  0
VERTEX
  8
0
  6
CONTINUOUS
 10
3.886080
 20
4.462920
  0
VERTEX
  8
0
  6
CONTINUOUS
 10
3.945040
 20
4.419800
  0
SEQEND
  8
0
  0
SOLID
  8
0
 62
    15
 10
4.669720
 20
3.270960
 11
5.090800
 21
3.927880
 12
4.696560
 22
3.326400
 13
5.117640
 23
3.983320
  0
POLYLINE
  8
0
  6
CONTINUOUS
 66
     1
 40
0.000000
 41
0.000000
  0
VERTEX
  8
0
  6
CONTINUOUS
 10
4.669720
 20
3.270960
  0
VERTEX
  8
0
  6
CONTINUOUS
 10
5.090800
 20
3.927880
  0
VERTEX
  8
0
  6
CONTINUOUS
 10
5.117640
 20
3.983320
  0
VERTEX
  8
0
  6
CONTINUOUS
 10
4.696560
 20
3.326400
  0
VERTEX
  8
0
  6
CONTINUOUS
 10
4.669720
 20
3.270960
  0
SEQEND
  8
0
  0
SOLID
  8
0
 62
    15
 10
3.822720
 20
4.499440
 11
4.243800
 21
5.156360
 12
3.754960
 22
4.528480
 13
4.176040
 23
5.185400
  0
POLYLINE
  8
0
  6
CONTINUOUS
 66
     1
 40
0.000000
 41
0.000000
  0
VERTEX
  8
0
  6
CONTINUOUS
 10
3.822720
 20
4.499440
  0
VERTEX
  8
0
  6
CONTINUOUS
 10
4.243800
 20
5.156360
  0
VERTEX
  8
0
  6
CONTINUOUS
 10
4.176040
 20
5.185400
  0
VERTEX
  8
0
  6
CONTINUOUS
 10
3.754960
 20
4.528480
  0
VERTEX
  8
0
  6
CONTINUOUS
 10
3.822720
 20
4.499440
  0
SEQEND
  8
0
  0
SOLID
  8
0
 62
    15
 10
3.754960
 20
4.528480
 11
4.176040
 21
5.185400
 12
3.684120
 22
4.550040
 13
4.105200
 23
5.206960
  0
POLYLINE
  8
0
  6
CONTINUOUS
 66
     1
 40
0.000000
 41
0.000000
  0
VERTEX
  8
0
  6
CONTINUOUS
 10
3.754960
 20
4.528480
  0
VERTEX
  8
0
  6
CONTINUOUS
 10
4.176040
 20
5.185400
  0
VERTEX
  8
0
  6
CONTINUOUS
 10
4.105200
 20
5.206960
  0
VERTEX
  8
0
  6
CONTINUOUS
 10
3.684120
 20
4.550040
  0
VERTEX
  8
0
  6
CONTINUOUS
 10
3.754960
 20
4.528480
  0
SEQEND
  8
0
  0
SOLID
  8
0
 62
    15
 10
3.684120
 20
4.550040
 11
4.105200
 21
5.206960
 12
3.610640
 22
4.563680
 13
4.031720
 23
5.221040
  0
POLYLINE
  8
0
  6
CONTINUOUS
 66
     1
 40
0.000000
 41
0.000000
  0
VERTEX
  8
0
  6
CONTINUOUS
 10
3.684120
 20
4.550040
  0
VERTEX
  8
0
  6
CONTINUOUS
 10
4.105200
 20
5.206960
  0
VERTEX
  8
0
  6
CONTINUOUS
 10
4.031720
 20
5.221040
  0
VERTEX
  8
0
  6
CONTINUOUS
 10
3.610640
 20
4.563680
  0
VERTEX
  8
0
  6
CONTINUOUS
 10
3.684120
 20
4.550040
  0
SEQEND
  8
0
  0
SOLID
  8
0
 62
    15
 10
3.610640
 20
4.563680
 11
4.031720
 21
5.221040
 12
3.535400
 22
4.569400
 13
3.956480
 23
5.226320
  0
POLYLINE
  8
0
  6
CONTINUOUS
 66
     1
 40
0.000000
 41
0.000000
  0
VERTEX
  8
0
  6
CONTINUOUS
 10
3.610640
 20
4.563680
  0
VERTEX
  8
0
  6
CONTINUOUS
 10
4.031720
 20
5.221040
  0
VERTEX
  8
0
  6
CONTINUOUS
 10
3.956480
 20
5.226320
  0
VERTEX
  8
0
  6
CONTINUOUS
 10
3.535400
 20
4.569400
  0
VERTEX
  8
0
  6
CONTINUOUS
 10
3.610640
 20
4.563680
  0
SEQEND
  8
0
  0
SOLID
  8
0
 62
    15
 10
3.535400
 20
4.569400
 11
3.956480
 21
5.226320
 12
3.458840
 22
4.566320
 13
3.879920
 23
5.223240
  0
POLYLINE
  8
0
  6
CONTINUOUS
 66
     1
 40
0.000000
 41
0.000000
  0
VERTEX
  8
0
  6
CONTINUOUS
 10
3.535400
 20
4.569400
  0
VERTEX
  8
0
  6
CONTINUOUS
 10
3.956480
 20
5.226320
  0
VERTEX
  8
0
  6
CONTINUOUS
 10
3.879920
 20
5.223240
  0
VERTEX
  8
0
  6
CONTINUOUS
 10
3.458840
 20
4.566320
  0
VERTEX
  8
0
  6
CONTINUOUS
 10
3.535400
 20
4.569400
  0
SEQEND
  8
0
  0
SOLID
  8
0
 62
    15
 10
3.458840
 20
4.566320
 11
3.879920
 21
5.223240
 12
3.381400
 22
4.554440
 13
3.802920
 23
5.211360
  0
POLYLINE
  8
0
  6
CONTINUOUS
 66
     1
 40
0.000000
 41
0.000000
  0
VERTEX
  8
0
  6
CONTINUOUS
 10
3.458840
 20
4.566320
  0
VERTEX
  8
0
  6
CONTINUOUS
 10
3.879920
 20
5.223240
  0
VERTEX
  8
0
  6
CONTINUOUS
 10
3.802920
 20
5.211360
  0
VERTEX
  8
0
  6
CONTINUOUS
 10
3.381400
 20
4.554440
  0
VERTEX
  8
0
  6
CONTINUOUS
 10
3.458840
 20
4.566320
  0
SEQEND
  8
0
  0
SOLID
  8
0
 62
    15
 10
3.381400
 20
4.554440
 11
3.802920
 21
5.211360
 12
3.304840
 22
4.533320
 13
3.725920
 23
5.190240
  0
POLYLINE
  8
0
  6
CONTINUOUS
 66
     1
 40
0.000000
 41
0.000000
  0
VERTEX
  8
0
  6
CONTINUOUS
 10
3.381400
 20
4.554440
  0
VERTEX
  8
0
  6
CONTINUOUS
 10
3.802920
 20
5.211360
  0
VERTEX
  8
0
  6
CONTINUOUS
 10
3.725920
 20
5.190240
  0
VERTEX
  8
0
  6
CONTINUOUS
 10
3.304840
 20
4.533320
  0
VERTEX
  8
0
  6
CONTINUOUS
 10
3.381400
 20
4.554440
  0
SEQEND
  8
0
  0
SOLID
  8
0
 62
    15
 10
3.304840
 20
4.533320
 11
3.725920
 21
5.190240
 12
3.228720
 22
4.502520
 13
3.649800
 23
5.159880
  0
POLYLINE
  8
0
  6
CONTINUOUS
 66
     1
 40
0.000000
 41
0.000000
  0
VERTEX
  8
0
  6
CONTINUOUS
 10
3.304840
 20
4.533320
  0
VERTEX
  8
0
  6
CONTINUOUS
 10
3.725920
 20
5.190240
  0
VERTEX
  8
0
  6
CONTINUOUS
 10
3.649800
 20
5.159880
  0
VERTEX
  8
0
  6
CONTINUOUS
 10
3.228720
 20
4.502520
  0
VERTEX
  8
0
  6
CONTINUOUS
 10
3.304840
 20
4.533320
  0
SEQEND
  8
0
  0
SOLID
  8
0
 62
    15
 10
3.228720
 20
4.502520
 11
3.649800
 21
5.159880
 12
3.154360
 22
4.462040
 13
3.575880
 23
5.118960
  0
POLYLINE
  8
0
  6
CONTINUOUS
 66
     1
 40
0.000000
 41
0.000000
  0
VERTEX
  8
0
  6
CONTINUOUS
 10
3.228720
 20
4.502520
  0
VERTEX
  8
0
  6
CONTINUOUS
 10
3.649800
 20
5.159880
  0
VERTEX
  8
0
  6
CONTINUOUS
 10
3.575880
 20
5.118960
  0
VERTEX
  8
0
  6
CONTINUOUS
 10
3.154360
 20
4.462040
  0
VERTEX
  8
0
  6
CONTINUOUS
 10
3.228720
 20
4.502520
  0
SEQEND
  8
0
  0
SOLID
  8
0
 62
    15
 10
3.154360
 20
4.462040
 11
3.575880
 21
5.118960
 12
3.082640
 22
4.411000
 13
3.503720
 23
5.067920
  0
POLYLINE
  8
0
  6
CONTINUOUS
 66
     1
 40
0.000000
 41
0.000000
  0
VERTEX
  8
0
  6
CONTINUOUS
 10
3.154360
 20
4.462040
  0
VERTEX
  8
0
  6
CONTINUOUS
 10
3.575880
 20
5.118960
  0
VERTEX
  8
0
  6
CONTINUOUS
 10
3.503720
 20
5.067920
  0
VERTEX
  8
0
  6
CONTINUOUS
 10
3.082640
 20
4.411000
  0
VERTEX
  8
0
  6
CONTINUOUS
 10
3.154360
 20
4.462040
  0
SEQEND
  8
0
  0
SOLID
  8
0
 62
    15
 10
3.082640
 20
4.411000
 11
3.503720
 21
5.067920
 12
3.013560
 22
4.349400
 13
3.435080
 23
5.006320
  0
POLYLINE
  8
0
  6
CONTINUOUS
 66
     1
 40
0.000000
 41
0.000000
  0
VERTEX
  8
0
  6
CONTINUOUS
 10
3.082640
 20
4.411000
  0
VERTEX
  8
0
  6
CONTINUOUS
 10
3.503720
 20
5.067920
  0
VERTEX
  8
0
  6
CONTINUOUS
 10
3.435080
 20
5.006320
  0
VERTEX
  8
0
  6
CONTINUOUS
 10
3.013560
 20
4.349400
  0
VERTEX
  8
0
  6
CONTINUOUS
 10
3.082640
 20
4.411000
  0
SEQEND
  8
0
  0
SOLID
  8
0
 62
    15
 10
2.948440
 20
4.276800
 11
3.369520
 21
4.933720
 12
2.887720
 22
4.192760
 13
3.308800
 23
4.849680
  0
POLYLINE
  8
0
  6
CONTINUOUS
 66
     1
 40
0.000000
 41
0.000000
  0
VERTEX
  8
0
  6
CONTINUOUS
 10
2.948440
 20
4.276800
  0
VERTEX
  8
0
  6
CONTINUOUS
 10
3.369520
 20
4.933720
  0
VERTEX
  8
0
  6
CONTINUOUS
 10
3.308800
 20
4.849680
  0
VERTEX
  8
0
  6
CONTINUOUS
 10
2.887720
 20
4.192760
  0
VERTEX
  8
0
  6
CONTINUOUS
 10
2.948440
 20
4.276800
  0
SEQEND
  8
0
  0
SOLID
  8
0
 62
    15
 10
3.013560
 20
4.349400
 11
3.435080
 21
5.006320
 12
2.948440
 22
4.276800
 13
3.369520
 23
4.933720
  0
POLYLINE
  8
0
  6
CONTINUOUS
 66
     1
 40
0.000000
 41
0.000000
  0
VERTEX
  8
0
  6
CONTINUOUS
 10
3.013560
 20
4.349400
  0
VERTEX
  8
0
  6
CONTINUOUS
 10
3.435080
 20
5.006320
  0
VERTEX
  8
0
  6
CONTINUOUS
 10
3.369520
 20
4.933720
  0
VERTEX
  8
0
  6
CONTINUOUS
 10
2.948440
 20
4.276800
  0
VERTEX
  8
0
  6
CONTINUOUS
 10
3.013560
 20
4.349400
  0
SEQEND
  8
0
  0
POLYLINE
  8
0
  6
CONTINUOUS
 66
     1
 40
0.000000
 41
0.000000
  0
VERTEX
  8
0
  6
CONTINUOUS
 10
3.217280
 20
4.188800
  0
VERTEX
  8
0
  6
CONTINUOUS
 10
3.217280
 20
3.083520
  0
VERTEX
  8
0
  6
CONTINUOUS
 10
3.218600
 20
3.084840
  0
VERTEX
  8
0
  6
CONTINUOUS
 10
4.172960
 20
3.084840
  0
VERTEX
  8
0
  6
CONTINUOUS
 10
4.176040
 20
3.083520
  0
VERTEX
  8
0
  6
CONTINUOUS
 10
4.276800
 20
3.083960
  0
VERTEX
  8
0
  6
CONTINUOUS
 10
4.367880
 20
3.094520
  0
VERTEX
  8
0
  6
CONTINUOUS
 10
4.449720
 20
3.114320
  0
VERTEX
  8
0
  6
CONTINUOUS
 10
4.521000
 20
3.142480
  0
VERTEX
  8
0
  6
CONTINUOUS
 10
4.581720
 20
3.178120
  0
VERTEX
  8
0
  6
CONTINUOUS
 10
4.631440
 20
3.221240
  0
VERTEX
  8
0
  6
CONTINUOUS
 10
4.669720
 20
3.270960
  0
VERTEX
  8
0
  6
CONTINUOUS
 10
4.696560
 20
3.326400
  0
VERTEX
  8
0
  6
CONTINUOUS
 10
4.711080
 20
3.387120
  0
VERTEX
  8
0
  6
CONTINUOUS
 10
4.713280
 20
3.452680
  0
VERTEX
  8
0
  6
CONTINUOUS
 10
4.702720
 20
3.521760
  0
VERTEX
  8
0
  6
CONTINUOUS
 10
4.678960
 20
3.594360
  0
VERTEX
  8
0
  6
CONTINUOUS
 10
4.642000
 20
3.669160
  0
VERTEX
  8
0
  6
CONTINUOUS
 10
4.590520
 20
3.746160
  0
VERTEX
  8
0
  6
CONTINUOUS
 10
4.525400
 20
3.824480
  0
VERTEX
  8
0
  6
CONTINUOUS
 10
4.441360
 20
3.907640
  0
VERTEX
  8
0
  6
CONTINUOUS
 10
4.002680
 20
4.366120
  0
VERTEX
  8
0
  6
CONTINUOUS
 10
3.998720
 20
4.370080
  0
VERTEX
  8
0
  6
CONTINUOUS
 10
3.945040
 20
4.419800
  0
VERTEX
  8
0
  6
CONTINUOUS
 10
3.886080
 20
4.462920
  0
VERTEX
  8
0
  6
CONTINUOUS
 10
3.822720
 20
4.499440
  0
VERTEX
  8
0
  6
CONTINUOUS
 10
3.754960
 20
4.528480
  0
VERTEX
  8
0
  6
CONTINUOUS
 10
3.684120
 20
4.550040
  0
VERTEX
  8
0
  6
CONTINUOUS
 10
3.610640
 20
4.563680
  0
VERTEX
  8
0
  6
CONTINUOUS
 10
3.535400
 20
4.569400
  0
VERTEX
  8
0
  6
CONTINUOUS
 10
3.458840
 20
4.566320
  0
VERTEX
  8
0
  6
CONTINUOUS
 10
3.381400
 20
4.554440
  0
VERTEX
  8
0
  6
CONTINUOUS
 10
3.304840
 20
4.533320
  0
VERTEX
  8
0
  6
CONTINUOUS
 10
3.228720
 20
4.502520
  0
VERTEX
  8
0
  6
CONTINUOUS
 10
3.154360
 20
4.462040
  0
VERTEX
  8
0
  6
CONTINUOUS
 10
3.082640
 20
4.411000
  0
VERTEX
  8
0
  6
CONTINUOUS
 10
3.013560
 20
4.349400
  0
VERTEX
  8
0
  6
CONTINUOUS
 10
2.948440
 20
4.276800
  0
VERTEX
  8
0
  6
CONTINUOUS
 10
2.887720
 20
4.192760
  0
VERTEX
  8
0
  6
CONTINUOUS
 10
3.214640
 20
4.192760
  0
VERTEX
  8
0
  6
CONTINUOUS
 10
3.217280
 20
4.188800
  0
SEQEND
  8
0
  0
TEXT
  8
0
 10
3.762440
 20
2.849440
 40
0.138167
  1
BA  72
 41
1.000000
  7
SN0
 71
     0
 72
     5
 11
4.261163
 21
2.849440
  0
TEXT
  8
0
 10
3.394160
 20
2.657600
 40
0.138167
  1
1-13/16" x 1-1/2"
 41
1.000000
  7
SN0
 71
     0
 72
     5
 11
4.629094
 21
2.657600
  0
ENDSEC
  0
EOF
