  0
SECTION
  2
HEADER
  9
$ACADVER
  1
AC1006
  9
$EXTMIN
 10
3.278880
 20
1.424280
  9
$EXTMAX
 10
4.908640
 20
4.632320
  9
$LTSCALE
 40
0.044000
  9
$PDMODE
 70
    35
  9
$PDSIZE
 40
0.035200
  0
ENDSEC
  0
SECTION
  2
TABLES
  0
TABLE
  2
LTYPE
 70
     9
  0
LTYPE
  2
CONTINUOUS
 70
    64
  3
Solid line
 72
    65
 73
     0
 40
0.000000
  0
LTYPE
  2
DASHED
 70
    64
  3
__ __ __ __ __ __ __ __ __ __ __ __ __ __ __
 72
    65
 73
     2
 40
0.000330
 49
0.000220
 49
-0.000110
  0
LTYPE
  2
HIDDEN
 70
    64
  3
 _ _ _ _ _ _ _ _ _ _ _ _ _ _ _ _ _ _ _ _ _ _
 72
    65
 73
     2
 40
0.000165
 49
0.000110
 49
-0.000055
  0
LTYPE
  2
CENTER
 70
    64
  3
____ _ ____ _ ____ _ ____ _ ____ _ ____ _ ____
 72
    65
 73
     4
 40
0.000880
 49
0.000550
 49
-0.000110
 49
0.000110
 49
-0.000110
  0
LTYPE
  2
PHANTOM
 70
    64
  3
_____ _ _ _____ _ _ _____ _ _ _____ _ _ ____
 72
    65
 73
     6
 40
0.001100
 49
0.000550
 49
-0.000110
 49
0.000110
 49
-0.000110
 49
0.000110
 49
-0.000110
  0
LTYPE
  2
DOT
 70
    64
  3
...............................................
 72
    65
 73
     2
 40
0.000110
 49
0.000000
 49
-0.000110
  0
LTYPE
  2
DASHDOT
 70
    64
  3
__ . __ . __ . __ . __ . __ . __ . __ . __ . __
 72
    65
 73
     4
 40
0.000440
 49
0.000220
 49
-0.000110
 49
0.000000
 49
-0.000110
  0
LTYPE
  2
BORDER
 70
    64
  3
__ __ . __ __ . __ __ . __ __ . __ __ . __ __
 72
    65
 73
     6
 40
0.000770
 49
0.000220
 49
-0.000110
 49
0.000220
 49
-0.000110
 49
0.000000
 49
-0.000110
  0
LTYPE
  2
DIVIDE
 70
    64
  3
__ . . __ . . __ . . __ . . __ . . __ . . __
 72
    65
 73
     6
 40
0.000550
 49
0.000220
 49
-0.000110
 49
0.000000
 49
-0.000110
 49
0.000000
 49
-0.000110
  0
LTYPE
  2
DOTDOT
 70
    64
  3
 . .  . .  . .  . .  . .  . . 
 72
    65
 73
     5
 40
0.000242
 49
-0.000110
 49
0.000000
 49
-0.000110
 49
0.000000
 49
-0.000110
  0
ENDTAB
  0
TABLE
  2
STYLE
 70
     2
  0
STYLE
 70
     0
  2
SN0
 40
0.000000
 41
0.000440
 50
0.000000
 71
     0
 42
0.000000
  3
ROMAND
  0
STYLE
 70
    68
  2
SV0
 40
0.000000
 41
0.000440
 50
0.000000
 71
     0
 42
0.000000
  3
ROMAND
  0
ENDTAB
  0
TABLE
  2
LAYER
 70
     3
  0
LAYER
  2
FOREGROUND
 70
    64
 62
     7
  6
CONTINUOUS
  0
LAYER
  2
BACKGROUND
 70
    65
 62
    -7
  6
CONTINUOUS
  0
LAYER
  2
0
 70
    64
 62
     7
  6
CONTINUOUS
  0
ENDTAB
  0
ENDSEC
  0
SECTION
  2
ENTITIES
  0
POLYLINE
  8
FOREGROUND
  6
CONTINUOUS
 66
     1
 40
0.000000
 41
0.000000
  0
VERTEX
  8
FOREGROUND
  6
CONTINUOUS
 10
0.000000
 20
6.056600
  0
VERTEX
  8
FOREGROUND
  6
CONTINUOUS
 10
8.499920
 20
6.056600
  0
VERTEX
  8
FOREGROUND
  6
CONTINUOUS
 10
8.499920
 20
-4.943400
  0
VERTEX
  8
FOREGROUND
  6
CONTINUOUS
 10
0.000000
 20
-4.943400
  0
VERTEX
  8
FOREGROUND
  6
CONTINUOUS
 10
0.000000
 20
6.056600
  0
SEQEND
  8
0
  0
POLYLINE
  8
FOREGROUND
  6
CONTINUOUS
 66
     1
 40
0.000000
 41
0.000000
  0
VERTEX
  8
FOREGROUND
  6
CONTINUOUS
 10
0.000000
 20
6.056600
  0
VERTEX
  8
FOREGROUND
  6
CONTINUOUS
 10
8.499920
 20
6.056600
  0
VERTEX
  8
FOREGROUND
  6
CONTINUOUS
 10
8.499920
 20
-4.943400
  0
VERTEX
  8
FOREGROUND
  6
CONTINUOUS
 10
0.000000
 20
-4.943400
  0
VERTEX
  8
FOREGROUND
  6
CONTINUOUS
 10
0.000000
 20
6.056600
  0
SEQEND
  8
0
  0
POLYLINE
  8
0
  6
CONTINUOUS
 66
     1
 40
0.014080
 41
0.014080
  0
VERTEX
  8
0
  6
CONTINUOUS
 10
4.384600
 20
4.316840
  0
VERTEX
  8
0
  6
CONTINUOUS
 10
4.397800
 20
4.183080
  0
VERTEX
  8
0
  6
CONTINUOUS
 10
4.458080
 20
4.182200
  0
VERTEX
  8
0
  6
CONTINUOUS
 10
4.512640
 20
4.177800
  0
VERTEX
  8
0
  6
CONTINUOUS
 10
4.562360
 20
4.169440
  0
VERTEX
  8
0
  6
CONTINUOUS
 10
4.606800
 20
4.158000
  0
VERTEX
  8
0
  6
CONTINUOUS
 10
4.634080
 20
4.148760
  0
VERTEX
  8
0
  6
CONTINUOUS
 10
4.659600
 20
4.138200
  0
VERTEX
  8
0
  6
CONTINUOUS
 10
4.704040
 20
4.114000
  0
VERTEX
  8
0
  6
CONTINUOUS
 10
4.741880
 20
4.085840
  0
VERTEX
  8
0
  6
CONTINUOUS
 10
4.773120
 20
4.055480
  0
VERTEX
  8
0
  6
CONTINUOUS
 10
4.798640
 20
4.022480
  0
VERTEX
  8
0
  6
CONTINUOUS
 10
4.818880
 20
3.989040
  0
VERTEX
  8
0
  6
CONTINUOUS
 10
4.834720
 20
3.954720
  0
VERTEX
  8
0
  6
CONTINUOUS
 10
4.851000
 20
3.904120
  0
VERTEX
  8
0
  6
CONTINUOUS
 10
4.860240
 20
3.857480
  0
VERTEX
  8
0
  6
CONTINUOUS
 10
4.866840
 20
3.795000
  0
VERTEX
  8
0
  6
CONTINUOUS
 10
4.867280
 20
3.783120
  0
VERTEX
  8
0
  6
CONTINUOUS
 10
3.285920
 20
3.783120
  0
VERTEX
  8
0
  6
CONTINUOUS
 10
3.644520
 20
4.624840
  0
VERTEX
  8
0
  6
CONTINUOUS
 10
4.048440
 20
4.604600
  0
VERTEX
  8
0
  6
CONTINUOUS
 10
4.069120
 20
4.554440
  0
VERTEX
  8
0
  6
CONTINUOUS
 10
4.093760
 20
4.505600
  0
VERTEX
  8
0
  6
CONTINUOUS
 10
4.123240
 20
4.460280
  0
VERTEX
  8
0
  6
CONTINUOUS
 10
4.158880
 20
4.418920
  0
VERTEX
  8
0
  6
CONTINUOUS
 10
4.179120
 20
4.400440
  0
VERTEX
  8
0
  6
CONTINUOUS
 10
4.213000
 20
4.374920
  0
VERTEX
  8
0
  6
CONTINUOUS
 10
4.251280
 20
4.353360
  0
VERTEX
  8
0
  6
CONTINUOUS
 10
4.294840
 20
4.335760
  0
VERTEX
  8
0
  6
CONTINUOUS
 10
4.343680
 20
4.322560
  0
VERTEX
  8
0
  6
CONTINUOUS
 10
4.384600
 20
4.316840
  0
SEQEND
  8
0
  0
SOLID
  8
0
 62
    15
 10
4.905120
 20
1.925880
 11
4.904680
 21
2.761440
 12
4.907320
 22
1.901680
 13
4.906880
 23
2.737240
  0
POLYLINE
  8
0
  6
CONTINUOUS
 66
     1
 40
0.000000
 41
0.000000
  0
VERTEX
  8
0
  6
CONTINUOUS
 10
4.905120
 20
1.925880
  0
VERTEX
  8
0
  6
CONTINUOUS
 10
4.904680
 20
2.761440
  0
VERTEX
  8
0
  6
CONTINUOUS
 10
4.906880
 20
2.737240
  0
VERTEX
  8
0
  6
CONTINUOUS
 10
4.907320
 20
1.901680
  0
VERTEX
  8
0
  6
CONTINUOUS
 10
4.905120
 20
1.925880
  0
SEQEND
  8
0
  0
SOLID
  8
0
 62
     7
 10
4.439160
 20
2.279200
 11
4.438720
 21
3.115200
 12
4.518360
 22
2.277440
 13
4.517920
 23
3.113000
  0
POLYLINE
  8
0
  6
CONTINUOUS
 66
     1
 40
0.000000
 41
0.000000
  0
VERTEX
  8
0
  6
CONTINUOUS
 10
4.439160
 20
2.279200
  0
VERTEX
  8
0
  6
CONTINUOUS
 10
4.438720
 20
3.115200
  0
VERTEX
  8
0
  6
CONTINUOUS
 10
4.517920
 20
3.113000
  0
VERTEX
  8
0
  6
CONTINUOUS
 10
4.518360
 20
2.277440
  0
VERTEX
  8
0
  6
CONTINUOUS
 10
4.439160
 20
2.279200
  0
SEQEND
  8
0
  0
SOLID
  8
0
 62
     7
 10
4.518360
 20
2.277440
 11
4.517920
 21
3.113000
 12
4.587880
 22
2.268640
 13
4.587440
 23
3.104200
  0
POLYLINE
  8
0
  6
CONTINUOUS
 66
     1
 40
0.000000
 41
0.000000
  0
VERTEX
  8
0
  6
CONTINUOUS
 10
4.518360
 20
2.277440
  0
VERTEX
  8
0
  6
CONTINUOUS
 10
4.517920
 20
3.113000
  0
VERTEX
  8
0
  6
CONTINUOUS
 10
4.587440
 20
3.104200
  0
VERTEX
  8
0
  6
CONTINUOUS
 10
4.587880
 20
2.268640
  0
VERTEX
  8
0
  6
CONTINUOUS
 10
4.518360
 20
2.277440
  0
SEQEND
  8
0
  0
SOLID
  8
0
 62
     7
 10
4.587880
 20
2.268640
 11
4.587440
 21
3.104200
 12
4.648600
 22
2.253680
 13
4.648160
 23
3.089680
  0
POLYLINE
  8
0
  6
CONTINUOUS
 66
     1
 40
0.000000
 41
0.000000
  0
VERTEX
  8
0
  6
CONTINUOUS
 10
4.587880
 20
2.268640
  0
VERTEX
  8
0
  6
CONTINUOUS
 10
4.587440
 20
3.104200
  0
VERTEX
  8
0
  6
CONTINUOUS
 10
4.648160
 20
3.089680
  0
VERTEX
  8
0
  6
CONTINUOUS
 10
4.648600
 20
2.253680
  0
VERTEX
  8
0
  6
CONTINUOUS
 10
4.587880
 20
2.268640
  0
SEQEND
  8
0
  0
SOLID
  8
0
 62
     7
 10
4.648600
 20
2.253680
 11
4.648160
 21
3.089680
 12
4.700960
 22
2.233880
 13
4.700520
 23
3.069880
  0
POLYLINE
  8
0
  6
CONTINUOUS
 66
     1
 40
0.000000
 41
0.000000
  0
VERTEX
  8
0
  6
CONTINUOUS
 10
4.648600
 20
2.253680
  0
VERTEX
  8
0
  6
CONTINUOUS
 10
4.648160
 20
3.089680
  0
VERTEX
  8
0
  6
CONTINUOUS
 10
4.700520
 20
3.069880
  0
VERTEX
  8
0
  6
CONTINUOUS
 10
4.700960
 20
2.233880
  0
VERTEX
  8
0
  6
CONTINUOUS
 10
4.648600
 20
2.253680
  0
SEQEND
  8
0
  0
SOLID
  8
0
 62
     7
 10
4.700960
 20
2.233880
 11
4.700520
 21
3.069880
 12
4.745400
 22
2.209680
 13
4.744960
 23
3.045680
  0
POLYLINE
  8
0
  6
CONTINUOUS
 66
     1
 40
0.000000
 41
0.000000
  0
VERTEX
  8
0
  6
CONTINUOUS
 10
4.700960
 20
2.233880
  0
VERTEX
  8
0
  6
CONTINUOUS
 10
4.700520
 20
3.069880
  0
VERTEX
  8
0
  6
CONTINUOUS
 10
4.744960
 20
3.045680
  0
VERTEX
  8
0
  6
CONTINUOUS
 10
4.745400
 20
2.209680
  0
VERTEX
  8
0
  6
CONTINUOUS
 10
4.700960
 20
2.233880
  0
SEQEND
  8
0
  0
SOLID
  8
0
 62
     7
 10
4.745400
 20
2.209680
 11
4.744960
 21
3.045680
 12
4.783240
 22
2.181960
 13
4.782800
 23
3.017520
  0
POLYLINE
  8
0
  6
CONTINUOUS
 66
     1
 40
0.000000
 41
0.000000
  0
VERTEX
  8
0
  6
CONTINUOUS
 10
4.745400
 20
2.209680
  0
VERTEX
  8
0
  6
CONTINUOUS
 10
4.744960
 20
3.045680
  0
VERTEX
  8
0
  6
CONTINUOUS
 10
4.782800
 20
3.017520
  0
VERTEX
  8
0
  6
CONTINUOUS
 10
4.783240
 20
2.181960
  0
VERTEX
  8
0
  6
CONTINUOUS
 10
4.745400
 20
2.209680
  0
SEQEND
  8
0
  0
SOLID
  8
0
 62
     7
 10
4.783240
 20
2.181960
 11
4.782800
 21
3.017520
 12
4.814480
 22
2.151160
 13
4.814040
 23
2.987160
  0
POLYLINE
  8
0
  6
CONTINUOUS
 66
     1
 40
0.000000
 41
0.000000
  0
VERTEX
  8
0
  6
CONTINUOUS
 10
4.783240
 20
2.181960
  0
VERTEX
  8
0
  6
CONTINUOUS
 10
4.782800
 20
3.017520
  0
VERTEX
  8
0
  6
CONTINUOUS
 10
4.814040
 20
2.987160
  0
VERTEX
  8
0
  6
CONTINUOUS
 10
4.814480
 20
2.151160
  0
VERTEX
  8
0
  6
CONTINUOUS
 10
4.783240
 20
2.181960
  0
SEQEND
  8
0
  0
SOLID
  8
0
 62
    15
 10
4.814480
 20
2.151160
 11
4.814040
 21
2.987160
 12
4.840000
 22
2.118600
 13
4.839560
 23
2.954160
  0
POLYLINE
  8
0
  6
CONTINUOUS
 66
     1
 40
0.000000
 41
0.000000
  0
VERTEX
  8
0
  6
CONTINUOUS
 10
4.814480
 20
2.151160
  0
VERTEX
  8
0
  6
CONTINUOUS
 10
4.814040
 20
2.987160
  0
VERTEX
  8
0
  6
CONTINUOUS
 10
4.839560
 20
2.954160
  0
VERTEX
  8
0
  6
CONTINUOUS
 10
4.840000
 20
2.118600
  0
VERTEX
  8
0
  6
CONTINUOUS
 10
4.814480
 20
2.151160
  0
SEQEND
  8
0
  0
SOLID
  8
0
 62
    15
 10
4.840000
 20
2.118600
 11
4.839560
 21
2.954160
 12
4.860240
 22
2.084720
 13
4.859800
 23
2.920720
  0
POLYLINE
  8
0
  6
CONTINUOUS
 66
     1
 40
0.000000
 41
0.000000
  0
VERTEX
  8
0
  6
CONTINUOUS
 10
4.840000
 20
2.118600
  0
VERTEX
  8
0
  6
CONTINUOUS
 10
4.839560
 20
2.954160
  0
VERTEX
  8
0
  6
CONTINUOUS
 10
4.859800
 20
2.920720
  0
VERTEX
  8
0
  6
CONTINUOUS
 10
4.860240
 20
2.084720
  0
VERTEX
  8
0
  6
CONTINUOUS
 10
4.840000
 20
2.118600
  0
SEQEND
  8
0
  0
SOLID
  8
0
 62
    15
 10
4.860240
 20
2.084720
 11
4.859800
 21
2.920720
 12
4.875640
 22
2.050400
 13
4.875200
 23
2.886400
  0
POLYLINE
  8
0
  6
CONTINUOUS
 66
     1
 40
0.000000
 41
0.000000
  0
VERTEX
  8
0
  6
CONTINUOUS
 10
4.860240
 20
2.084720
  0
VERTEX
  8
0
  6
CONTINUOUS
 10
4.859800
 20
2.920720
  0
VERTEX
  8
0
  6
CONTINUOUS
 10
4.875200
 20
2.886400
  0
VERTEX
  8
0
  6
CONTINUOUS
 10
4.875640
 20
2.050400
  0
VERTEX
  8
0
  6
CONTINUOUS
 10
4.860240
 20
2.084720
  0
SEQEND
  8
0
  0
SOLID
  8
0
 62
    15
 10
4.875640
 20
2.050400
 11
4.875200
 21
2.886400
 12
4.895880
 22
1.983960
 13
4.895440
 23
2.819960
  0
POLYLINE
  8
0
  6
CONTINUOUS
 66
     1
 40
0.000000
 41
0.000000
  0
VERTEX
  8
0
  6
CONTINUOUS
 10
4.875640
 20
2.050400
  0
VERTEX
  8
0
  6
CONTINUOUS
 10
4.875200
 20
2.886400
  0
VERTEX
  8
0
  6
CONTINUOUS
 10
4.895440
 20
2.819960
  0
VERTEX
  8
0
  6
CONTINUOUS
 10
4.895880
 20
1.983960
  0
VERTEX
  8
0
  6
CONTINUOUS
 10
4.875640
 20
2.050400
  0
SEQEND
  8
0
  0
SOLID
  8
0
 62
    15
 10
4.895880
 20
1.983960
 11
4.895440
 21
2.819960
 12
4.905120
 22
1.925880
 13
4.904680
 23
2.761440
  0
POLYLINE
  8
0
  6
CONTINUOUS
 66
     1
 40
0.000000
 41
0.000000
  0
VERTEX
  8
0
  6
CONTINUOUS
 10
4.895880
 20
1.983960
  0
VERTEX
  8
0
  6
CONTINUOUS
 10
4.895440
 20
2.819960
  0
VERTEX
  8
0
  6
CONTINUOUS
 10
4.904680
 20
2.761440
  0
VERTEX
  8
0
  6
CONTINUOUS
 10
4.905120
 20
1.925880
  0
VERTEX
  8
0
  6
CONTINUOUS
 10
4.895880
 20
1.983960
  0
SEQEND
  8
0
  0
SOLID
  8
0
 62
    15
 10
4.425960
 20
2.412520
 11
4.425520
 21
3.248520
 12
4.439160
 22
2.279200
 13
4.438720
 23
3.115200
  0
POLYLINE
  8
0
  6
CONTINUOUS
 66
     1
 40
0.000000
 41
0.000000
  0
VERTEX
  8
0
  6
CONTINUOUS
 10
4.425960
 20
2.412520
  0
VERTEX
  8
0
  6
CONTINUOUS
 10
4.425520
 20
3.248520
  0
VERTEX
  8
0
  6
CONTINUOUS
 10
4.438720
 20
3.115200
  0
VERTEX
  8
0
  6
CONTINUOUS
 10
4.439160
 20
2.279200
  0
VERTEX
  8
0
  6
CONTINUOUS
 10
4.425960
 20
2.412520
  0
SEQEND
  8
0
  0
SOLID
  8
0
 62
    15
 10
4.907320
 20
1.901680
 11
4.906880
 21
2.737240
 12
4.908640
 22
1.881880
 13
4.908200
 23
2.717880
  0
POLYLINE
  8
0
  6
CONTINUOUS
 66
     1
 40
0.000000
 41
0.000000
  0
VERTEX
  8
0
  6
CONTINUOUS
 10
4.907320
 20
1.901680
  0
VERTEX
  8
0
  6
CONTINUOUS
 10
4.906880
 20
2.737240
  0
VERTEX
  8
0
  6
CONTINUOUS
 10
4.908200
 20
2.717880
  0
VERTEX
  8
0
  6
CONTINUOUS
 10
4.908640
 20
1.881880
  0
VERTEX
  8
0
  6
CONTINUOUS
 10
4.907320
 20
1.901680
  0
SEQEND
  8
0
  0
SOLID
  8
0
 62
    15
 10
3.327280
 20
1.879240
 11
3.326840
 21
2.715240
 12
3.685880
 22
2.720520
 13
3.685440
 23
3.556520
  0
POLYLINE
  8
0
  6
CONTINUOUS
 66
     1
 40
0.000000
 41
0.000000
  0
VERTEX
  8
0
  6
CONTINUOUS
 10
3.327280
 20
1.879240
  0
VERTEX
  8
0
  6
CONTINUOUS
 10
3.326840
 20
2.715240
  0
VERTEX
  8
0
  6
CONTINUOUS
 10
3.685440
 20
3.556520
  0
VERTEX
  8
0
  6
CONTINUOUS
 10
3.685880
 20
2.720520
  0
VERTEX
  8
0
  6
CONTINUOUS
 10
3.327280
 20
1.879240
  0
SEQEND
  8
0
  0
SOLID
  8
0
 62
    15
 10
3.685880
 20
2.720520
 11
3.685440
 21
3.556520
 12
4.085840
 22
2.700720
 13
4.085400
 23
3.536280
  0
POLYLINE
  8
0
  6
CONTINUOUS
 66
     1
 40
0.000000
 41
0.000000
  0
VERTEX
  8
0
  6
CONTINUOUS
 10
3.685880
 20
2.720520
  0
VERTEX
  8
0
  6
CONTINUOUS
 10
3.685440
 20
3.556520
  0
VERTEX
  8
0
  6
CONTINUOUS
 10
4.085400
 20
3.536280
  0
VERTEX
  8
0
  6
CONTINUOUS
 10
4.085840
 20
2.700720
  0
VERTEX
  8
0
  6
CONTINUOUS
 10
3.685880
 20
2.720520
  0
SEQEND
  8
0
  0
SOLID
  8
0
 62
    15
 10
4.085840
 20
2.700720
 11
4.085400
 21
3.536280
 12
4.089800
 22
2.700720
 13
4.089360
 23
3.536280
  0
POLYLINE
  8
0
  6
CONTINUOUS
 66
     1
 40
0.000000
 41
0.000000
  0
VERTEX
  8
0
  6
CONTINUOUS
 10
4.085840
 20
2.700720
  0
VERTEX
  8
0
  6
CONTINUOUS
 10
4.085400
 20
3.536280
  0
VERTEX
  8
0
  6
CONTINUOUS
 10
4.089360
 20
3.536280
  0
VERTEX
  8
0
  6
CONTINUOUS
 10
4.089800
 20
2.700720
  0
VERTEX
  8
0
  6
CONTINUOUS
 10
4.085840
 20
2.700720
  0
SEQEND
  8
0
  0
SOLID
  8
0
 62
    15
 10
4.089800
 20
2.700720
 11
4.089360
 21
3.536280
 12
4.110480
 22
2.650120
 13
4.110040
 23
3.486120
  0
POLYLINE
  8
0
  6
CONTINUOUS
 66
     1
 40
0.000000
 41
0.000000
  0
VERTEX
  8
0
  6
CONTINUOUS
 10
4.089800
 20
2.700720
  0
VERTEX
  8
0
  6
CONTINUOUS
 10
4.089360
 20
3.536280
  0
VERTEX
  8
0
  6
CONTINUOUS
 10
4.110040
 20
3.486120
  0
VERTEX
  8
0
  6
CONTINUOUS
 10
4.110480
 20
2.650120
  0
VERTEX
  8
0
  6
CONTINUOUS
 10
4.089800
 20
2.700720
  0
SEQEND
  8
0
  0
SOLID
  8
0
 62
    15
 10
4.110480
 20
2.650120
 11
4.110040
 21
3.486120
 12
4.135120
 22
2.601720
 13
4.134680
 23
3.437720
  0
POLYLINE
  8
0
  6
CONTINUOUS
 66
     1
 40
0.000000
 41
0.000000
  0
VERTEX
  8
0
  6
CONTINUOUS
 10
4.110480
 20
2.650120
  0
VERTEX
  8
0
  6
CONTINUOUS
 10
4.110040
 20
3.486120
  0
VERTEX
  8
0
  6
CONTINUOUS
 10
4.134680
 20
3.437720
  0
VERTEX
  8
0
  6
CONTINUOUS
 10
4.135120
 20
2.601720
  0
VERTEX
  8
0
  6
CONTINUOUS
 10
4.110480
 20
2.650120
  0
SEQEND
  8
0
  0
SOLID
  8
0
 62
    15
 10
4.135120
 20
2.601720
 11
4.134680
 21
3.437720
 12
4.164600
 22
2.556400
 13
4.164160
 23
3.391960
  0
POLYLINE
  8
0
  6
CONTINUOUS
 66
     1
 40
0.000000
 41
0.000000
  0
VERTEX
  8
0
  6
CONTINUOUS
 10
4.135120
 20
2.601720
  0
VERTEX
  8
0
  6
CONTINUOUS
 10
4.134680
 20
3.437720
  0
VERTEX
  8
0
  6
CONTINUOUS
 10
4.164160
 20
3.391960
  0
VERTEX
  8
0
  6
CONTINUOUS
 10
4.164600
 20
2.556400
  0
VERTEX
  8
0
  6
CONTINUOUS
 10
4.135120
 20
2.601720
  0
SEQEND
  8
0
  0
SOLID
  8
0
 62
     7
 10
4.164600
 20
2.556400
 11
4.164160
 21
3.391960
 12
4.200240
 22
2.515040
 13
4.199800
 23
3.351040
  0
POLYLINE
  8
0
  6
CONTINUOUS
 66
     1
 40
0.000000
 41
0.000000
  0
VERTEX
  8
0
  6
CONTINUOUS
 10
4.164600
 20
2.556400
  0
VERTEX
  8
0
  6
CONTINUOUS
 10
4.164160
 20
3.391960
  0
VERTEX
  8
0
  6
CONTINUOUS
 10
4.199800
 20
3.351040
  0
VERTEX
  8
0
  6
CONTINUOUS
 10
4.200240
 20
2.515040
  0
VERTEX
  8
0
  6
CONTINUOUS
 10
4.164600
 20
2.556400
  0
SEQEND
  8
0
  0
SOLID
  8
0
 62
     7
 10
4.200240
 20
2.515040
 11
4.199800
 21
3.351040
 12
4.242480
 22
2.478960
 13
4.242040
 23
3.314960
  0
POLYLINE
  8
0
  6
CONTINUOUS
 66
     1
 40
0.000000
 41
0.000000
  0
VERTEX
  8
0
  6
CONTINUOUS
 10
4.200240
 20
2.515040
  0
VERTEX
  8
0
  6
CONTINUOUS
 10
4.199800
 20
3.351040
  0
VERTEX
  8
0
  6
CONTINUOUS
 10
4.242040
 20
3.314960
  0
VERTEX
  8
0
  6
CONTINUOUS
 10
4.242480
 20
2.478960
  0
VERTEX
  8
0
  6
CONTINUOUS
 10
4.200240
 20
2.515040
  0
SEQEND
  8
0
  0
SOLID
  8
0
 62
     7
 10
4.242480
 20
2.478960
 11
4.242040
 21
3.314960
 12
4.292640
 22
2.449040
 13
4.292200
 23
3.285040
  0
POLYLINE
  8
0
  6
CONTINUOUS
 66
     1
 40
0.000000
 41
0.000000
  0
VERTEX
  8
0
  6
CONTINUOUS
 10
4.242480
 20
2.478960
  0
VERTEX
  8
0
  6
CONTINUOUS
 10
4.242040
 20
3.314960
  0
VERTEX
  8
0
  6
CONTINUOUS
 10
4.292200
 20
3.285040
  0
VERTEX
  8
0
  6
CONTINUOUS
 10
4.292640
 20
2.449040
  0
VERTEX
  8
0
  6
CONTINUOUS
 10
4.242480
 20
2.478960
  0
SEQEND
  8
0
  0
SOLID
  8
0
 62
     7
 10
4.292640
 20
2.449040
 11
4.292200
 21
3.285040
 12
4.351600
 22
2.426600
 13
4.351160
 23
3.262600
  0
POLYLINE
  8
0
  6
CONTINUOUS
 66
     1
 40
0.000000
 41
0.000000
  0
VERTEX
  8
0
  6
CONTINUOUS
 10
4.292640
 20
2.449040
  0
VERTEX
  8
0
  6
CONTINUOUS
 10
4.292200
 20
3.285040
  0
VERTEX
  8
0
  6
CONTINUOUS
 10
4.351160
 20
3.262600
  0
VERTEX
  8
0
  6
CONTINUOUS
 10
4.351600
 20
2.426600
  0
VERTEX
  8
0
  6
CONTINUOUS
 10
4.292640
 20
2.449040
  0
SEQEND
  8
0
  0
SOLID
  8
0
 62
     7
 10
4.351600
 20
2.426600
 11
4.351160
 21
3.262600
 12
4.420680
 22
2.412520
 13
4.420240
 23
3.248520
  0
POLYLINE
  8
0
  6
CONTINUOUS
 66
     1
 40
0.000000
 41
0.000000
  0
VERTEX
  8
0
  6
CONTINUOUS
 10
4.351600
 20
2.426600
  0
VERTEX
  8
0
  6
CONTINUOUS
 10
4.351160
 20
3.262600
  0
VERTEX
  8
0
  6
CONTINUOUS
 10
4.420240
 20
3.248520
  0
VERTEX
  8
0
  6
CONTINUOUS
 10
4.420680
 20
2.412520
  0
VERTEX
  8
0
  6
CONTINUOUS
 10
4.351600
 20
2.426600
  0
SEQEND
  8
0
  0
SOLID
  8
0
 62
    15
 10
4.420680
 20
2.412520
 11
4.420240
 21
3.248520
 12
4.425960
 22
2.412520
 13
4.425520
 23
3.248520
  0
POLYLINE
  8
0
  6
CONTINUOUS
 66
     1
 40
0.000000
 41
0.000000
  0
VERTEX
  8
0
  6
CONTINUOUS
 10
4.420680
 20
2.412520
  0
VERTEX
  8
0
  6
CONTINUOUS
 10
4.420240
 20
3.248520
  0
VERTEX
  8
0
  6
CONTINUOUS
 10
4.425520
 20
3.248520
  0
VERTEX
  8
0
  6
CONTINUOUS
 10
4.425960
 20
2.412520
  0
VERTEX
  8
0
  6
CONTINUOUS
 10
4.420680
 20
2.412520
  0
SEQEND
  8
0
  0
POLYLINE
  8
0
  6
CONTINUOUS
 66
     1
 40
0.000000
 41
0.000000
  0
VERTEX
  8
0
  6
CONTINUOUS
 10
4.425960
 20
2.412520
  0
VERTEX
  8
0
  6
CONTINUOUS
 10
4.439160
 20
2.279200
  0
VERTEX
  8
0
  6
CONTINUOUS
 10
4.518360
 20
2.277440
  0
VERTEX
  8
0
  6
CONTINUOUS
 10
4.587880
 20
2.268640
  0
VERTEX
  8
0
  6
CONTINUOUS
 10
4.648600
 20
2.253680
  0
VERTEX
  8
0
  6
CONTINUOUS
 10
4.700960
 20
2.233880
  0
VERTEX
  8
0
  6
CONTINUOUS
 10
4.745400
 20
2.209680
  0
VERTEX
  8
0
  6
CONTINUOUS
 10
4.783240
 20
2.181960
  0
VERTEX
  8
0
  6
CONTINUOUS
 10
4.814480
 20
2.151160
  0
VERTEX
  8
0
  6
CONTINUOUS
 10
4.840000
 20
2.118600
  0
VERTEX
  8
0
  6
CONTINUOUS
 10
4.860240
 20
2.084720
  0
VERTEX
  8
0
  6
CONTINUOUS
 10
4.875640
 20
2.050400
  0
VERTEX
  8
0
  6
CONTINUOUS
 10
4.895880
 20
1.983960
  0
VERTEX
  8
0
  6
CONTINUOUS
 10
4.905120
 20
1.925880
  0
VERTEX
  8
0
  6
CONTINUOUS
 10
4.907320
 20
1.901680
  0
VERTEX
  8
0
  6
CONTINUOUS
 10
4.908640
 20
1.881880
  0
VERTEX
  8
0
  6
CONTINUOUS
 10
4.908640
 20
1.879240
  0
VERTEX
  8
0
  6
CONTINUOUS
 10
3.327280
 20
1.879240
  0
VERTEX
  8
0
  6
CONTINUOUS
 10
3.685880
 20
2.720520
  0
VERTEX
  8
0
  6
CONTINUOUS
 10
4.085840
 20
2.700720
  0
VERTEX
  8
0
  6
CONTINUOUS
 10
4.089800
 20
2.700720
  0
VERTEX
  8
0
  6
CONTINUOUS
 10
4.110480
 20
2.650120
  0
VERTEX
  8
0
  6
CONTINUOUS
 10
4.135120
 20
2.601720
  0
VERTEX
  8
0
  6
CONTINUOUS
 10
4.164600
 20
2.556400
  0
VERTEX
  8
0
  6
CONTINUOUS
 10
4.200240
 20
2.515040
  0
VERTEX
  8
0
  6
CONTINUOUS
 10
4.242480
 20
2.478960
  0
VERTEX
  8
0
  6
CONTINUOUS
 10
4.292640
 20
2.449040
  0
VERTEX
  8
0
  6
CONTINUOUS
 10
4.351600
 20
2.426600
  0
VERTEX
  8
0
  6
CONTINUOUS
 10
4.420680
 20
2.412520
  0
VERTEX
  8
0
  6
CONTINUOUS
 10
4.425960
 20
2.412520
  0
SEQEND
  8
0
  0
TEXT
  8
0
 10
3.903240
 20
1.659680
 40
0.138218
  1
BA  71
 41
1.000000
  7
SN0
 71
     0
 72
     5
 11
4.401128
 21
1.659680
  0
TEXT
  8
0
 10
3.608880
 20
1.467840
 40
0.138218
  1
3/4" x 1-13/16"
 41
1.000000
  7
SN0
 71
     0
 72
     5
 11
4.693839
 21
1.467840
  0
ENDSEC
  0
EOF
