  0
SECTION
  2
HEADER
  9
$ACADVER
  1
AC1006
  9
$EXTMIN
 10
1.997160
 20
0.836880
  9
$EXTMAX
 10
6.354040
 20
5.916240
  9
$LTSCALE
 40
0.044000
  9
$PDMODE
 70
    35
  9
$PDSIZE
 40
0.035200
  0
ENDSEC
  0
SECTION
  2
TABLES
  0
TABLE
  2
LTYPE
 70
     9
  0
LTYPE
  2
CONTINUOUS
 70
    64
  3
Solid line
 72
    65
 73
     0
 40
0.000000
  0
LTYPE
  2
DASHED
 70
    64
  3
__ __ __ __ __ __ __ __ __ __ __ __ __ __ __
 72
    65
 73
     2
 40
0.000330
 49
0.000220
 49
-0.000110
  0
LTYPE
  2
HIDDEN
 70
    64
  3
 _ _ _ _ _ _ _ _ _ _ _ _ _ _ _ _ _ _ _ _ _ _
 72
    65
 73
     2
 40
0.000165
 49
0.000110
 49
-0.000055
  0
LTYPE
  2
CENTER
 70
    64
  3
____ _ ____ _ ____ _ ____ _ ____ _ ____ _ ____
 72
    65
 73
     4
 40
0.000880
 49
0.000550
 49
-0.000110
 49
0.000110
 49
-0.000110
  0
LTYPE
  2
PHANTOM
 70
    64
  3
_____ _ _ _____ _ _ _____ _ _ _____ _ _ ____
 72
    65
 73
     6
 40
0.001100
 49
0.000550
 49
-0.000110
 49
0.000110
 49
-0.000110
 49
0.000110
 49
-0.000110
  0
LTYPE
  2
DOT
 70
    64
  3
...............................................
 72
    65
 73
     2
 40
0.000110
 49
0.000000
 49
-0.000110
  0
LTYPE
  2
DASHDOT
 70
    64
  3
__ . __ . __ . __ . __ . __ . __ . __ . __ . __
 72
    65
 73
     4
 40
0.000440
 49
0.000220
 49
-0.000110
 49
0.000000
 49
-0.000110
  0
LTYPE
  2
BORDER
 70
    64
  3
__ __ . __ __ . __ __ . __ __ . __ __ . __ __
 72
    65
 73
     6
 40
0.000770
 49
0.000220
 49
-0.000110
 49
0.000220
 49
-0.000110
 49
0.000000
 49
-0.000110
  0
LTYPE
  2
DIVIDE
 70
    64
  3
__ . . __ . . __ . . __ . . __ . . __ . . __
 72
    65
 73
     6
 40
0.000550
 49
0.000220
 49
-0.000110
 49
0.000000
 49
-0.000110
 49
0.000000
 49
-0.000110
  0
LTYPE
  2
DOTDOT
 70
    64
  3
 . .  . .  . .  . .  . .  . . 
 72
    65
 73
     5
 40
0.000242
 49
-0.000110
 49
0.000000
 49
-0.000110
 49
0.000000
 49
-0.000110
  0
ENDTAB
  0
TABLE
  2
STYLE
 70
     2
  0
STYLE
 70
     0
  2
SN0
 40
0.000000
 41
0.000440
 50
0.000000
 71
     0
 42
0.000000
  3
ROMAND
  0
STYLE
 70
    68
  2
SV0
 40
0.000000
 41
0.000440
 50
0.000000
 71
     0
 42
0.000000
  3
ROMAND
  0
ENDTAB
  0
TABLE
  2
LAYER
 70
     3
  0
LAYER
  2
FOREGROUND
 70
    64
 62
     7
  6
CONTINUOUS
  0
LAYER
  2
BACKGROUND
 70
    65
 62
    -7
  6
CONTINUOUS
  0
LAYER
  2
0
 70
    64
 62
     7
  6
CONTINUOUS
  0
ENDTAB
  0
ENDSEC
  0
SECTION
  2
ENTITIES
  0
POLYLINE
  8
FOREGROUND
  6
CONTINUOUS
 66
     1
 40
0.000000
 41
0.000000
  0
VERTEX
  8
FOREGROUND
  6
CONTINUOUS
 10
0.000000
 20
6.753120
  0
VERTEX
  8
FOREGROUND
  6
CONTINUOUS
 10
8.499920
 20
6.753120
  0
VERTEX
  8
FOREGROUND
  6
CONTINUOUS
 10
8.499920
 20
-4.246880
  0
VERTEX
  8
FOREGROUND
  6
CONTINUOUS
 10
0.000000
 20
-4.246880
  0
VERTEX
  8
FOREGROUND
  6
CONTINUOUS
 10
0.000000
 20
6.753120
  0
SEQEND
  8
0
  0
POLYLINE
  8
FOREGROUND
  6
CONTINUOUS
 66
     1
 40
0.000000
 41
0.000000
  0
VERTEX
  8
FOREGROUND
  6
CONTINUOUS
 10
0.000000
 20
6.753120
  0
VERTEX
  8
FOREGROUND
  6
CONTINUOUS
 10
8.499920
 20
6.753120
  0
VERTEX
  8
FOREGROUND
  6
CONTINUOUS
 10
8.499920
 20
-4.246880
  0
VERTEX
  8
FOREGROUND
  6
CONTINUOUS
 10
0.000000
 20
-4.246880
  0
VERTEX
  8
FOREGROUND
  6
CONTINUOUS
 10
0.000000
 20
6.753120
  0
SEQEND
  8
0
  0
POLYLINE
  8
0
  6
CONTINUOUS
 66
     1
 40
0.014080
 41
0.014080
  0
VERTEX
  8
0
  6
CONTINUOUS
 10
5.545760
 20
5.094320
  0
VERTEX
  8
0
  6
CONTINUOUS
 10
5.549720
 20
5.094320
  0
VERTEX
  8
0
  6
CONTINUOUS
 10
6.347000
 20
5.551480
  0
VERTEX
  8
0
  6
CONTINUOUS
 10
6.132280
 20
5.908760
  0
VERTEX
  8
0
  6
CONTINUOUS
 10
5.625840
 20
5.590200
  0
VERTEX
  8
0
  6
CONTINUOUS
 10
5.623200
 20
5.590200
  0
VERTEX
  8
0
  6
CONTINUOUS
 10
5.521120
 20
5.654000
  0
VERTEX
  8
0
  6
CONTINUOUS
 10
5.447200
 20
5.695800
  0
VERTEX
  8
0
  6
CONTINUOUS
 10
5.375480
 20
5.732760
  0
VERTEX
  8
0
  6
CONTINUOUS
 10
5.328840
 20
5.754320
  0
VERTEX
  8
0
  6
CONTINUOUS
 10
5.282640
 20
5.773680
  0
VERTEX
  8
0
  6
CONTINUOUS
 10
5.192000
 20
5.806240
  0
VERTEX
  8
0
  6
CONTINUOUS
 10
5.147120
 20
5.819440
  0
VERTEX
  8
0
  6
CONTINUOUS
 10
5.102680
 20
5.830440
  0
VERTEX
  8
0
  6
CONTINUOUS
 10
5.058680
 20
5.839240
  0
VERTEX
  8
0
  6
CONTINUOUS
 10
5.014680
 20
5.846280
  0
VERTEX
  8
0
  6
CONTINUOUS
 10
4.970240
 20
5.851120
  0
VERTEX
  8
0
  6
CONTINUOUS
 10
4.926240
 20
5.854200
  0
VERTEX
  8
0
  6
CONTINUOUS
 10
4.881800
 20
5.855520
  0
VERTEX
  8
0
  6
CONTINUOUS
 10
4.836920
 20
5.855080
  0
VERTEX
  8
0
  6
CONTINUOUS
 10
4.792040
 20
5.852440
  0
VERTEX
  8
0
  6
CONTINUOUS
 10
4.700080
 20
5.842320
  0
VERTEX
  8
0
  6
CONTINUOUS
 10
4.605480
 20
5.825160
  0
VERTEX
  8
0
  6
CONTINUOUS
 10
4.507360
 20
5.801400
  0
VERTEX
  8
0
  6
CONTINUOUS
 10
4.404840
 20
5.771480
  0
VERTEX
  8
0
  6
CONTINUOUS
 10
4.297480
 20
5.735400
  0
VERTEX
  8
0
  6
CONTINUOUS
 10
4.125000
 20
5.670280
  0
VERTEX
  8
0
  6
CONTINUOUS
 10
3.939760
 20
5.597240
  0
VERTEX
  8
0
  6
CONTINUOUS
 10
3.820080
 20
5.553240
  0
VERTEX
  8
0
  6
CONTINUOUS
 10
3.704360
 20
5.515400
  0
VERTEX
  8
0
  6
CONTINUOUS
 10
3.592600
 20
5.484160
  0
VERTEX
  8
0
  6
CONTINUOUS
 10
3.538040
 20
5.471400
  0
VERTEX
  8
0
  6
CONTINUOUS
 10
3.483920
 20
5.460400
  0
VERTEX
  8
0
  6
CONTINUOUS
 10
3.430680
 20
5.451160
  0
VERTEX
  8
0
  6
CONTINUOUS
 10
3.378320
 20
5.444120
  0
VERTEX
  8
0
  6
CONTINUOUS
 10
3.326400
 20
5.439280
  0
VERTEX
  8
0
  6
CONTINUOUS
 10
3.274920
 20
5.436640
  0
VERTEX
  8
0
  6
CONTINUOUS
 10
3.223880
 20
5.436200
  0
VERTEX
  8
0
  6
CONTINUOUS
 10
3.173720
 20
5.438400
  0
VERTEX
  8
0
  6
CONTINUOUS
 10
3.123560
 20
5.442800
  0
VERTEX
  8
0
  6
CONTINUOUS
 10
3.048760
 20
5.454680
  0
VERTEX
  8
0
  6
CONTINUOUS
 10
2.974840
 20
5.472280
  0
VERTEX
  8
0
  6
CONTINUOUS
 10
2.900920
 20
5.496480
  0
VERTEX
  8
0
  6
CONTINUOUS
 10
2.852080
 20
5.516280
  0
VERTEX
  8
0
  6
CONTINUOUS
 10
2.802800
 20
5.538720
  0
VERTEX
  8
0
  6
CONTINUOUS
 10
2.753520
 20
5.564680
  0
VERTEX
  8
0
  6
CONTINUOUS
 10
2.679600
 20
5.609120
  0
VERTEX
  8
0
  6
CONTINUOUS
 10
2.605240
 20
5.661040
  0
VERTEX
  8
0
  6
CONTINUOUS
 10
2.530440
 20
5.720880
  0
VERTEX
  8
0
  6
CONTINUOUS
 10
2.454760
 20
5.788640
  0
VERTEX
  8
0
  6
CONTINUOUS
 10
2.377760
 20
5.864760
  0
VERTEX
  8
0
  6
CONTINUOUS
 10
2.373360
 20
5.859480
  0
VERTEX
  8
0
  6
CONTINUOUS
 10
2.007720
 20
5.601640
  0
VERTEX
  8
0
  6
CONTINUOUS
 10
2.351360
 20
5.095200
  0
VERTEX
  8
0
  6
CONTINUOUS
 10
5.552800
 20
5.095200
  0
VERTEX
  8
0
  6
CONTINUOUS
 10
5.545760
 20
5.094320
  0
SEQEND
  8
0
  0
SOLID
  8
0
 62
    15
 10
3.976720
 20
3.404280
 11
4.622640
 21
3.027200
 12
3.923920
 22
3.148200
 13
4.569400
 23
2.771120
  0
POLYLINE
  8
0
  6
CONTINUOUS
 66
     1
 40
0.000000
 41
0.000000
  0
VERTEX
  8
0
  6
CONTINUOUS
 10
3.976720
 20
3.404280
  0
VERTEX
  8
0
  6
CONTINUOUS
 10
4.622640
 20
3.027200
  0
VERTEX
  8
0
  6
CONTINUOUS
 10
4.569400
 20
2.771120
  0
VERTEX
  8
0
  6
CONTINUOUS
 10
3.923920
 20
3.148200
  0
VERTEX
  8
0
  6
CONTINUOUS
 10
3.976720
 20
3.404280
  0
SEQEND
  8
0
  0
SOLID
  8
0
 62
    15
 10
5.012480
 20
4.459840
 11
5.657960
 21
4.082760
 12
5.014680
 22
4.453240
 13
5.660160
 23
4.076160
  0
POLYLINE
  8
0
  6
CONTINUOUS
 66
     1
 40
0.000000
 41
0.000000
  0
VERTEX
  8
0
  6
CONTINUOUS
 10
5.012480
 20
4.459840
  0
VERTEX
  8
0
  6
CONTINUOUS
 10
5.657960
 20
4.082760
  0
VERTEX
  8
0
  6
CONTINUOUS
 10
5.660160
 20
4.076160
  0
VERTEX
  8
0
  6
CONTINUOUS
 10
5.014680
 20
4.453240
  0
VERTEX
  8
0
  6
CONTINUOUS
 10
5.012480
 20
4.459840
  0
SEQEND
  8
0
  0
SOLID
  8
0
 62
    15
 10
5.014680
 20
4.453240
 11
5.660160
 21
4.076160
 12
4.875640
 22
4.420680
 13
5.521120
 23
4.043600
  0
POLYLINE
  8
0
  6
CONTINUOUS
 66
     1
 40
0.000000
 41
0.000000
  0
VERTEX
  8
0
  6
CONTINUOUS
 10
5.014680
 20
4.453240
  0
VERTEX
  8
0
  6
CONTINUOUS
 10
5.660160
 20
4.076160
  0
VERTEX
  8
0
  6
CONTINUOUS
 10
5.521120
 20
4.043600
  0
VERTEX
  8
0
  6
CONTINUOUS
 10
4.875640
 20
4.420680
  0
VERTEX
  8
0
  6
CONTINUOUS
 10
5.014680
 20
4.453240
  0
SEQEND
  8
0
  0
SOLID
  8
0
 62
    15
 10
4.875640
 20
4.420680
 11
5.521120
 21
4.043600
 12
4.749800
 22
4.381520
 13
5.395720
 23
4.004440
  0
POLYLINE
  8
0
  6
CONTINUOUS
 66
     1
 40
0.000000
 41
0.000000
  0
VERTEX
  8
0
  6
CONTINUOUS
 10
4.875640
 20
4.420680
  0
VERTEX
  8
0
  6
CONTINUOUS
 10
5.521120
 20
4.043600
  0
VERTEX
  8
0
  6
CONTINUOUS
 10
5.395720
 20
4.004440
  0
VERTEX
  8
0
  6
CONTINUOUS
 10
4.749800
 20
4.381520
  0
VERTEX
  8
0
  6
CONTINUOUS
 10
4.875640
 20
4.420680
  0
SEQEND
  8
0
  0
SOLID
  8
0
 62
    15
 10
4.749800
 20
4.381520
 11
5.395720
 21
4.004440
 12
4.636720
 22
4.335760
 13
5.282200
 23
3.958680
  0
POLYLINE
  8
0
  6
CONTINUOUS
 66
     1
 40
0.000000
 41
0.000000
  0
VERTEX
  8
0
  6
CONTINUOUS
 10
4.749800
 20
4.381520
  0
VERTEX
  8
0
  6
CONTINUOUS
 10
5.395720
 20
4.004440
  0
VERTEX
  8
0
  6
CONTINUOUS
 10
5.282200
 20
3.958680
  0
VERTEX
  8
0
  6
CONTINUOUS
 10
4.636720
 20
4.335760
  0
VERTEX
  8
0
  6
CONTINUOUS
 10
4.749800
 20
4.381520
  0
SEQEND
  8
0
  0
SOLID
  8
0
 62
    15
 10
4.636720
 20
4.335760
 11
5.282200
 21
3.958680
 12
4.534640
 22
4.283840
 13
5.180560
 23
3.906760
  0
POLYLINE
  8
0
  6
CONTINUOUS
 66
     1
 40
0.000000
 41
0.000000
  0
VERTEX
  8
0
  6
CONTINUOUS
 10
4.636720
 20
4.335760
  0
VERTEX
  8
0
  6
CONTINUOUS
 10
5.282200
 20
3.958680
  0
VERTEX
  8
0
  6
CONTINUOUS
 10
5.180560
 20
3.906760
  0
VERTEX
  8
0
  6
CONTINUOUS
 10
4.534640
 20
4.283840
  0
VERTEX
  8
0
  6
CONTINUOUS
 10
4.636720
 20
4.335760
  0
SEQEND
  8
0
  0
SOLID
  8
0
 62
    15
 10
4.534640
 20
4.283840
 11
5.180560
 21
3.906760
 12
4.443560
 22
4.225320
 13
5.089480
 23
3.848240
  0
POLYLINE
  8
0
  6
CONTINUOUS
 66
     1
 40
0.000000
 41
0.000000
  0
VERTEX
  8
0
  6
CONTINUOUS
 10
4.534640
 20
4.283840
  0
VERTEX
  8
0
  6
CONTINUOUS
 10
5.180560
 20
3.906760
  0
VERTEX
  8
0
  6
CONTINUOUS
 10
5.089480
 20
3.848240
  0
VERTEX
  8
0
  6
CONTINUOUS
 10
4.443560
 20
4.225320
  0
VERTEX
  8
0
  6
CONTINUOUS
 10
4.534640
 20
4.283840
  0
SEQEND
  8
0
  0
SOLID
  8
0
 62
    15
 10
4.443560
 20
4.225320
 11
5.089480
 21
3.848240
 12
4.362600
 22
4.160640
 13
5.008520
 23
3.783560
  0
POLYLINE
  8
0
  6
CONTINUOUS
 66
     1
 40
0.000000
 41
0.000000
  0
VERTEX
  8
0
  6
CONTINUOUS
 10
4.443560
 20
4.225320
  0
VERTEX
  8
0
  6
CONTINUOUS
 10
5.089480
 20
3.848240
  0
VERTEX
  8
0
  6
CONTINUOUS
 10
5.008520
 20
3.783560
  0
VERTEX
  8
0
  6
CONTINUOUS
 10
4.362600
 20
4.160640
  0
VERTEX
  8
0
  6
CONTINUOUS
 10
4.443560
 20
4.225320
  0
SEQEND
  8
0
  0
SOLID
  8
0
 62
    15
 10
4.362600
 20
4.160640
 11
5.008520
 21
3.783560
 12
4.227520
 22
4.011040
 13
4.873000
 23
3.633960
  0
POLYLINE
  8
0
  6
CONTINUOUS
 66
     1
 40
0.000000
 41
0.000000
  0
VERTEX
  8
0
  6
CONTINUOUS
 10
4.362600
 20
4.160640
  0
VERTEX
  8
0
  6
CONTINUOUS
 10
5.008520
 20
3.783560
  0
VERTEX
  8
0
  6
CONTINUOUS
 10
4.873000
 20
3.633960
  0
VERTEX
  8
0
  6
CONTINUOUS
 10
4.227520
 20
4.011040
  0
VERTEX
  8
0
  6
CONTINUOUS
 10
4.362600
 20
4.160640
  0
SEQEND
  8
0
  0
SOLID
  8
0
 62
    15
 10
4.227520
 20
4.011040
 11
4.873000
 21
3.633960
 12
4.121920
 22
3.835480
 13
4.767840
 23
3.458400
  0
POLYLINE
  8
0
  6
CONTINUOUS
 66
     1
 40
0.000000
 41
0.000000
  0
VERTEX
  8
0
  6
CONTINUOUS
 10
4.227520
 20
4.011040
  0
VERTEX
  8
0
  6
CONTINUOUS
 10
4.873000
 20
3.633960
  0
VERTEX
  8
0
  6
CONTINUOUS
 10
4.767840
 20
3.458400
  0
VERTEX
  8
0
  6
CONTINUOUS
 10
4.121920
 20
3.835480
  0
VERTEX
  8
0
  6
CONTINUOUS
 10
4.227520
 20
4.011040
  0
SEQEND
  8
0
  0
SOLID
  8
0
 62
    15
 10
4.121920
 20
3.835480
 11
4.767840
 21
3.458400
 12
4.040520
 22
3.633080
 13
4.686440
 23
3.256000
  0
POLYLINE
  8
0
  6
CONTINUOUS
 66
     1
 40
0.000000
 41
0.000000
  0
VERTEX
  8
0
  6
CONTINUOUS
 10
4.121920
 20
3.835480
  0
VERTEX
  8
0
  6
CONTINUOUS
 10
4.767840
 20
3.458400
  0
VERTEX
  8
0
  6
CONTINUOUS
 10
4.686440
 20
3.256000
  0
VERTEX
  8
0
  6
CONTINUOUS
 10
4.040520
 20
3.633080
  0
VERTEX
  8
0
  6
CONTINUOUS
 10
4.121920
 20
3.835480
  0
SEQEND
  8
0
  0
SOLID
  8
0
 62
    15
 10
4.040520
 20
3.633080
 11
4.686440
 21
3.256000
 12
3.976720
 22
3.404280
 13
4.622640
 23
3.027200
  0
POLYLINE
  8
0
  6
CONTINUOUS
 66
     1
 40
0.000000
 41
0.000000
  0
VERTEX
  8
0
  6
CONTINUOUS
 10
4.040520
 20
3.633080
  0
VERTEX
  8
0
  6
CONTINUOUS
 10
4.686440
 20
3.256000
  0
VERTEX
  8
0
  6
CONTINUOUS
 10
4.622640
 20
3.027200
  0
VERTEX
  8
0
  6
CONTINUOUS
 10
3.976720
 20
3.404280
  0
VERTEX
  8
0
  6
CONTINUOUS
 10
4.040520
 20
3.633080
  0
SEQEND
  8
0
  0
SOLID
  8
0
 62
    15
 10
4.991360
 20
4.906880
 11
5.637280
 21
4.529800
 12
5.012480
 22
4.459840
 13
5.657960
 23
4.082760
  0
POLYLINE
  8
0
  6
CONTINUOUS
 66
     1
 40
0.000000
 41
0.000000
  0
VERTEX
  8
0
  6
CONTINUOUS
 10
4.991360
 20
4.906880
  0
VERTEX
  8
0
  6
CONTINUOUS
 10
5.637280
 20
4.529800
  0
VERTEX
  8
0
  6
CONTINUOUS
 10
5.657960
 20
4.082760
  0
VERTEX
  8
0
  6
CONTINUOUS
 10
5.012480
 20
4.459840
  0
VERTEX
  8
0
  6
CONTINUOUS
 10
4.991360
 20
4.906880
  0
SEQEND
  8
0
  0
SOLID
  8
0
 62
    15
 10
3.923920
 20
3.148200
 11
4.569400
 21
2.771120
 12
3.873760
 22
2.903560
 13
4.519240
 23
2.526480
  0
POLYLINE
  8
0
  6
CONTINUOUS
 66
     1
 40
0.000000
 41
0.000000
  0
VERTEX
  8
0
  6
CONTINUOUS
 10
3.923920
 20
3.148200
  0
VERTEX
  8
0
  6
CONTINUOUS
 10
4.569400
 20
2.771120
  0
VERTEX
  8
0
  6
CONTINUOUS
 10
4.519240
 20
2.526480
  0
VERTEX
  8
0
  6
CONTINUOUS
 10
3.873760
 20
2.903560
  0
VERTEX
  8
0
  6
CONTINUOUS
 10
3.923920
 20
3.148200
  0
SEQEND
  8
0
  0
SOLID
  8
0
 62
    15
 10
3.873760
 20
2.903560
 11
4.519240
 21
2.526480
 12
3.816560
 22
2.691040
 13
4.462480
 23
2.313960
  0
POLYLINE
  8
0
  6
CONTINUOUS
 66
     1
 40
0.000000
 41
0.000000
  0
VERTEX
  8
0
  6
CONTINUOUS
 10
3.873760
 20
2.903560
  0
VERTEX
  8
0
  6
CONTINUOUS
 10
4.519240
 20
2.526480
  0
VERTEX
  8
0
  6
CONTINUOUS
 10
4.462480
 20
2.313960
  0
VERTEX
  8
0
  6
CONTINUOUS
 10
3.816560
 20
2.691040
  0
VERTEX
  8
0
  6
CONTINUOUS
 10
3.873760
 20
2.903560
  0
SEQEND
  8
0
  0
SOLID
  8
0
 62
    15
 10
3.816560
 20
2.691040
 11
4.462480
 21
2.313960
 12
3.747920
 22
2.506680
 13
4.393400
 23
2.129600
  0
POLYLINE
  8
0
  6
CONTINUOUS
 66
     1
 40
0.000000
 41
0.000000
  0
VERTEX
  8
0
  6
CONTINUOUS
 10
3.816560
 20
2.691040
  0
VERTEX
  8
0
  6
CONTINUOUS
 10
4.462480
 20
2.313960
  0
VERTEX
  8
0
  6
CONTINUOUS
 10
4.393400
 20
2.129600
  0
VERTEX
  8
0
  6
CONTINUOUS
 10
3.747920
 20
2.506680
  0
VERTEX
  8
0
  6
CONTINUOUS
 10
3.816560
 20
2.691040
  0
SEQEND
  8
0
  0
SOLID
  8
0
 62
    15
 10
3.747920
 20
2.506680
 11
4.393400
 21
2.129600
 12
3.661240
 22
2.346520
 13
4.307160
 23
1.969000
  0
POLYLINE
  8
0
  6
CONTINUOUS
 66
     1
 40
0.000000
 41
0.000000
  0
VERTEX
  8
0
  6
CONTINUOUS
 10
3.747920
 20
2.506680
  0
VERTEX
  8
0
  6
CONTINUOUS
 10
4.393400
 20
2.129600
  0
VERTEX
  8
0
  6
CONTINUOUS
 10
4.307160
 20
1.969000
  0
VERTEX
  8
0
  6
CONTINUOUS
 10
3.661240
 20
2.346520
  0
VERTEX
  8
0
  6
CONTINUOUS
 10
3.747920
 20
2.506680
  0
SEQEND
  8
0
  0
SOLID
  8
0
 62
    15
 10
3.661240
 20
2.346520
 11
4.307160
 21
1.969000
 12
3.552560
 22
2.206160
 13
4.198480
 23
1.828640
  0
POLYLINE
  8
0
  6
CONTINUOUS
 66
     1
 40
0.000000
 41
0.000000
  0
VERTEX
  8
0
  6
CONTINUOUS
 10
3.661240
 20
2.346520
  0
VERTEX
  8
0
  6
CONTINUOUS
 10
4.307160
 20
1.969000
  0
VERTEX
  8
0
  6
CONTINUOUS
 10
4.198480
 20
1.828640
  0
VERTEX
  8
0
  6
CONTINUOUS
 10
3.552560
 20
2.206160
  0
VERTEX
  8
0
  6
CONTINUOUS
 10
3.661240
 20
2.346520
  0
SEQEND
  8
0
  0
SOLID
  8
0
 62
    15
 10
3.552560
 20
2.206160
 11
4.198480
 21
1.828640
 12
3.416160
 22
2.081200
 13
4.061640
 23
1.704120
  0
POLYLINE
  8
0
  6
CONTINUOUS
 66
     1
 40
0.000000
 41
0.000000
  0
VERTEX
  8
0
  6
CONTINUOUS
 10
3.552560
 20
2.206160
  0
VERTEX
  8
0
  6
CONTINUOUS
 10
4.198480
 20
1.828640
  0
VERTEX
  8
0
  6
CONTINUOUS
 10
4.061640
 20
1.704120
  0
VERTEX
  8
0
  6
CONTINUOUS
 10
3.416160
 20
2.081200
  0
VERTEX
  8
0
  6
CONTINUOUS
 10
3.552560
 20
2.206160
  0
SEQEND
  8
0
  0
SOLID
  8
0
 62
    15
 10
3.416160
 20
2.081200
 11
4.061640
 21
1.704120
 12
3.246760
 22
1.968560
 13
3.892240
 23
1.591480
  0
POLYLINE
  8
0
  6
CONTINUOUS
 66
     1
 40
0.000000
 41
0.000000
  0
VERTEX
  8
0
  6
CONTINUOUS
 10
3.416160
 20
2.081200
  0
VERTEX
  8
0
  6
CONTINUOUS
 10
4.061640
 20
1.704120
  0
VERTEX
  8
0
  6
CONTINUOUS
 10
3.892240
 20
1.591480
  0
VERTEX
  8
0
  6
CONTINUOUS
 10
3.246760
 20
1.968560
  0
VERTEX
  8
0
  6
CONTINUOUS
 10
3.416160
 20
2.081200
  0
SEQEND
  8
0
  0
SOLID
  8
0
 62
    15
 10
2.662440
 20
2.195600
 11
3.307920
 21
1.818520
 12
2.659360
 22
2.189000
 13
3.305280
 23
1.811920
  0
POLYLINE
  8
0
  6
CONTINUOUS
 66
     1
 40
0.000000
 41
0.000000
  0
VERTEX
  8
0
  6
CONTINUOUS
 10
2.662440
 20
2.195600
  0
VERTEX
  8
0
  6
CONTINUOUS
 10
3.307920
 20
1.818520
  0
VERTEX
  8
0
  6
CONTINUOUS
 10
3.305280
 20
1.811920
  0
VERTEX
  8
0
  6
CONTINUOUS
 10
2.659360
 20
2.189000
  0
VERTEX
  8
0
  6
CONTINUOUS
 10
2.662440
 20
2.195600
  0
SEQEND
  8
0
  0
SOLID
  8
0
 62
    15
 10
3.039080
 20
1.863840
 11
3.685000
 21
1.486760
 12
3.037760
 22
1.861640
 13
3.683240
 23
1.484560
  0
POLYLINE
  8
0
  6
CONTINUOUS
 66
     1
 40
0.000000
 41
0.000000
  0
VERTEX
  8
0
  6
CONTINUOUS
 10
3.039080
 20
1.863840
  0
VERTEX
  8
0
  6
CONTINUOUS
 10
3.685000
 20
1.486760
  0
VERTEX
  8
0
  6
CONTINUOUS
 10
3.683240
 20
1.484560
  0
VERTEX
  8
0
  6
CONTINUOUS
 10
3.037760
 20
1.861640
  0
VERTEX
  8
0
  6
CONTINUOUS
 10
3.039080
 20
1.863840
  0
SEQEND
  8
0
  0
SOLID
  8
0
 62
    15
 10
3.037760
 20
1.861640
 11
3.683240
 21
1.484560
 12
3.034240
 22
1.262800
 13
3.679720
 23
0.885720
  0
POLYLINE
  8
0
  6
CONTINUOUS
 66
     1
 40
0.000000
 41
0.000000
  0
VERTEX
  8
0
  6
CONTINUOUS
 10
3.037760
 20
1.861640
  0
VERTEX
  8
0
  6
CONTINUOUS
 10
3.683240
 20
1.484560
  0
VERTEX
  8
0
  6
CONTINUOUS
 10
3.679720
 20
0.885720
  0
VERTEX
  8
0
  6
CONTINUOUS
 10
3.034240
 20
1.262800
  0
VERTEX
  8
0
  6
CONTINUOUS
 10
3.037760
 20
1.861640
  0
SEQEND
  8
0
  0
SOLID
  8
0
 62
    15
 10
3.034240
 20
1.262800
 11
3.679720
 21
0.885720
 12
2.617560
 22
1.273800
 13
3.263040
 23
0.896720
  0
POLYLINE
  8
0
  6
CONTINUOUS
 66
     1
 40
0.000000
 41
0.000000
  0
VERTEX
  8
0
  6
CONTINUOUS
 10
3.034240
 20
1.262800
  0
VERTEX
  8
0
  6
CONTINUOUS
 10
3.679720
 20
0.885720
  0
VERTEX
  8
0
  6
CONTINUOUS
 10
3.263040
 20
0.896720
  0
VERTEX
  8
0
  6
CONTINUOUS
 10
2.617560
 20
1.273800
  0
VERTEX
  8
0
  6
CONTINUOUS
 10
3.034240
 20
1.262800
  0
SEQEND
  8
0
  0
SOLID
  8
0
 62
    15
 10
3.246760
 20
1.968560
 11
3.892240
 21
1.591480
 12
3.039080
 22
1.863840
 13
3.685000
 23
1.486760
  0
POLYLINE
  8
0
  6
CONTINUOUS
 66
     1
 40
0.000000
 41
0.000000
  0
VERTEX
  8
0
  6
CONTINUOUS
 10
3.246760
 20
1.968560
  0
VERTEX
  8
0
  6
CONTINUOUS
 10
3.892240
 20
1.591480
  0
VERTEX
  8
0
  6
CONTINUOUS
 10
3.685000
 20
1.486760
  0
VERTEX
  8
0
  6
CONTINUOUS
 10
3.039080
 20
1.863840
  0
VERTEX
  8
0
  6
CONTINUOUS
 10
3.246760
 20
1.968560
  0
SEQEND
  8
0
  0
POLYLINE
  8
0
  6
CONTINUOUS
 66
     1
 40
0.000000
 41
0.000000
  0
VERTEX
  8
0
  6
CONTINUOUS
 10
2.659360
 20
2.189000
  0
VERTEX
  8
0
  6
CONTINUOUS
 10
4.379320
 20
4.888840
  0
VERTEX
  8
0
  6
CONTINUOUS
 10
4.991360
 20
4.906880
  0
VERTEX
  8
0
  6
CONTINUOUS
 10
5.012480
 20
4.459840
  0
VERTEX
  8
0
  6
CONTINUOUS
 10
5.014680
 20
4.453240
  0
VERTEX
  8
0
  6
CONTINUOUS
 10
4.875640
 20
4.420680
  0
VERTEX
  8
0
  6
CONTINUOUS
 10
4.749800
 20
4.381520
  0
VERTEX
  8
0
  6
CONTINUOUS
 10
4.636720
 20
4.335760
  0
VERTEX
  8
0
  6
CONTINUOUS
 10
4.534640
 20
4.283840
  0
VERTEX
  8
0
  6
CONTINUOUS
 10
4.443560
 20
4.225320
  0
VERTEX
  8
0
  6
CONTINUOUS
 10
4.362600
 20
4.160640
  0
VERTEX
  8
0
  6
CONTINUOUS
 10
4.227520
 20
4.011040
  0
VERTEX
  8
0
  6
CONTINUOUS
 10
4.121920
 20
3.835480
  0
VERTEX
  8
0
  6
CONTINUOUS
 10
4.040520
 20
3.633080
  0
VERTEX
  8
0
  6
CONTINUOUS
 10
3.976720
 20
3.404280
  0
VERTEX
  8
0
  6
CONTINUOUS
 10
3.923920
 20
3.148200
  0
VERTEX
  8
0
  6
CONTINUOUS
 10
3.873760
 20
2.903560
  0
VERTEX
  8
0
  6
CONTINUOUS
 10
3.816560
 20
2.691040
  0
VERTEX
  8
0
  6
CONTINUOUS
 10
3.747920
 20
2.506680
  0
VERTEX
  8
0
  6
CONTINUOUS
 10
3.661240
 20
2.346520
  0
VERTEX
  8
0
  6
CONTINUOUS
 10
3.552560
 20
2.206160
  0
VERTEX
  8
0
  6
CONTINUOUS
 10
3.416160
 20
2.081200
  0
VERTEX
  8
0
  6
CONTINUOUS
 10
3.246760
 20
1.968560
  0
VERTEX
  8
0
  6
CONTINUOUS
 10
3.039080
 20
1.863840
  0
VERTEX
  8
0
  6
CONTINUOUS
 10
3.037760
 20
1.861640
  0
VERTEX
  8
0
  6
CONTINUOUS
 10
3.034240
 20
1.262800
  0
VERTEX
  8
0
  6
CONTINUOUS
 10
2.617560
 20
1.273800
  0
VERTEX
  8
0
  6
CONTINUOUS
 10
2.660240
 20
2.192080
  0
VERTEX
  8
0
  6
CONTINUOUS
 10
2.662440
 20
2.195600
  0
VERTEX
  8
0
  6
CONTINUOUS
 10
2.659360
 20
2.189000
  0
SEQEND
  8
0
  0
TEXT
  8
0
 10
4.119280
 20
1.072720
 40
0.138058
  1
BA  68
 41
1.000000
  7
SN0
 71
     0
 72
     5
 11
4.617311
 21
1.072720
  0
TEXT
  8
0
 10
3.917320
 20
0.881320
 40
0.138058
  1
3/4" x 4-3/8"
 41
1.000000
  7
SN0
 71
     0
 72
     5
 11
4.818398
 21
0.881320
  0
ENDSEC
  0
EOF
