  0
SECTION
  2
HEADER
  9
$ACADVER
  1
AC1006
  9
$EXTMIN
 10
1.045000
 20
1.672000
  9
$EXTMAX
 10
6.818680
 20
7.184760
  9
$LTSCALE
 40
0.044000
  9
$PDMODE
 70
    35
  9
$PDSIZE
 40
0.035200
  0
ENDSEC
  0
SECTION
  2
TABLES
  0
TABLE
  2
LTYPE
 70
     9
  0
LTYPE
  2
CONTINUOUS
 70
    64
  3
Solid line
 72
    65
 73
     0
 40
0.000000
  0
LTYPE
  2
DASHED
 70
    64
  3
__ __ __ __ __ __ __ __ __ __ __ __ __ __ __
 72
    65
 73
     2
 40
0.000330
 49
0.000220
 49
-0.000110
  0
LTYPE
  2
HIDDEN
 70
    64
  3
 _ _ _ _ _ _ _ _ _ _ _ _ _ _ _ _ _ _ _ _ _ _
 72
    65
 73
     2
 40
0.000165
 49
0.000110
 49
-0.000055
  0
LTYPE
  2
CENTER
 70
    64
  3
____ _ ____ _ ____ _ ____ _ ____ _ ____ _ ____
 72
    65
 73
     4
 40
0.000880
 49
0.000550
 49
-0.000110
 49
0.000110
 49
-0.000110
  0
LTYPE
  2
PHANTOM
 70
    64
  3
_____ _ _ _____ _ _ _____ _ _ _____ _ _ ____
 72
    65
 73
     6
 40
0.001100
 49
0.000550
 49
-0.000110
 49
0.000110
 49
-0.000110
 49
0.000110
 49
-0.000110
  0
LTYPE
  2
DOT
 70
    64
  3
...............................................
 72
    65
 73
     2
 40
0.000110
 49
0.000000
 49
-0.000110
  0
LTYPE
  2
DASHDOT
 70
    64
  3
__ . __ . __ . __ . __ . __ . __ . __ . __ . __
 72
    65
 73
     4
 40
0.000440
 49
0.000220
 49
-0.000110
 49
0.000000
 49
-0.000110
  0
LTYPE
  2
BORDER
 70
    64
  3
__ __ . __ __ . __ __ . __ __ . __ __ . __ __
 72
    65
 73
     6
 40
0.000770
 49
0.000220
 49
-0.000110
 49
0.000220
 49
-0.000110
 49
0.000000
 49
-0.000110
  0
LTYPE
  2
DIVIDE
 70
    64
  3
__ . . __ . . __ . . __ . . __ . . __ . . __
 72
    65
 73
     6
 40
0.000550
 49
0.000220
 49
-0.000110
 49
0.000000
 49
-0.000110
 49
0.000000
 49
-0.000110
  0
LTYPE
  2
DOTDOT
 70
    64
  3
 . .  . .  . .  . .  . .  . . 
 72
    65
 73
     5
 40
0.000242
 49
-0.000110
 49
0.000000
 49
-0.000110
 49
0.000000
 49
-0.000110
  0
ENDTAB
  0
TABLE
  2
STYLE
 70
     2
  0
STYLE
 70
     0
  2
SN0
 40
0.000000
 41
0.000440
 50
0.000000
 71
     0
 42
0.000000
  3
ROMAND
  0
STYLE
 70
    68
  2
SV0
 40
0.000000
 41
0.000440
 50
0.000000
 71
     0
 42
0.000000
  3
ROMAND
  0
ENDTAB
  0
TABLE
  2
LAYER
 70
     3
  0
LAYER
  2
FOREGROUND
 70
    64
 62
     7
  6
CONTINUOUS
  0
LAYER
  2
BACKGROUND
 70
    65
 62
    -7
  6
CONTINUOUS
  0
LAYER
  2
0
 70
    64
 62
     7
  6
CONTINUOUS
  0
ENDTAB
  0
ENDSEC
  0
SECTION
  2
ENTITIES
  0
POLYLINE
  8
FOREGROUND
  6
CONTINUOUS
 66
     1
 40
0.000000
 41
0.000000
  0
VERTEX
  8
FOREGROUND
  6
CONTINUOUS
 10
0.000000
 20
8.856760
  0
VERTEX
  8
FOREGROUND
  6
CONTINUOUS
 10
8.499920
 20
8.856760
  0
VERTEX
  8
FOREGROUND
  6
CONTINUOUS
 10
8.499920
 20
-2.143240
  0
VERTEX
  8
FOREGROUND
  6
CONTINUOUS
 10
0.000000
 20
-2.143240
  0
VERTEX
  8
FOREGROUND
  6
CONTINUOUS
 10
0.000000
 20
8.856760
  0
SEQEND
  8
0
  0
POLYLINE
  8
FOREGROUND
  6
CONTINUOUS
 66
     1
 40
0.000000
 41
0.000000
  0
VERTEX
  8
FOREGROUND
  6
CONTINUOUS
 10
0.000000
 20
8.856760
  0
VERTEX
  8
FOREGROUND
  6
CONTINUOUS
 10
8.499920
 20
8.856760
  0
VERTEX
  8
FOREGROUND
  6
CONTINUOUS
 10
8.499920
 20
-2.143240
  0
VERTEX
  8
FOREGROUND
  6
CONTINUOUS
 10
0.000000
 20
-2.143240
  0
VERTEX
  8
FOREGROUND
  6
CONTINUOUS
 10
0.000000
 20
8.856760
  0
SEQEND
  8
0
  0
POLYLINE
  8
0
  6
CONTINUOUS
 66
     1
 40
0.014080
 41
0.014080
  0
VERTEX
  8
0
  6
CONTINUOUS
 10
5.938680
 20
6.662920
  0
VERTEX
  8
0
  6
CONTINUOUS
 10
6.512000
 20
7.100280
  0
VERTEX
  8
0
  6
CONTINUOUS
 10
6.812960
 20
6.756200
  0
VERTEX
  8
0
  6
CONTINUOUS
 10
6.345240
 20
6.299040
  0
VERTEX
  8
0
  6
CONTINUOUS
 10
1.666280
 20
6.299040
  0
VERTEX
  8
0
  6
CONTINUOUS
 10
1.050280
 20
6.867080
  0
VERTEX
  8
0
  6
CONTINUOUS
 10
1.291840
 20
7.109520
  0
VERTEX
  8
0
  6
CONTINUOUS
 10
1.297120
 20
7.110840
  0
VERTEX
  8
0
  6
CONTINUOUS
 10
1.381600
 20
7.049240
  0
VERTEX
  8
0
  6
CONTINUOUS
 10
1.464760
 20
6.992920
  0
VERTEX
  8
0
  6
CONTINUOUS
 10
1.586640
 20
6.918560
  0
VERTEX
  8
0
  6
CONTINUOUS
 10
1.666280
 20
6.875000
  0
VERTEX
  8
0
  6
CONTINUOUS
 10
1.744600
 20
6.836280
  0
VERTEX
  8
0
  6
CONTINUOUS
 10
1.822040
 20
6.802400
  0
VERTEX
  8
0
  6
CONTINUOUS
 10
1.897720
 20
6.772480
  0
VERTEX
  8
0
  6
CONTINUOUS
 10
1.972520
 20
6.746960
  0
VERTEX
  8
0
  6
CONTINUOUS
 10
2.046440
 20
6.725400
  0
VERTEX
  8
0
  6
CONTINUOUS
 10
2.119040
 20
6.708240
  0
VERTEX
  8
0
  6
CONTINUOUS
 10
2.190760
 20
6.694160
  0
VERTEX
  8
0
  6
CONTINUOUS
 10
2.296800
 20
6.680080
  0
VERTEX
  8
0
  6
CONTINUOUS
 10
2.366320
 20
6.674800
  0
VERTEX
  8
0
  6
CONTINUOUS
 10
2.434960
 20
6.672600
  0
VERTEX
  8
0
  6
CONTINUOUS
 10
2.503160
 20
6.673040
  0
VERTEX
  8
0
  6
CONTINUOUS
 10
2.570480
 20
6.676560
  0
VERTEX
  8
0
  6
CONTINUOUS
 10
2.636920
 20
6.682720
  0
VERTEX
  8
0
  6
CONTINUOUS
 10
2.702920
 20
6.691080
  0
VERTEX
  8
0
  6
CONTINUOUS
 10
2.768920
 20
6.701640
  0
VERTEX
  8
0
  6
CONTINUOUS
 10
2.833600
 20
6.713960
  0
VERTEX
  8
0
  6
CONTINUOUS
 10
2.898280
 20
6.728480
  0
VERTEX
  8
0
  6
CONTINUOUS
 10
3.026760
 20
6.762360
  0
VERTEX
  8
0
  6
CONTINUOUS
 10
3.153920
 20
6.801520
  0
VERTEX
  8
0
  6
CONTINUOUS
 10
3.280640
 20
6.844200
  0
VERTEX
  8
0
  6
CONTINUOUS
 10
3.724600
 20
7.004800
  0
VERTEX
  8
0
  6
CONTINUOUS
 10
3.853520
 20
7.047920
  0
VERTEX
  8
0
  6
CONTINUOUS
 10
3.984200
 20
7.087080
  0
VERTEX
  8
0
  6
CONTINUOUS
 10
4.116640
 20
7.120960
  0
VERTEX
  8
0
  6
CONTINUOUS
 10
4.183960
 20
7.135480
  0
VERTEX
  8
0
  6
CONTINUOUS
 10
4.251720
 20
7.147800
  0
VERTEX
  8
0
  6
CONTINUOUS
 10
4.355120
 20
7.163200
  0
VERTEX
  8
0
  6
CONTINUOUS
 10
4.425080
 20
7.170240
  0
VERTEX
  8
0
  6
CONTINUOUS
 10
4.495480
 20
7.175080
  0
VERTEX
  8
0
  6
CONTINUOUS
 10
4.567200
 20
7.177280
  0
VERTEX
  8
0
  6
CONTINUOUS
 10
4.639800
 20
7.176400
  0
VERTEX
  8
0
  6
CONTINUOUS
 10
4.713280
 20
7.172880
  0
VERTEX
  8
0
  6
CONTINUOUS
 10
4.825920
 20
7.161440
  0
VERTEX
  8
0
  6
CONTINUOUS
 10
4.902480
 20
7.149560
  0
VERTEX
  8
0
  6
CONTINUOUS
 10
4.979920
 20
7.133720
  0
VERTEX
  8
0
  6
CONTINUOUS
 10
5.098720
 20
7.103360
  0
VERTEX
  8
0
  6
CONTINUOUS
 10
5.220160
 20
7.063760
  0
VERTEX
  8
0
  6
CONTINUOUS
 10
5.303320
 20
7.031640
  0
VERTEX
  8
0
  6
CONTINUOUS
 10
5.387800
 20
6.995560
  0
VERTEX
  8
0
  6
CONTINUOUS
 10
5.473600
 20
6.954640
  0
VERTEX
  8
0
  6
CONTINUOUS
 10
5.561160
 20
6.908880
  0
VERTEX
  8
0
  6
CONTINUOUS
 10
5.695360
 20
6.830560
  0
VERTEX
  8
0
  6
CONTINUOUS
 10
5.786880
 20
6.772040
  0
VERTEX
  8
0
  6
CONTINUOUS
 10
5.927680
 20
6.673480
  0
VERTEX
  8
0
  6
CONTINUOUS
 10
5.938680
 20
6.662920
  0
SEQEND
  8
0
  0
SOLID
  8
0
 62
    15
 10
4.494600
 20
5.019080
 11
5.180120
 21
4.612960
 12
4.356000
 22
4.792920
 13
5.041520
 23
4.387240
  0
POLYLINE
  8
0
  6
CONTINUOUS
 66
     1
 40
0.000000
 41
0.000000
  0
VERTEX
  8
0
  6
CONTINUOUS
 10
4.494600
 20
5.019080
  0
VERTEX
  8
0
  6
CONTINUOUS
 10
5.180120
 20
4.612960
  0
VERTEX
  8
0
  6
CONTINUOUS
 10
5.041520
 20
4.387240
  0
VERTEX
  8
0
  6
CONTINUOUS
 10
4.356000
 20
4.792920
  0
VERTEX
  8
0
  6
CONTINUOUS
 10
4.494600
 20
5.019080
  0
SEQEND
  8
0
  0
SOLID
  8
0
 62
    15
 10
2.140160
 20
2.082080
 11
2.825680
 21
1.675960
 12
1.683880
 22
2.110680
 13
2.368960
 23
1.704560
  0
POLYLINE
  8
0
  6
CONTINUOUS
 66
     1
 40
0.000000
 41
0.000000
  0
VERTEX
  8
0
  6
CONTINUOUS
 10
2.140160
 20
2.082080
  0
VERTEX
  8
0
  6
CONTINUOUS
 10
2.825680
 20
1.675960
  0
VERTEX
  8
0
  6
CONTINUOUS
 10
2.368960
 20
1.704560
  0
VERTEX
  8
0
  6
CONTINUOUS
 10
1.683880
 20
2.110680
  0
VERTEX
  8
0
  6
CONTINUOUS
 10
2.140160
 20
2.082080
  0
SEQEND
  8
0
  0
SOLID
  8
0
 62
    15
 10
5.822960
 20
6.121720
 11
6.508040
 21
5.715600
 12
5.825160
 22
5.779400
 13
6.510240
 23
5.373720
  0
POLYLINE
  8
0
  6
CONTINUOUS
 66
     1
 40
0.000000
 41
0.000000
  0
VERTEX
  8
0
  6
CONTINUOUS
 10
5.822960
 20
6.121720
  0
VERTEX
  8
0
  6
CONTINUOUS
 10
6.508040
 20
5.715600
  0
VERTEX
  8
0
  6
CONTINUOUS
 10
6.510240
 20
5.373720
  0
VERTEX
  8
0
  6
CONTINUOUS
 10
5.825160
 20
5.779400
  0
VERTEX
  8
0
  6
CONTINUOUS
 10
5.822960
 20
6.121720
  0
SEQEND
  8
0
  0
SOLID
  8
0
 62
    15
 10
5.825160
 20
5.779400
 11
6.510240
 21
5.373720
 12
5.822080
 22
5.774560
 13
6.507600
 23
5.368880
  0
POLYLINE
  8
0
  6
CONTINUOUS
 66
     1
 40
0.000000
 41
0.000000
  0
VERTEX
  8
0
  6
CONTINUOUS
 10
5.825160
 20
5.779400
  0
VERTEX
  8
0
  6
CONTINUOUS
 10
6.510240
 20
5.373720
  0
VERTEX
  8
0
  6
CONTINUOUS
 10
6.507600
 20
5.368880
  0
VERTEX
  8
0
  6
CONTINUOUS
 10
5.822080
 20
5.774560
  0
VERTEX
  8
0
  6
CONTINUOUS
 10
5.825160
 20
5.779400
  0
SEQEND
  8
0
  0
SOLID
  8
0
 62
    15
 10
5.822080
 20
5.774560
 11
6.507600
 21
5.368880
 12
5.620560
 22
5.738480
 13
6.305640
 23
5.332800
  0
POLYLINE
  8
0
  6
CONTINUOUS
 66
     1
 40
0.000000
 41
0.000000
  0
VERTEX
  8
0
  6
CONTINUOUS
 10
5.822080
 20
5.774560
  0
VERTEX
  8
0
  6
CONTINUOUS
 10
6.507600
 20
5.368880
  0
VERTEX
  8
0
  6
CONTINUOUS
 10
6.305640
 20
5.332800
  0
VERTEX
  8
0
  6
CONTINUOUS
 10
5.620560
 20
5.738480
  0
VERTEX
  8
0
  6
CONTINUOUS
 10
5.822080
 20
5.774560
  0
SEQEND
  8
0
  0
SOLID
  8
0
 62
    15
 10
5.620560
 20
5.738480
 11
6.305640
 21
5.332800
 12
5.437520
 22
5.691840
 13
6.123040
 23
5.286160
  0
POLYLINE
  8
0
  6
CONTINUOUS
 66
     1
 40
0.000000
 41
0.000000
  0
VERTEX
  8
0
  6
CONTINUOUS
 10
5.620560
 20
5.738480
  0
VERTEX
  8
0
  6
CONTINUOUS
 10
6.305640
 20
5.332800
  0
VERTEX
  8
0
  6
CONTINUOUS
 10
6.123040
 20
5.286160
  0
VERTEX
  8
0
  6
CONTINUOUS
 10
5.437520
 20
5.691840
  0
VERTEX
  8
0
  6
CONTINUOUS
 10
5.620560
 20
5.738480
  0
SEQEND
  8
0
  0
SOLID
  8
0
 62
    15
 10
5.437520
 20
5.691840
 11
6.123040
 21
5.286160
 12
5.272080
 22
5.635520
 13
5.957600
 23
5.229400
  0
POLYLINE
  8
0
  6
CONTINUOUS
 66
     1
 40
0.000000
 41
0.000000
  0
VERTEX
  8
0
  6
CONTINUOUS
 10
5.437520
 20
5.691840
  0
VERTEX
  8
0
  6
CONTINUOUS
 10
6.123040
 20
5.286160
  0
VERTEX
  8
0
  6
CONTINUOUS
 10
5.957600
 20
5.229400
  0
VERTEX
  8
0
  6
CONTINUOUS
 10
5.272080
 20
5.635520
  0
VERTEX
  8
0
  6
CONTINUOUS
 10
5.437520
 20
5.691840
  0
SEQEND
  8
0
  0
SOLID
  8
0
 62
    15
 10
5.272080
 20
5.635520
 11
5.957600
 21
5.229400
 12
5.122920
 22
5.569520
 13
5.808440
 23
5.163840
  0
POLYLINE
  8
0
  6
CONTINUOUS
 66
     1
 40
0.000000
 41
0.000000
  0
VERTEX
  8
0
  6
CONTINUOUS
 10
5.272080
 20
5.635520
  0
VERTEX
  8
0
  6
CONTINUOUS
 10
5.957600
 20
5.229400
  0
VERTEX
  8
0
  6
CONTINUOUS
 10
5.808440
 20
5.163840
  0
VERTEX
  8
0
  6
CONTINUOUS
 10
5.122920
 20
5.569520
  0
VERTEX
  8
0
  6
CONTINUOUS
 10
5.272080
 20
5.635520
  0
SEQEND
  8
0
  0
SOLID
  8
0
 62
    15
 10
5.122920
 20
5.569520
 11
5.808440
 21
5.163840
 12
4.867720
 22
5.412880
 13
5.553240
 23
5.007200
  0
POLYLINE
  8
0
  6
CONTINUOUS
 66
     1
 40
0.000000
 41
0.000000
  0
VERTEX
  8
0
  6
CONTINUOUS
 10
5.122920
 20
5.569520
  0
VERTEX
  8
0
  6
CONTINUOUS
 10
5.808440
 20
5.163840
  0
VERTEX
  8
0
  6
CONTINUOUS
 10
5.553240
 20
5.007200
  0
VERTEX
  8
0
  6
CONTINUOUS
 10
4.867720
 20
5.412880
  0
VERTEX
  8
0
  6
CONTINUOUS
 10
5.122920
 20
5.569520
  0
SEQEND
  8
0
  0
SOLID
  8
0
 62
    15
 10
4.867720
 20
5.412880
 11
5.553240
 21
5.007200
 12
4.661800
 22
5.227640
 13
5.347320
 23
4.821520
  0
POLYLINE
  8
0
  6
CONTINUOUS
 66
     1
 40
0.000000
 41
0.000000
  0
VERTEX
  8
0
  6
CONTINUOUS
 10
4.867720
 20
5.412880
  0
VERTEX
  8
0
  6
CONTINUOUS
 10
5.553240
 20
5.007200
  0
VERTEX
  8
0
  6
CONTINUOUS
 10
5.347320
 20
4.821520
  0
VERTEX
  8
0
  6
CONTINUOUS
 10
4.661800
 20
5.227640
  0
VERTEX
  8
0
  6
CONTINUOUS
 10
4.867720
 20
5.412880
  0
SEQEND
  8
0
  0
SOLID
  8
0
 62
    15
 10
4.661800
 20
5.227640
 11
5.347320
 21
4.821520
 12
4.494600
 22
5.019080
 13
5.180120
 23
4.612960
  0
POLYLINE
  8
0
  6
CONTINUOUS
 66
     1
 40
0.000000
 41
0.000000
  0
VERTEX
  8
0
  6
CONTINUOUS
 10
4.661800
 20
5.227640
  0
VERTEX
  8
0
  6
CONTINUOUS
 10
5.347320
 20
4.821520
  0
VERTEX
  8
0
  6
CONTINUOUS
 10
5.180120
 20
4.612960
  0
VERTEX
  8
0
  6
CONTINUOUS
 10
4.494600
 20
5.019080
  0
VERTEX
  8
0
  6
CONTINUOUS
 10
4.661800
 20
5.227640
  0
SEQEND
  8
0
  0
SOLID
  8
0
 62
    15
 10
2.233880
 20
2.797080
 11
2.918960
 21
2.390960
 12
2.140160
 22
2.082080
 13
2.825680
 23
1.675960
  0
POLYLINE
  8
0
  6
CONTINUOUS
 66
     1
 40
0.000000
 41
0.000000
  0
VERTEX
  8
0
  6
CONTINUOUS
 10
2.233880
 20
2.797080
  0
VERTEX
  8
0
  6
CONTINUOUS
 10
2.918960
 20
2.390960
  0
VERTEX
  8
0
  6
CONTINUOUS
 10
2.825680
 20
1.675960
  0
VERTEX
  8
0
  6
CONTINUOUS
 10
2.140160
 20
2.082080
  0
VERTEX
  8
0
  6
CONTINUOUS
 10
2.233880
 20
2.797080
  0
SEQEND
  8
0
  0
SOLID
  8
0
 62
    15
 10
4.356000
 20
4.792920
 11
5.041520
 21
4.387240
 12
4.122360
 22
4.310680
 13
4.807880
 23
3.905000
  0
POLYLINE
  8
0
  6
CONTINUOUS
 66
     1
 40
0.000000
 41
0.000000
  0
VERTEX
  8
0
  6
CONTINUOUS
 10
4.356000
 20
4.792920
  0
VERTEX
  8
0
  6
CONTINUOUS
 10
5.041520
 20
4.387240
  0
VERTEX
  8
0
  6
CONTINUOUS
 10
4.807880
 20
3.905000
  0
VERTEX
  8
0
  6
CONTINUOUS
 10
4.122360
 20
4.310680
  0
VERTEX
  8
0
  6
CONTINUOUS
 10
4.356000
 20
4.792920
  0
SEQEND
  8
0
  0
SOLID
  8
0
 62
    15
 10
4.122360
 20
4.310680
 11
4.807880
 21
3.905000
 12
3.877720
 22
3.825360
 13
4.563240
 23
3.419680
  0
POLYLINE
  8
0
  6
CONTINUOUS
 66
     1
 40
0.000000
 41
0.000000
  0
VERTEX
  8
0
  6
CONTINUOUS
 10
4.122360
 20
4.310680
  0
VERTEX
  8
0
  6
CONTINUOUS
 10
4.807880
 20
3.905000
  0
VERTEX
  8
0
  6
CONTINUOUS
 10
4.563240
 20
3.419680
  0
VERTEX
  8
0
  6
CONTINUOUS
 10
3.877720
 20
3.825360
  0
VERTEX
  8
0
  6
CONTINUOUS
 10
4.122360
 20
4.310680
  0
SEQEND
  8
0
  0
SOLID
  8
0
 62
    15
 10
3.877720
 20
3.825360
 11
4.563240
 21
3.419680
 12
3.725480
 22
3.595680
 13
4.411000
 23
3.190000
  0
POLYLINE
  8
0
  6
CONTINUOUS
 66
     1
 40
0.000000
 41
0.000000
  0
VERTEX
  8
0
  6
CONTINUOUS
 10
3.877720
 20
3.825360
  0
VERTEX
  8
0
  6
CONTINUOUS
 10
4.563240
 20
3.419680
  0
VERTEX
  8
0
  6
CONTINUOUS
 10
4.411000
 20
3.190000
  0
VERTEX
  8
0
  6
CONTINUOUS
 10
3.725480
 20
3.595680
  0
VERTEX
  8
0
  6
CONTINUOUS
 10
3.877720
 20
3.825360
  0
SEQEND
  8
0
  0
SOLID
  8
0
 62
    15
 10
3.725480
 20
3.595680
 11
4.411000
 21
3.190000
 12
3.539360
 22
3.381840
 13
4.224880
 23
2.975720
  0
POLYLINE
  8
0
  6
CONTINUOUS
 66
     1
 40
0.000000
 41
0.000000
  0
VERTEX
  8
0
  6
CONTINUOUS
 10
3.725480
 20
3.595680
  0
VERTEX
  8
0
  6
CONTINUOUS
 10
4.411000
 20
3.190000
  0
VERTEX
  8
0
  6
CONTINUOUS
 10
4.224880
 20
2.975720
  0
VERTEX
  8
0
  6
CONTINUOUS
 10
3.539360
 20
3.381840
  0
VERTEX
  8
0
  6
CONTINUOUS
 10
3.725480
 20
3.595680
  0
SEQEND
  8
0
  0
SOLID
  8
0
 62
    15
 10
3.539360
 20
3.381840
 11
4.224880
 21
2.975720
 12
3.309240
 22
3.189560
 13
3.994320
 23
2.783440
  0
POLYLINE
  8
0
  6
CONTINUOUS
 66
     1
 40
0.000000
 41
0.000000
  0
VERTEX
  8
0
  6
CONTINUOUS
 10
3.539360
 20
3.381840
  0
VERTEX
  8
0
  6
CONTINUOUS
 10
4.224880
 20
2.975720
  0
VERTEX
  8
0
  6
CONTINUOUS
 10
3.994320
 20
2.783440
  0
VERTEX
  8
0
  6
CONTINUOUS
 10
3.309240
 20
3.189560
  0
VERTEX
  8
0
  6
CONTINUOUS
 10
3.539360
 20
3.381840
  0
SEQEND
  8
0
  0
SOLID
  8
0
 62
    15
 10
3.309240
 20
3.189560
 11
3.994320
 21
2.783440
 12
3.024120
 22
3.024120
 13
3.709640
 23
2.618000
  0
POLYLINE
  8
0
  6
CONTINUOUS
 66
     1
 40
0.000000
 41
0.000000
  0
VERTEX
  8
0
  6
CONTINUOUS
 10
3.309240
 20
3.189560
  0
VERTEX
  8
0
  6
CONTINUOUS
 10
3.994320
 20
2.783440
  0
VERTEX
  8
0
  6
CONTINUOUS
 10
3.709640
 20
2.618000
  0
VERTEX
  8
0
  6
CONTINUOUS
 10
3.024120
 20
3.024120
  0
VERTEX
  8
0
  6
CONTINUOUS
 10
3.309240
 20
3.189560
  0
SEQEND
  8
0
  0
SOLID
  8
0
 62
    15
 10
3.024120
 20
3.024120
 11
3.709640
 21
2.618000
 12
2.857800
 22
2.953280
 13
3.543320
 23
2.547600
  0
POLYLINE
  8
0
  6
CONTINUOUS
 66
     1
 40
0.000000
 41
0.000000
  0
VERTEX
  8
0
  6
CONTINUOUS
 10
3.024120
 20
3.024120
  0
VERTEX
  8
0
  6
CONTINUOUS
 10
3.709640
 20
2.618000
  0
VERTEX
  8
0
  6
CONTINUOUS
 10
3.543320
 20
2.547600
  0
VERTEX
  8
0
  6
CONTINUOUS
 10
2.857800
 20
2.953280
  0
VERTEX
  8
0
  6
CONTINUOUS
 10
3.024120
 20
3.024120
  0
SEQEND
  8
0
  0
SOLID
  8
0
 62
    15
 10
2.857800
 20
2.953280
 11
3.543320
 21
2.547600
 12
2.674320
 22
2.891240
 13
3.359400
 23
2.485560
  0
POLYLINE
  8
0
  6
CONTINUOUS
 66
     1
 40
0.000000
 41
0.000000
  0
VERTEX
  8
0
  6
CONTINUOUS
 10
2.857800
 20
2.953280
  0
VERTEX
  8
0
  6
CONTINUOUS
 10
3.543320
 20
2.547600
  0
VERTEX
  8
0
  6
CONTINUOUS
 10
3.359400
 20
2.485560
  0
VERTEX
  8
0
  6
CONTINUOUS
 10
2.674320
 20
2.891240
  0
VERTEX
  8
0
  6
CONTINUOUS
 10
2.857800
 20
2.953280
  0
SEQEND
  8
0
  0
SOLID
  8
0
 62
    15
 10
2.674320
 20
2.891240
 11
3.359400
 21
2.485560
 12
2.471480
 22
2.839320
 13
3.157000
 23
2.433200
  0
POLYLINE
  8
0
  6
CONTINUOUS
 66
     1
 40
0.000000
 41
0.000000
  0
VERTEX
  8
0
  6
CONTINUOUS
 10
2.674320
 20
2.891240
  0
VERTEX
  8
0
  6
CONTINUOUS
 10
3.359400
 20
2.485560
  0
VERTEX
  8
0
  6
CONTINUOUS
 10
3.157000
 20
2.433200
  0
VERTEX
  8
0
  6
CONTINUOUS
 10
2.471480
 20
2.839320
  0
VERTEX
  8
0
  6
CONTINUOUS
 10
2.674320
 20
2.891240
  0
SEQEND
  8
0
  0
SOLID
  8
0
 62
    15
 10
2.471480
 20
2.839320
 11
3.157000
 21
2.433200
 12
2.248840
 22
2.797080
 13
2.934360
 23
2.390960
  0
POLYLINE
  8
0
  6
CONTINUOUS
 66
     1
 40
0.000000
 41
0.000000
  0
VERTEX
  8
0
  6
CONTINUOUS
 10
2.471480
 20
2.839320
  0
VERTEX
  8
0
  6
CONTINUOUS
 10
3.157000
 20
2.433200
  0
VERTEX
  8
0
  6
CONTINUOUS
 10
2.934360
 20
2.390960
  0
VERTEX
  8
0
  6
CONTINUOUS
 10
2.248840
 20
2.797080
  0
VERTEX
  8
0
  6
CONTINUOUS
 10
2.471480
 20
2.839320
  0
SEQEND
  8
0
  0
SOLID
  8
0
 62
    15
 10
2.248840
 20
2.797080
 11
2.934360
 21
2.390960
 12
2.233880
 22
2.797080
 13
2.918960
 23
2.390960
  0
POLYLINE
  8
0
  6
CONTINUOUS
 66
     1
 40
0.000000
 41
0.000000
  0
VERTEX
  8
0
  6
CONTINUOUS
 10
2.248840
 20
2.797080
  0
VERTEX
  8
0
  6
CONTINUOUS
 10
2.934360
 20
2.390960
  0
VERTEX
  8
0
  6
CONTINUOUS
 10
2.918960
 20
2.390960
  0
VERTEX
  8
0
  6
CONTINUOUS
 10
2.233880
 20
2.797080
  0
VERTEX
  8
0
  6
CONTINUOUS
 10
2.248840
 20
2.797080
  0
SEQEND
  8
0
  0
POLYLINE
  8
0
  6
CONTINUOUS
 66
     1
 40
0.000000
 41
0.000000
  0
VERTEX
  8
0
  6
CONTINUOUS
 10
2.233880
 20
2.797080
  0
VERTEX
  8
0
  6
CONTINUOUS
 10
2.140160
 20
2.082080
  0
VERTEX
  8
0
  6
CONTINUOUS
 10
1.683880
 20
2.110680
  0
VERTEX
  8
0
  6
CONTINUOUS
 10
1.689160
 20
2.749560
  0
VERTEX
  8
0
  6
CONTINUOUS
 10
1.689160
 20
2.764960
  0
VERTEX
  8
0
  6
CONTINUOUS
 10
4.985640
 20
6.084760
  0
VERTEX
  8
0
  6
CONTINUOUS
 10
5.822960
 20
6.121720
  0
VERTEX
  8
0
  6
CONTINUOUS
 10
5.825160
 20
5.779400
  0
VERTEX
  8
0
  6
CONTINUOUS
 10
5.822080
 20
5.774560
  0
VERTEX
  8
0
  6
CONTINUOUS
 10
5.620560
 20
5.738480
  0
VERTEX
  8
0
  6
CONTINUOUS
 10
5.437520
 20
5.691840
  0
VERTEX
  8
0
  6
CONTINUOUS
 10
5.272080
 20
5.635520
  0
VERTEX
  8
0
  6
CONTINUOUS
 10
5.122920
 20
5.569520
  0
VERTEX
  8
0
  6
CONTINUOUS
 10
4.867720
 20
5.412880
  0
VERTEX
  8
0
  6
CONTINUOUS
 10
4.661800
 20
5.227640
  0
VERTEX
  8
0
  6
CONTINUOUS
 10
4.494600
 20
5.019080
  0
VERTEX
  8
0
  6
CONTINUOUS
 10
4.356000
 20
4.792920
  0
VERTEX
  8
0
  6
CONTINUOUS
 10
4.122360
 20
4.310680
  0
VERTEX
  8
0
  6
CONTINUOUS
 10
3.877720
 20
3.825360
  0
VERTEX
  8
0
  6
CONTINUOUS
 10
3.725480
 20
3.595680
  0
VERTEX
  8
0
  6
CONTINUOUS
 10
3.539360
 20
3.381840
  0
VERTEX
  8
0
  6
CONTINUOUS
 10
3.309240
 20
3.189560
  0
VERTEX
  8
0
  6
CONTINUOUS
 10
3.024120
 20
3.024120
  0
VERTEX
  8
0
  6
CONTINUOUS
 10
2.857800
 20
2.953280
  0
VERTEX
  8
0
  6
CONTINUOUS
 10
2.674320
 20
2.891240
  0
VERTEX
  8
0
  6
CONTINUOUS
 10
2.471480
 20
2.839320
  0
VERTEX
  8
0
  6
CONTINUOUS
 10
2.248840
 20
2.797080
  0
VERTEX
  8
0
  6
CONTINUOUS
 10
2.233880
 20
2.797080
  0
SEQEND
  8
0
  0
TEXT
  8
0
 10
3.279760
 20
1.906960
 40
0.138140
  1
BA  67
 41
1.000000
  7
SN0
 71
     0
 72
     5
 11
3.778317
 21
1.906960
  0
TEXT
  8
0
 10
3.077800
 20
1.715560
 40
0.138140
  1
7/8" x 5-3/4"
 41
1.000000
  7
SN0
 71
     0
 72
     5
 11
3.979649
 21
1.715560
  0
ENDSEC
  0
EOF
