  0
SECTION
  2
HEADER
  9
$ACADVER
  1
AC1006
  9
$EXTMIN
 10
2.008160
 20
2.395800
  9
$EXTMAX
 10
5.683920
 20
5.316080
  9
$LTSCALE
 40
0.044000
  9
$PDMODE
 70
    35
  9
$PDSIZE
 40
0.035200
  0
ENDSEC
  0
SECTION
  2
TABLES
  0
TABLE
  2
LTYPE
 70
     9
  0
LTYPE
  2
CONTINUOUS
 70
    64
  3
Solid line
 72
    65
 73
     0
 40
0.000000
  0
LTYPE
  2
DASHED
 70
    64
  3
__ __ __ __ __ __ __ __ __ __ __ __ __ __ __
 72
    65
 73
     2
 40
0.000330
 49
0.000220
 49
-0.000110
  0
LTYPE
  2
HIDDEN
 70
    64
  3
 _ _ _ _ _ _ _ _ _ _ _ _ _ _ _ _ _ _ _ _ _ _
 72
    65
 73
     2
 40
0.000165
 49
0.000110
 49
-0.000055
  0
LTYPE
  2
CENTER
 70
    64
  3
____ _ ____ _ ____ _ ____ _ ____ _ ____ _ ____
 72
    65
 73
     4
 40
0.000880
 49
0.000550
 49
-0.000110
 49
0.000110
 49
-0.000110
  0
LTYPE
  2
PHANTOM
 70
    64
  3
_____ _ _ _____ _ _ _____ _ _ _____ _ _ ____
 72
    65
 73
     6
 40
0.001100
 49
0.000550
 49
-0.000110
 49
0.000110
 49
-0.000110
 49
0.000110
 49
-0.000110
  0
LTYPE
  2
DOT
 70
    64
  3
...............................................
 72
    65
 73
     2
 40
0.000110
 49
0.000000
 49
-0.000110
  0
LTYPE
  2
DASHDOT
 70
    64
  3
__ . __ . __ . __ . __ . __ . __ . __ . __ . __
 72
    65
 73
     4
 40
0.000440
 49
0.000220
 49
-0.000110
 49
0.000000
 49
-0.000110
  0
LTYPE
  2
BORDER
 70
    64
  3
__ __ . __ __ . __ __ . __ __ . __ __ . __ __
 72
    65
 73
     6
 40
0.000770
 49
0.000220
 49
-0.000110
 49
0.000220
 49
-0.000110
 49
0.000000
 49
-0.000110
  0
LTYPE
  2
DIVIDE
 70
    64
  3
__ . . __ . . __ . . __ . . __ . . __ . . __
 72
    65
 73
     6
 40
0.000550
 49
0.000220
 49
-0.000110
 49
0.000000
 49
-0.000110
 49
0.000000
 49
-0.000110
  0
LTYPE
  2
DOTDOT
 70
    64
  3
 . .  . .  . .  . .  . .  . . 
 72
    65
 73
     5
 40
0.000242
 49
-0.000110
 49
0.000000
 49
-0.000110
 49
0.000000
 49
-0.000110
  0
ENDTAB
  0
TABLE
  2
STYLE
 70
     2
  0
STYLE
 70
     0
  2
SN0
 40
0.000000
 41
0.000440
 50
0.000000
 71
     0
 42
0.000000
  3
ROMAND
  0
STYLE
 70
    68
  2
SV0
 40
0.000000
 41
0.000440
 50
0.000000
 71
     0
 42
0.000000
  3
ROMAND
  0
ENDTAB
  0
TABLE
  2
LAYER
 70
     3
  0
LAYER
  2
FOREGROUND
 70
    64
 62
     7
  6
CONTINUOUS
  0
LAYER
  2
BACKGROUND
 70
    65
 62
    -7
  6
CONTINUOUS
  0
LAYER
  2
0
 70
    64
 62
     7
  6
CONTINUOUS
  0
ENDTAB
  0
ENDSEC
  0
SECTION
  2
ENTITIES
  0
POLYLINE
  8
FOREGROUND
  6
CONTINUOUS
 66
     1
 40
0.000000
 41
0.000000
  0
VERTEX
  8
FOREGROUND
  6
CONTINUOUS
 10
0.000000
 20
7.711880
  0
VERTEX
  8
FOREGROUND
  6
CONTINUOUS
 10
8.499920
 20
7.711880
  0
VERTEX
  8
FOREGROUND
  6
CONTINUOUS
 10
8.499920
 20
-3.288120
  0
VERTEX
  8
FOREGROUND
  6
CONTINUOUS
 10
0.000000
 20
-3.288120
  0
VERTEX
  8
FOREGROUND
  6
CONTINUOUS
 10
0.000000
 20
7.711880
  0
SEQEND
  8
0
  0
POLYLINE
  8
FOREGROUND
  6
CONTINUOUS
 66
     1
 40
0.000000
 41
0.000000
  0
VERTEX
  8
FOREGROUND
  6
CONTINUOUS
 10
0.000000
 20
7.711880
  0
VERTEX
  8
FOREGROUND
  6
CONTINUOUS
 10
8.499920
 20
7.711880
  0
VERTEX
  8
FOREGROUND
  6
CONTINUOUS
 10
8.499920
 20
-3.288120
  0
VERTEX
  8
FOREGROUND
  6
CONTINUOUS
 10
0.000000
 20
-3.288120
  0
VERTEX
  8
FOREGROUND
  6
CONTINUOUS
 10
0.000000
 20
7.711880
  0
SEQEND
  8
0
  0
POLYLINE
  8
0
  6
CONTINUOUS
 66
     1
 40
0.014080
 41
0.014080
  0
VERTEX
  8
0
  6
CONTINUOUS
 10
2.647480
 20
5.308600
  0
VERTEX
  8
0
  6
CONTINUOUS
 10
2.647480
 20
5.093880
  0
VERTEX
  8
0
  6
CONTINUOUS
 10
2.730200
 20
5.150640
  0
VERTEX
  8
0
  6
CONTINUOUS
 10
2.805000
 20
5.194200
  0
VERTEX
  8
0
  6
CONTINUOUS
 10
2.876720
 20
5.227640
  0
VERTEX
  8
0
  6
CONTINUOUS
 10
2.911480
 20
5.240840
  0
VERTEX
  8
0
  6
CONTINUOUS
 10
2.979680
 20
5.260200
  0
VERTEX
  8
0
  6
CONTINUOUS
 10
3.012680
 20
5.267240
  0
VERTEX
  8
0
  6
CONTINUOUS
 10
3.077360
 20
5.274720
  0
VERTEX
  8
0
  6
CONTINUOUS
 10
3.140280
 20
5.275160
  0
VERTEX
  8
0
  6
CONTINUOUS
 10
3.201440
 20
5.268560
  0
VERTEX
  8
0
  6
CONTINUOUS
 10
3.260400
 20
5.256680
  0
VERTEX
  8
0
  6
CONTINUOUS
 10
3.318480
 20
5.239520
  0
VERTEX
  8
0
  6
CONTINUOUS
 10
3.375240
 20
5.217960
  0
VERTEX
  8
0
  6
CONTINUOUS
 10
3.430680
 20
5.192880
  0
VERTEX
  8
0
  6
CONTINUOUS
 10
3.485680
 20
5.164280
  0
VERTEX
  8
0
  6
CONTINUOUS
 10
3.539360
 20
5.133920
  0
VERTEX
  8
0
  6
CONTINUOUS
 10
3.752760
 20
5.001480
  0
VERTEX
  8
0
  6
CONTINUOUS
 10
3.806000
 20
4.969800
  0
VERTEX
  8
0
  6
CONTINUOUS
 10
3.887400
 20
4.925360
  0
VERTEX
  8
0
  6
CONTINUOUS
 10
3.941960
 20
4.899400
  0
VERTEX
  8
0
  6
CONTINUOUS
 10
3.997840
 20
4.877400
  0
VERTEX
  8
0
  6
CONTINUOUS
 10
4.055040
 20
4.859360
  0
VERTEX
  8
0
  6
CONTINUOUS
 10
4.083640
 20
4.851880
  0
VERTEX
  8
0
  6
CONTINUOUS
 10
4.142600
 20
4.841760
  0
VERTEX
  8
0
  6
CONTINUOUS
 10
4.172520
 20
4.838680
  0
VERTEX
  8
0
  6
CONTINUOUS
 10
4.203320
 20
4.837360
  0
VERTEX
  8
0
  6
CONTINUOUS
 10
4.234120
 20
4.837800
  0
VERTEX
  8
0
  6
CONTINUOUS
 10
4.265360
 20
4.840000
  0
VERTEX
  8
0
  6
CONTINUOUS
 10
4.297040
 20
4.843960
  0
VERTEX
  8
0
  6
CONTINUOUS
 10
4.329600
 20
4.849680
  0
VERTEX
  8
0
  6
CONTINUOUS
 10
4.362160
 20
4.857600
  0
VERTEX
  8
0
  6
CONTINUOUS
 10
4.395600
 20
4.867720
  0
VERTEX
  8
0
  6
CONTINUOUS
 10
4.429480
 20
4.880040
  0
VERTEX
  8
0
  6
CONTINUOUS
 10
4.481840
 20
4.902920
  0
VERTEX
  8
0
  6
CONTINUOUS
 10
4.535080
 20
4.931080
  0
VERTEX
  8
0
  6
CONTINUOUS
 10
4.610320
 20
4.977720
  0
VERTEX
  8
0
  6
CONTINUOUS
 10
4.794240
 20
4.977720
  0
VERTEX
  8
0
  6
CONTINUOUS
 10
4.795560
 20
4.976400
  0
VERTEX
  8
0
  6
CONTINUOUS
 10
4.798200
 20
4.997960
  0
VERTEX
  8
0
  6
CONTINUOUS
 10
4.802160
 20
5.018200
  0
VERTEX
  8
0
  6
CONTINUOUS
 10
4.814480
 20
5.054280
  0
VERTEX
  8
0
  6
CONTINUOUS
 10
4.831640
 20
5.084200
  0
VERTEX
  8
0
  6
CONTINUOUS
 10
4.853200
 20
5.108400
  0
VERTEX
  8
0
  6
CONTINUOUS
 10
4.877400
 20
5.126880
  0
VERTEX
  8
0
  6
CONTINUOUS
 10
4.904240
 20
5.139640
  0
VERTEX
  8
0
  6
CONTINUOUS
 10
4.932400
 20
5.146680
  0
VERTEX
  8
0
  6
CONTINUOUS
 10
4.961440
 20
5.148440
  0
VERTEX
  8
0
  6
CONTINUOUS
 10
4.990040
 20
5.144480
  0
VERTEX
  8
0
  6
CONTINUOUS
 10
5.017760
 20
5.135240
  0
VERTEX
  8
0
  6
CONTINUOUS
 10
5.043280
 20
5.120720
  0
VERTEX
  8
0
  6
CONTINUOUS
 10
5.065720
 20
5.100920
  0
VERTEX
  8
0
  6
CONTINUOUS
 10
5.085080
 20
5.076280
  0
VERTEX
  8
0
  6
CONTINUOUS
 10
5.099600
 20
5.046360
  0
VERTEX
  8
0
  6
CONTINUOUS
 10
5.104880
 20
5.029200
  0
VERTEX
  8
0
  6
CONTINUOUS
 10
5.111040
 20
4.991800
  0
VERTEX
  8
0
  6
CONTINUOUS
 10
5.111480
 20
4.971120
  0
VERTEX
  8
0
  6
CONTINUOUS
 10
5.346440
 20
4.971120
  0
VERTEX
  8
0
  6
CONTINUOUS
 10
5.346440
 20
4.875200
  0
VERTEX
  8
0
  6
CONTINUOUS
 10
5.559400
 20
4.695240
  0
VERTEX
  8
0
  6
CONTINUOUS
 10
5.559400
 20
4.549600
  0
VERTEX
  8
0
  6
CONTINUOUS
 10
2.019600
 20
4.549600
  0
VERTEX
  8
0
  6
CONTINUOUS
 10
2.015640
 20
4.548280
  0
VERTEX
  8
0
  6
CONTINUOUS
 10
2.015640
 20
5.308600
  0
VERTEX
  8
0
  6
CONTINUOUS
 10
2.647480
 20
5.308600
  0
SEQEND
  8
0
  0
SOLID
  8
0
 62
    15
 10
4.518360
 20
3.190000
 11
4.519680
 21
3.936680
 12
4.587000
 22
3.217280
 13
4.588320
 23
3.963520
  0
POLYLINE
  8
0
  6
CONTINUOUS
 66
     1
 40
0.000000
 41
0.000000
  0
VERTEX
  8
0
  6
CONTINUOUS
 10
4.518360
 20
3.190000
  0
VERTEX
  8
0
  6
CONTINUOUS
 10
4.519680
 20
3.936680
  0
VERTEX
  8
0
  6
CONTINUOUS
 10
4.588320
 20
3.963520
  0
VERTEX
  8
0
  6
CONTINUOUS
 10
4.587000
 20
3.217280
  0
VERTEX
  8
0
  6
CONTINUOUS
 10
4.518360
 20
3.190000
  0
SEQEND
  8
0
  0
SOLID
  8
0
 62
    15
 10
2.770240
 20
3.416160
 11
2.771560
 21
4.162400
 12
2.775520
 22
3.418800
 13
2.776840
 23
4.165480
  0
POLYLINE
  8
0
  6
CONTINUOUS
 66
     1
 40
0.000000
 41
0.000000
  0
VERTEX
  8
0
  6
CONTINUOUS
 10
2.770240
 20
3.416160
  0
VERTEX
  8
0
  6
CONTINUOUS
 10
2.771560
 20
4.162400
  0
VERTEX
  8
0
  6
CONTINUOUS
 10
2.776840
 20
4.165480
  0
VERTEX
  8
0
  6
CONTINUOUS
 10
2.775520
 20
3.418800
  0
VERTEX
  8
0
  6
CONTINUOUS
 10
2.770240
 20
3.416160
  0
SEQEND
  8
0
  0
SOLID
  8
0
 62
    15
 10
2.775520
 20
3.418800
 11
2.776840
 21
4.165480
 12
2.852960
 22
3.472920
 13
2.854280
 23
4.219600
  0
POLYLINE
  8
0
  6
CONTINUOUS
 66
     1
 40
0.000000
 41
0.000000
  0
VERTEX
  8
0
  6
CONTINUOUS
 10
2.775520
 20
3.418800
  0
VERTEX
  8
0
  6
CONTINUOUS
 10
2.776840
 20
4.165480
  0
VERTEX
  8
0
  6
CONTINUOUS
 10
2.854280
 20
4.219600
  0
VERTEX
  8
0
  6
CONTINUOUS
 10
2.852960
 20
3.472920
  0
VERTEX
  8
0
  6
CONTINUOUS
 10
2.775520
 20
3.418800
  0
SEQEND
  8
0
  0
SOLID
  8
0
 62
    15
 10
2.852960
 20
3.472920
 11
2.854280
 21
4.219600
 12
2.927760
 22
3.516480
 13
2.929080
 23
4.262720
  0
POLYLINE
  8
0
  6
CONTINUOUS
 66
     1
 40
0.000000
 41
0.000000
  0
VERTEX
  8
0
  6
CONTINUOUS
 10
2.852960
 20
3.472920
  0
VERTEX
  8
0
  6
CONTINUOUS
 10
2.854280
 20
4.219600
  0
VERTEX
  8
0
  6
CONTINUOUS
 10
2.929080
 20
4.262720
  0
VERTEX
  8
0
  6
CONTINUOUS
 10
2.927760
 20
3.516480
  0
VERTEX
  8
0
  6
CONTINUOUS
 10
2.852960
 20
3.472920
  0
SEQEND
  8
0
  0
SOLID
  8
0
 62
    15
 10
2.927760
 20
3.516480
 11
2.929080
 21
4.262720
 12
2.999480
 22
3.549920
 13
3.000800
 23
4.296160
  0
POLYLINE
  8
0
  6
CONTINUOUS
 66
     1
 40
0.000000
 41
0.000000
  0
VERTEX
  8
0
  6
CONTINUOUS
 10
2.927760
 20
3.516480
  0
VERTEX
  8
0
  6
CONTINUOUS
 10
2.929080
 20
4.262720
  0
VERTEX
  8
0
  6
CONTINUOUS
 10
3.000800
 20
4.296160
  0
VERTEX
  8
0
  6
CONTINUOUS
 10
2.999480
 20
3.549920
  0
VERTEX
  8
0
  6
CONTINUOUS
 10
2.927760
 20
3.516480
  0
SEQEND
  8
0
  0
SOLID
  8
0
 62
    15
 10
2.999480
 20
3.549920
 11
3.000800
 21
4.296160
 12
3.068560
 22
3.574120
 13
3.069880
 23
4.320360
  0
POLYLINE
  8
0
  6
CONTINUOUS
 66
     1
 40
0.000000
 41
0.000000
  0
VERTEX
  8
0
  6
CONTINUOUS
 10
2.999480
 20
3.549920
  0
VERTEX
  8
0
  6
CONTINUOUS
 10
3.000800
 20
4.296160
  0
VERTEX
  8
0
  6
CONTINUOUS
 10
3.069880
 20
4.320360
  0
VERTEX
  8
0
  6
CONTINUOUS
 10
3.068560
 20
3.574120
  0
VERTEX
  8
0
  6
CONTINUOUS
 10
2.999480
 20
3.549920
  0
SEQEND
  8
0
  0
SOLID
  8
0
 62
    15
 10
3.068560
 20
3.574120
 11
3.069880
 21
4.320360
 12
3.135440
 22
3.589520
 13
3.136760
 23
4.335760
  0
POLYLINE
  8
0
  6
CONTINUOUS
 66
     1
 40
0.000000
 41
0.000000
  0
VERTEX
  8
0
  6
CONTINUOUS
 10
3.068560
 20
3.574120
  0
VERTEX
  8
0
  6
CONTINUOUS
 10
3.069880
 20
4.320360
  0
VERTEX
  8
0
  6
CONTINUOUS
 10
3.136760
 20
4.335760
  0
VERTEX
  8
0
  6
CONTINUOUS
 10
3.135440
 20
3.589520
  0
VERTEX
  8
0
  6
CONTINUOUS
 10
3.068560
 20
3.574120
  0
SEQEND
  8
0
  0
SOLID
  8
0
 62
    15
 10
3.135440
 20
3.589520
 11
3.136760
 21
4.335760
 12
3.200120
 22
3.597000
 13
3.201440
 23
4.343240
  0
POLYLINE
  8
0
  6
CONTINUOUS
 66
     1
 40
0.000000
 41
0.000000
  0
VERTEX
  8
0
  6
CONTINUOUS
 10
3.135440
 20
3.589520
  0
VERTEX
  8
0
  6
CONTINUOUS
 10
3.136760
 20
4.335760
  0
VERTEX
  8
0
  6
CONTINUOUS
 10
3.201440
 20
4.343240
  0
VERTEX
  8
0
  6
CONTINUOUS
 10
3.200120
 20
3.597000
  0
VERTEX
  8
0
  6
CONTINUOUS
 10
3.135440
 20
3.589520
  0
SEQEND
  8
0
  0
SOLID
  8
0
 62
    15
 10
3.200120
 20
3.597000
 11
3.201440
 21
4.343240
 12
3.263040
 22
3.597440
 13
3.264360
 23
4.343680
  0
POLYLINE
  8
0
  6
CONTINUOUS
 66
     1
 40
0.000000
 41
0.000000
  0
VERTEX
  8
0
  6
CONTINUOUS
 10
3.200120
 20
3.597000
  0
VERTEX
  8
0
  6
CONTINUOUS
 10
3.201440
 20
4.343240
  0
VERTEX
  8
0
  6
CONTINUOUS
 10
3.264360
 20
4.343680
  0
VERTEX
  8
0
  6
CONTINUOUS
 10
3.263040
 20
3.597440
  0
VERTEX
  8
0
  6
CONTINUOUS
 10
3.200120
 20
3.597000
  0
SEQEND
  8
0
  0
SOLID
  8
0
 62
    15
 10
3.263040
 20
3.597440
 11
3.264360
 21
4.343680
 12
3.324200
 22
3.591280
 13
3.325520
 23
4.337520
  0
POLYLINE
  8
0
  6
CONTINUOUS
 66
     1
 40
0.000000
 41
0.000000
  0
VERTEX
  8
0
  6
CONTINUOUS
 10
3.263040
 20
3.597440
  0
VERTEX
  8
0
  6
CONTINUOUS
 10
3.264360
 20
4.343680
  0
VERTEX
  8
0
  6
CONTINUOUS
 10
3.325520
 20
4.337520
  0
VERTEX
  8
0
  6
CONTINUOUS
 10
3.324200
 20
3.591280
  0
VERTEX
  8
0
  6
CONTINUOUS
 10
3.263040
 20
3.597440
  0
SEQEND
  8
0
  0
SOLID
  8
0
 62
    15
 10
3.324200
 20
3.591280
 11
3.325520
 21
4.337520
 12
3.383160
 22
3.578960
 13
3.384480
 23
4.325640
  0
POLYLINE
  8
0
  6
CONTINUOUS
 66
     1
 40
0.000000
 41
0.000000
  0
VERTEX
  8
0
  6
CONTINUOUS
 10
3.324200
 20
3.591280
  0
VERTEX
  8
0
  6
CONTINUOUS
 10
3.325520
 20
4.337520
  0
VERTEX
  8
0
  6
CONTINUOUS
 10
3.384480
 20
4.325640
  0
VERTEX
  8
0
  6
CONTINUOUS
 10
3.383160
 20
3.578960
  0
VERTEX
  8
0
  6
CONTINUOUS
 10
3.324200
 20
3.591280
  0
SEQEND
  8
0
  0
SOLID
  8
0
 62
    15
 10
3.383160
 20
3.578960
 11
3.384480
 21
4.325640
 12
3.441240
 22
3.561800
 13
3.442560
 23
4.308480
  0
POLYLINE
  8
0
  6
CONTINUOUS
 66
     1
 40
0.000000
 41
0.000000
  0
VERTEX
  8
0
  6
CONTINUOUS
 10
3.383160
 20
3.578960
  0
VERTEX
  8
0
  6
CONTINUOUS
 10
3.384480
 20
4.325640
  0
VERTEX
  8
0
  6
CONTINUOUS
 10
3.442560
 20
4.308480
  0
VERTEX
  8
0
  6
CONTINUOUS
 10
3.441240
 20
3.561800
  0
VERTEX
  8
0
  6
CONTINUOUS
 10
3.383160
 20
3.578960
  0
SEQEND
  8
0
  0
SOLID
  8
0
 62
    15
 10
3.441240
 20
3.561800
 11
3.442560
 21
4.308480
 12
3.498000
 22
3.540240
 13
3.499320
 23
4.286920
  0
POLYLINE
  8
0
  6
CONTINUOUS
 66
     1
 40
0.000000
 41
0.000000
  0
VERTEX
  8
0
  6
CONTINUOUS
 10
3.441240
 20
3.561800
  0
VERTEX
  8
0
  6
CONTINUOUS
 10
3.442560
 20
4.308480
  0
VERTEX
  8
0
  6
CONTINUOUS
 10
3.499320
 20
4.286920
  0
VERTEX
  8
0
  6
CONTINUOUS
 10
3.498000
 20
3.540240
  0
VERTEX
  8
0
  6
CONTINUOUS
 10
3.441240
 20
3.561800
  0
SEQEND
  8
0
  0
SOLID
  8
0
 62
    15
 10
3.498000
 20
3.540240
 11
3.499320
 21
4.286920
 12
3.553440
 22
3.515160
 13
3.554760
 23
4.261400
  0
POLYLINE
  8
0
  6
CONTINUOUS
 66
     1
 40
0.000000
 41
0.000000
  0
VERTEX
  8
0
  6
CONTINUOUS
 10
3.498000
 20
3.540240
  0
VERTEX
  8
0
  6
CONTINUOUS
 10
3.499320
 20
4.286920
  0
VERTEX
  8
0
  6
CONTINUOUS
 10
3.554760
 20
4.261400
  0
VERTEX
  8
0
  6
CONTINUOUS
 10
3.553440
 20
3.515160
  0
VERTEX
  8
0
  6
CONTINUOUS
 10
3.498000
 20
3.540240
  0
SEQEND
  8
0
  0
SOLID
  8
0
 62
    15
 10
3.553440
 20
3.515160
 11
3.554760
 21
4.261400
 12
3.662120
 22
3.456200
 13
3.663440
 23
4.202440
  0
POLYLINE
  8
0
  6
CONTINUOUS
 66
     1
 40
0.000000
 41
0.000000
  0
VERTEX
  8
0
  6
CONTINUOUS
 10
3.553440
 20
3.515160
  0
VERTEX
  8
0
  6
CONTINUOUS
 10
3.554760
 20
4.261400
  0
VERTEX
  8
0
  6
CONTINUOUS
 10
3.663440
 20
4.202440
  0
VERTEX
  8
0
  6
CONTINUOUS
 10
3.662120
 20
3.456200
  0
VERTEX
  8
0
  6
CONTINUOUS
 10
3.553440
 20
3.515160
  0
SEQEND
  8
0
  0
SOLID
  8
0
 62
    15
 10
3.662120
 20
3.456200
 11
3.663440
 21
4.202440
 12
3.769040
 22
3.390640
 13
3.770360
 23
4.136880
  0
POLYLINE
  8
0
  6
CONTINUOUS
 66
     1
 40
0.000000
 41
0.000000
  0
VERTEX
  8
0
  6
CONTINUOUS
 10
3.662120
 20
3.456200
  0
VERTEX
  8
0
  6
CONTINUOUS
 10
3.663440
 20
4.202440
  0
VERTEX
  8
0
  6
CONTINUOUS
 10
3.770360
 20
4.136880
  0
VERTEX
  8
0
  6
CONTINUOUS
 10
3.769040
 20
3.390640
  0
VERTEX
  8
0
  6
CONTINUOUS
 10
3.662120
 20
3.456200
  0
SEQEND
  8
0
  0
SOLID
  8
0
 62
    15
 10
3.769040
 20
3.390640
 11
3.770360
 21
4.136880
 12
3.822280
 22
3.357200
 13
3.823600
 23
4.103440
  0
POLYLINE
  8
0
  6
CONTINUOUS
 66
     1
 40
0.000000
 41
0.000000
  0
VERTEX
  8
0
  6
CONTINUOUS
 10
3.769040
 20
3.390640
  0
VERTEX
  8
0
  6
CONTINUOUS
 10
3.770360
 20
4.136880
  0
VERTEX
  8
0
  6
CONTINUOUS
 10
3.823600
 20
4.103440
  0
VERTEX
  8
0
  6
CONTINUOUS
 10
3.822280
 20
3.357200
  0
VERTEX
  8
0
  6
CONTINUOUS
 10
3.769040
 20
3.390640
  0
SEQEND
  8
0
  0
SOLID
  8
0
 62
    15
 10
3.822280
 20
3.357200
 11
3.823600
 21
4.103440
 12
3.875520
 22
3.323760
 13
3.876840
 23
4.070440
  0
POLYLINE
  8
0
  6
CONTINUOUS
 66
     1
 40
0.000000
 41
0.000000
  0
VERTEX
  8
0
  6
CONTINUOUS
 10
3.822280
 20
3.357200
  0
VERTEX
  8
0
  6
CONTINUOUS
 10
3.823600
 20
4.103440
  0
VERTEX
  8
0
  6
CONTINUOUS
 10
3.876840
 20
4.070440
  0
VERTEX
  8
0
  6
CONTINUOUS
 10
3.875520
 20
3.323760
  0
VERTEX
  8
0
  6
CONTINUOUS
 10
3.822280
 20
3.357200
  0
SEQEND
  8
0
  0
SOLID
  8
0
 62
    15
 10
3.875520
 20
3.323760
 11
3.876840
 21
4.070440
 12
3.982880
 22
3.262160
 13
3.984200
 23
4.008400
  0
POLYLINE
  8
0
  6
CONTINUOUS
 66
     1
 40
0.000000
 41
0.000000
  0
VERTEX
  8
0
  6
CONTINUOUS
 10
3.875520
 20
3.323760
  0
VERTEX
  8
0
  6
CONTINUOUS
 10
3.876840
 20
4.070440
  0
VERTEX
  8
0
  6
CONTINUOUS
 10
3.984200
 20
4.008400
  0
VERTEX
  8
0
  6
CONTINUOUS
 10
3.982880
 20
3.262160
  0
VERTEX
  8
0
  6
CONTINUOUS
 10
3.875520
 20
3.323760
  0
SEQEND
  8
0
  0
SOLID
  8
0
 62
    15
 10
3.982880
 20
3.262160
 11
3.984200
 21
4.008400
 12
4.092440
 22
3.210240
 13
4.093760
 23
3.956920
  0
POLYLINE
  8
0
  6
CONTINUOUS
 66
     1
 40
0.000000
 41
0.000000
  0
VERTEX
  8
0
  6
CONTINUOUS
 10
3.982880
 20
3.262160
  0
VERTEX
  8
0
  6
CONTINUOUS
 10
3.984200
 20
4.008400
  0
VERTEX
  8
0
  6
CONTINUOUS
 10
4.093760
 20
3.956920
  0
VERTEX
  8
0
  6
CONTINUOUS
 10
4.092440
 20
3.210240
  0
VERTEX
  8
0
  6
CONTINUOUS
 10
3.982880
 20
3.262160
  0
SEQEND
  8
0
  0
SOLID
  8
0
 62
    15
 10
4.092440
 20
3.210240
 11
4.093760
 21
3.956920
 12
4.148760
 22
3.190000
 13
4.150080
 23
3.936240
  0
POLYLINE
  8
0
  6
CONTINUOUS
 66
     1
 40
0.000000
 41
0.000000
  0
VERTEX
  8
0
  6
CONTINUOUS
 10
4.092440
 20
3.210240
  0
VERTEX
  8
0
  6
CONTINUOUS
 10
4.093760
 20
3.956920
  0
VERTEX
  8
0
  6
CONTINUOUS
 10
4.150080
 20
3.936240
  0
VERTEX
  8
0
  6
CONTINUOUS
 10
4.148760
 20
3.190000
  0
VERTEX
  8
0
  6
CONTINUOUS
 10
4.092440
 20
3.210240
  0
SEQEND
  8
0
  0
SOLID
  8
0
 62
    15
 10
4.148760
 20
3.190000
 11
4.150080
 21
3.936240
 12
4.206400
 22
3.174160
 13
4.207720
 23
3.920840
  0
POLYLINE
  8
0
  6
CONTINUOUS
 66
     1
 40
0.000000
 41
0.000000
  0
VERTEX
  8
0
  6
CONTINUOUS
 10
4.148760
 20
3.190000
  0
VERTEX
  8
0
  6
CONTINUOUS
 10
4.150080
 20
3.936240
  0
VERTEX
  8
0
  6
CONTINUOUS
 10
4.207720
 20
3.920840
  0
VERTEX
  8
0
  6
CONTINUOUS
 10
4.206400
 20
3.174160
  0
VERTEX
  8
0
  6
CONTINUOUS
 10
4.148760
 20
3.190000
  0
SEQEND
  8
0
  0
SOLID
  8
0
 62
    15
 10
4.206400
 20
3.174160
 11
4.207720
 21
3.920840
 12
4.265360
 22
3.164040
 13
4.266680
 23
3.910280
  0
POLYLINE
  8
0
  6
CONTINUOUS
 66
     1
 40
0.000000
 41
0.000000
  0
VERTEX
  8
0
  6
CONTINUOUS
 10
4.206400
 20
3.174160
  0
VERTEX
  8
0
  6
CONTINUOUS
 10
4.207720
 20
3.920840
  0
VERTEX
  8
0
  6
CONTINUOUS
 10
4.266680
 20
3.910280
  0
VERTEX
  8
0
  6
CONTINUOUS
 10
4.265360
 20
3.164040
  0
VERTEX
  8
0
  6
CONTINUOUS
 10
4.206400
 20
3.174160
  0
SEQEND
  8
0
  0
SOLID
  8
0
 62
    15
 10
4.265360
 20
3.164040
 11
4.266680
 21
3.910280
 12
4.325640
 22
3.159640
 13
4.326960
 23
3.906320
  0
POLYLINE
  8
0
  6
CONTINUOUS
 66
     1
 40
0.000000
 41
0.000000
  0
VERTEX
  8
0
  6
CONTINUOUS
 10
4.265360
 20
3.164040
  0
VERTEX
  8
0
  6
CONTINUOUS
 10
4.266680
 20
3.910280
  0
VERTEX
  8
0
  6
CONTINUOUS
 10
4.326960
 20
3.906320
  0
VERTEX
  8
0
  6
CONTINUOUS
 10
4.325640
 20
3.159640
  0
VERTEX
  8
0
  6
CONTINUOUS
 10
4.265360
 20
3.164040
  0
SEQEND
  8
0
  0
SOLID
  8
0
 62
    15
 10
4.325640
 20
3.159640
 11
4.326960
 21
3.906320
 12
4.388120
 22
3.162280
 13
4.389000
 23
3.908520
  0
POLYLINE
  8
0
  6
CONTINUOUS
 66
     1
 40
0.000000
 41
0.000000
  0
VERTEX
  8
0
  6
CONTINUOUS
 10
4.325640
 20
3.159640
  0
VERTEX
  8
0
  6
CONTINUOUS
 10
4.326960
 20
3.906320
  0
VERTEX
  8
0
  6
CONTINUOUS
 10
4.389000
 20
3.908520
  0
VERTEX
  8
0
  6
CONTINUOUS
 10
4.388120
 20
3.162280
  0
VERTEX
  8
0
  6
CONTINUOUS
 10
4.325640
 20
3.159640
  0
SEQEND
  8
0
  0
SOLID
  8
0
 62
    15
 10
4.388120
 20
3.162280
 11
4.389000
 21
3.908520
 12
4.451920
 22
3.171960
 13
4.453240
 23
3.918640
  0
POLYLINE
  8
0
  6
CONTINUOUS
 66
     1
 40
0.000000
 41
0.000000
  0
VERTEX
  8
0
  6
CONTINUOUS
 10
4.388120
 20
3.162280
  0
VERTEX
  8
0
  6
CONTINUOUS
 10
4.389000
 20
3.908520
  0
VERTEX
  8
0
  6
CONTINUOUS
 10
4.453240
 20
3.918640
  0
VERTEX
  8
0
  6
CONTINUOUS
 10
4.451920
 20
3.171960
  0
VERTEX
  8
0
  6
CONTINUOUS
 10
4.388120
 20
3.162280
  0
SEQEND
  8
0
  0
SOLID
  8
0
 62
    15
 10
4.451920
 20
3.171960
 11
4.453240
 21
3.918640
 12
4.518360
 22
3.190000
 13
4.519680
 23
3.936680
  0
POLYLINE
  8
0
  6
CONTINUOUS
 66
     1
 40
0.000000
 41
0.000000
  0
VERTEX
  8
0
  6
CONTINUOUS
 10
4.451920
 20
3.171960
  0
VERTEX
  8
0
  6
CONTINUOUS
 10
4.453240
 20
3.918640
  0
VERTEX
  8
0
  6
CONTINUOUS
 10
4.519680
 20
3.936680
  0
VERTEX
  8
0
  6
CONTINUOUS
 10
4.518360
 20
3.190000
  0
VERTEX
  8
0
  6
CONTINUOUS
 10
4.451920
 20
3.171960
  0
SEQEND
  8
0
  0
SOLID
  8
0
 62
    15
 10
2.770240
 20
3.630880
 11
2.771560
 21
4.377120
 12
2.770240
 22
3.416160
 13
2.771560
 23
4.162400
  0
POLYLINE
  8
0
  6
CONTINUOUS
 66
     1
 40
0.000000
 41
0.000000
  0
VERTEX
  8
0
  6
CONTINUOUS
 10
2.770240
 20
3.630880
  0
VERTEX
  8
0
  6
CONTINUOUS
 10
2.771560
 20
4.377120
  0
VERTEX
  8
0
  6
CONTINUOUS
 10
2.771560
 20
4.162400
  0
VERTEX
  8
0
  6
CONTINUOUS
 10
2.770240
 20
3.416160
  0
VERTEX
  8
0
  6
CONTINUOUS
 10
2.770240
 20
3.630880
  0
SEQEND
  8
0
  0
SOLID
  8
0
 62
    15
 10
4.587000
 20
3.217280
 11
4.588320
 21
3.963520
 12
4.657840
 22
3.253360
 13
4.659160
 23
4.000040
  0
POLYLINE
  8
0
  6
CONTINUOUS
 66
     1
 40
0.000000
 41
0.000000
  0
VERTEX
  8
0
  6
CONTINUOUS
 10
4.587000
 20
3.217280
  0
VERTEX
  8
0
  6
CONTINUOUS
 10
4.588320
 20
3.963520
  0
VERTEX
  8
0
  6
CONTINUOUS
 10
4.659160
 20
4.000040
  0
VERTEX
  8
0
  6
CONTINUOUS
 10
4.657840
 20
3.253360
  0
VERTEX
  8
0
  6
CONTINUOUS
 10
4.587000
 20
3.217280
  0
SEQEND
  8
0
  0
SOLID
  8
0
 62
    15
 10
4.657840
 20
3.253360
 11
4.659160
 21
4.000040
 12
4.731760
 22
3.300000
 13
4.733080
 23
4.046680
  0
POLYLINE
  8
0
  6
CONTINUOUS
 66
     1
 40
0.000000
 41
0.000000
  0
VERTEX
  8
0
  6
CONTINUOUS
 10
4.657840
 20
3.253360
  0
VERTEX
  8
0
  6
CONTINUOUS
 10
4.659160
 20
4.000040
  0
VERTEX
  8
0
  6
CONTINUOUS
 10
4.733080
 20
4.046680
  0
VERTEX
  8
0
  6
CONTINUOUS
 10
4.731760
 20
3.300000
  0
VERTEX
  8
0
  6
CONTINUOUS
 10
4.657840
 20
3.253360
  0
SEQEND
  8
0
  0
SOLID
  8
0
 62
    15
 10
4.731760
 20
3.300000
 11
4.733080
 21
4.046680
 12
4.917000
 22
3.300000
 13
4.918320
 23
4.046680
  0
POLYLINE
  8
0
  6
CONTINUOUS
 66
     1
 40
0.000000
 41
0.000000
  0
VERTEX
  8
0
  6
CONTINUOUS
 10
4.731760
 20
3.300000
  0
VERTEX
  8
0
  6
CONTINUOUS
 10
4.733080
 20
4.046680
  0
VERTEX
  8
0
  6
CONTINUOUS
 10
4.918320
 20
4.046680
  0
VERTEX
  8
0
  6
CONTINUOUS
 10
4.917000
 20
3.300000
  0
VERTEX
  8
0
  6
CONTINUOUS
 10
4.731760
 20
3.300000
  0
SEQEND
  8
0
  0
SOLID
  8
0
 62
    15
 10
4.917000
 20
3.300000
 11
4.918320
 21
4.046680
 12
4.918320
 22
3.298680
 13
4.919640
 23
4.045360
  0
POLYLINE
  8
0
  6
CONTINUOUS
 66
     1
 40
0.000000
 41
0.000000
  0
VERTEX
  8
0
  6
CONTINUOUS
 10
4.917000
 20
3.300000
  0
VERTEX
  8
0
  6
CONTINUOUS
 10
4.918320
 20
4.046680
  0
VERTEX
  8
0
  6
CONTINUOUS
 10
4.919640
 20
4.045360
  0
VERTEX
  8
0
  6
CONTINUOUS
 10
4.918320
 20
3.298680
  0
VERTEX
  8
0
  6
CONTINUOUS
 10
4.917000
 20
3.300000
  0
SEQEND
  8
0
  0
SOLID
  8
0
 62
    15
 10
4.918320
 20
3.298680
 11
4.919640
 21
4.045360
 12
4.924920
 22
3.340480
 13
4.926240
 23
4.087160
  0
POLYLINE
  8
0
  6
CONTINUOUS
 66
     1
 40
0.000000
 41
0.000000
  0
VERTEX
  8
0
  6
CONTINUOUS
 10
4.918320
 20
3.298680
  0
VERTEX
  8
0
  6
CONTINUOUS
 10
4.919640
 20
4.045360
  0
VERTEX
  8
0
  6
CONTINUOUS
 10
4.926240
 20
4.087160
  0
VERTEX
  8
0
  6
CONTINUOUS
 10
4.924920
 20
3.340480
  0
VERTEX
  8
0
  6
CONTINUOUS
 10
4.918320
 20
3.298680
  0
SEQEND
  8
0
  0
SOLID
  8
0
 62
    15
 10
4.924920
 20
3.340480
 11
4.926240
 21
4.087160
 12
4.937240
 22
3.376560
 13
4.938560
 23
4.122800
  0
POLYLINE
  8
0
  6
CONTINUOUS
 66
     1
 40
0.000000
 41
0.000000
  0
VERTEX
  8
0
  6
CONTINUOUS
 10
4.924920
 20
3.340480
  0
VERTEX
  8
0
  6
CONTINUOUS
 10
4.926240
 20
4.087160
  0
VERTEX
  8
0
  6
CONTINUOUS
 10
4.938560
 20
4.122800
  0
VERTEX
  8
0
  6
CONTINUOUS
 10
4.937240
 20
3.376560
  0
VERTEX
  8
0
  6
CONTINUOUS
 10
4.924920
 20
3.340480
  0
SEQEND
  8
0
  0
SOLID
  8
0
 62
    15
 10
4.937240
 20
3.376560
 11
4.938560
 21
4.122800
 12
4.954400
 22
3.406480
 13
4.955720
 23
4.153160
  0
POLYLINE
  8
0
  6
CONTINUOUS
 66
     1
 40
0.000000
 41
0.000000
  0
VERTEX
  8
0
  6
CONTINUOUS
 10
4.937240
 20
3.376560
  0
VERTEX
  8
0
  6
CONTINUOUS
 10
4.938560
 20
4.122800
  0
VERTEX
  8
0
  6
CONTINUOUS
 10
4.955720
 20
4.153160
  0
VERTEX
  8
0
  6
CONTINUOUS
 10
4.954400
 20
3.406480
  0
VERTEX
  8
0
  6
CONTINUOUS
 10
4.937240
 20
3.376560
  0
SEQEND
  8
0
  0
SOLID
  8
0
 62
    15
 10
4.954400
 20
3.406480
 11
4.955720
 21
4.153160
 12
4.975960
 22
3.430680
 13
4.977280
 23
4.176920
  0
POLYLINE
  8
0
  6
CONTINUOUS
 66
     1
 40
0.000000
 41
0.000000
  0
VERTEX
  8
0
  6
CONTINUOUS
 10
4.954400
 20
3.406480
  0
VERTEX
  8
0
  6
CONTINUOUS
 10
4.955720
 20
4.153160
  0
VERTEX
  8
0
  6
CONTINUOUS
 10
4.977280
 20
4.176920
  0
VERTEX
  8
0
  6
CONTINUOUS
 10
4.975960
 20
3.430680
  0
VERTEX
  8
0
  6
CONTINUOUS
 10
4.954400
 20
3.406480
  0
SEQEND
  8
0
  0
SOLID
  8
0
 62
    15
 10
4.975960
 20
3.430680
 11
4.977280
 21
4.176920
 12
5.000160
 22
3.449160
 13
5.001480
 23
4.195400
  0
POLYLINE
  8
0
  6
CONTINUOUS
 66
     1
 40
0.000000
 41
0.000000
  0
VERTEX
  8
0
  6
CONTINUOUS
 10
4.975960
 20
3.430680
  0
VERTEX
  8
0
  6
CONTINUOUS
 10
4.977280
 20
4.176920
  0
VERTEX
  8
0
  6
CONTINUOUS
 10
5.001480
 20
4.195400
  0
VERTEX
  8
0
  6
CONTINUOUS
 10
5.000160
 20
3.449160
  0
VERTEX
  8
0
  6
CONTINUOUS
 10
4.975960
 20
3.430680
  0
SEQEND
  8
0
  0
SOLID
  8
0
 62
    15
 10
5.000160
 20
3.449160
 11
5.001480
 21
4.195400
 12
5.027000
 22
3.461920
 13
5.028320
 23
4.208160
  0
POLYLINE
  8
0
  6
CONTINUOUS
 66
     1
 40
0.000000
 41
0.000000
  0
VERTEX
  8
0
  6
CONTINUOUS
 10
5.000160
 20
3.449160
  0
VERTEX
  8
0
  6
CONTINUOUS
 10
5.001480
 20
4.195400
  0
VERTEX
  8
0
  6
CONTINUOUS
 10
5.028320
 20
4.208160
  0
VERTEX
  8
0
  6
CONTINUOUS
 10
5.027000
 20
3.461920
  0
VERTEX
  8
0
  6
CONTINUOUS
 10
5.000160
 20
3.449160
  0
SEQEND
  8
0
  0
SOLID
  8
0
 62
    15
 10
5.027000
 20
3.461920
 11
5.028320
 21
4.208160
 12
5.055160
 22
3.468960
 13
5.056480
 23
4.215640
  0
POLYLINE
  8
0
  6
CONTINUOUS
 66
     1
 40
0.000000
 41
0.000000
  0
VERTEX
  8
0
  6
CONTINUOUS
 10
5.027000
 20
3.461920
  0
VERTEX
  8
0
  6
CONTINUOUS
 10
5.028320
 20
4.208160
  0
VERTEX
  8
0
  6
CONTINUOUS
 10
5.056480
 20
4.215640
  0
VERTEX
  8
0
  6
CONTINUOUS
 10
5.055160
 20
3.468960
  0
VERTEX
  8
0
  6
CONTINUOUS
 10
5.027000
 20
3.461920
  0
SEQEND
  8
0
  0
SOLID
  8
0
 62
    15
 10
5.055160
 20
3.468960
 11
5.056480
 21
4.215640
 12
5.084200
 22
3.470720
 13
5.085520
 23
4.216960
  0
POLYLINE
  8
0
  6
CONTINUOUS
 66
     1
 40
0.000000
 41
0.000000
  0
VERTEX
  8
0
  6
CONTINUOUS
 10
5.055160
 20
3.468960
  0
VERTEX
  8
0
  6
CONTINUOUS
 10
5.056480
 20
4.215640
  0
VERTEX
  8
0
  6
CONTINUOUS
 10
5.085520
 20
4.216960
  0
VERTEX
  8
0
  6
CONTINUOUS
 10
5.084200
 20
3.470720
  0
VERTEX
  8
0
  6
CONTINUOUS
 10
5.055160
 20
3.468960
  0
SEQEND
  8
0
  0
SOLID
  8
0
 62
    15
 10
5.084200
 20
3.470720
 11
5.085520
 21
4.216960
 12
5.112800
 22
3.466760
 13
5.114120
 23
4.213440
  0
POLYLINE
  8
0
  6
CONTINUOUS
 66
     1
 40
0.000000
 41
0.000000
  0
VERTEX
  8
0
  6
CONTINUOUS
 10
5.084200
 20
3.470720
  0
VERTEX
  8
0
  6
CONTINUOUS
 10
5.085520
 20
4.216960
  0
VERTEX
  8
0
  6
CONTINUOUS
 10
5.114120
 20
4.213440
  0
VERTEX
  8
0
  6
CONTINUOUS
 10
5.112800
 20
3.466760
  0
VERTEX
  8
0
  6
CONTINUOUS
 10
5.084200
 20
3.470720
  0
SEQEND
  8
0
  0
SOLID
  8
0
 62
    15
 10
5.112800
 20
3.466760
 11
5.114120
 21
4.213440
 12
5.140520
 22
3.457960
 13
5.141400
 23
4.204200
  0
POLYLINE
  8
0
  6
CONTINUOUS
 66
     1
 40
0.000000
 41
0.000000
  0
VERTEX
  8
0
  6
CONTINUOUS
 10
5.112800
 20
3.466760
  0
VERTEX
  8
0
  6
CONTINUOUS
 10
5.114120
 20
4.213440
  0
VERTEX
  8
0
  6
CONTINUOUS
 10
5.141400
 20
4.204200
  0
VERTEX
  8
0
  6
CONTINUOUS
 10
5.140520
 20
3.457960
  0
VERTEX
  8
0
  6
CONTINUOUS
 10
5.112800
 20
3.466760
  0
SEQEND
  8
0
  0
SOLID
  8
0
 62
    15
 10
5.140520
 20
3.457960
 11
5.141400
 21
4.204200
 12
5.166040
 22
3.443440
 13
5.167360
 23
4.189680
  0
POLYLINE
  8
0
  6
CONTINUOUS
 66
     1
 40
0.000000
 41
0.000000
  0
VERTEX
  8
0
  6
CONTINUOUS
 10
5.140520
 20
3.457960
  0
VERTEX
  8
0
  6
CONTINUOUS
 10
5.141400
 20
4.204200
  0
VERTEX
  8
0
  6
CONTINUOUS
 10
5.167360
 20
4.189680
  0
VERTEX
  8
0
  6
CONTINUOUS
 10
5.166040
 20
3.443440
  0
VERTEX
  8
0
  6
CONTINUOUS
 10
5.140520
 20
3.457960
  0
SEQEND
  8
0
  0
SOLID
  8
0
 62
    15
 10
5.166040
 20
3.443440
 11
5.167360
 21
4.189680
 12
5.188480
 22
3.423640
 13
5.189800
 23
4.169880
  0
POLYLINE
  8
0
  6
CONTINUOUS
 66
     1
 40
0.000000
 41
0.000000
  0
VERTEX
  8
0
  6
CONTINUOUS
 10
5.166040
 20
3.443440
  0
VERTEX
  8
0
  6
CONTINUOUS
 10
5.167360
 20
4.189680
  0
VERTEX
  8
0
  6
CONTINUOUS
 10
5.189800
 20
4.169880
  0
VERTEX
  8
0
  6
CONTINUOUS
 10
5.188480
 20
3.423640
  0
VERTEX
  8
0
  6
CONTINUOUS
 10
5.166040
 20
3.443440
  0
SEQEND
  8
0
  0
SOLID
  8
0
 62
    15
 10
5.188480
 20
3.423640
 11
5.189800
 21
4.169880
 12
5.207840
 22
3.398560
 13
5.208720
 23
4.145240
  0
POLYLINE
  8
0
  6
CONTINUOUS
 66
     1
 40
0.000000
 41
0.000000
  0
VERTEX
  8
0
  6
CONTINUOUS
 10
5.188480
 20
3.423640
  0
VERTEX
  8
0
  6
CONTINUOUS
 10
5.189800
 20
4.169880
  0
VERTEX
  8
0
  6
CONTINUOUS
 10
5.208720
 20
4.145240
  0
VERTEX
  8
0
  6
CONTINUOUS
 10
5.207840
 20
3.398560
  0
VERTEX
  8
0
  6
CONTINUOUS
 10
5.188480
 20
3.423640
  0
SEQEND
  8
0
  0
SOLID
  8
0
 62
    15
 10
5.207840
 20
3.398560
 11
5.208720
 21
4.145240
 12
5.222360
 22
3.368640
 13
5.223680
 23
4.115320
  0
POLYLINE
  8
0
  6
CONTINUOUS
 66
     1
 40
0.000000
 41
0.000000
  0
VERTEX
  8
0
  6
CONTINUOUS
 10
5.207840
 20
3.398560
  0
VERTEX
  8
0
  6
CONTINUOUS
 10
5.208720
 20
4.145240
  0
VERTEX
  8
0
  6
CONTINUOUS
 10
5.223680
 20
4.115320
  0
VERTEX
  8
0
  6
CONTINUOUS
 10
5.222360
 20
3.368640
  0
VERTEX
  8
0
  6
CONTINUOUS
 10
5.207840
 20
3.398560
  0
SEQEND
  8
0
  0
SOLID
  8
0
 62
    15
 10
5.682160
 20
3.017520
 11
5.683480
 21
3.763760
 12
5.682160
 22
2.872320
 13
5.683480
 23
3.618560
  0
POLYLINE
  8
0
  6
CONTINUOUS
 66
     1
 40
0.000000
 41
0.000000
  0
VERTEX
  8
0
  6
CONTINUOUS
 10
5.682160
 20
3.017520
  0
VERTEX
  8
0
  6
CONTINUOUS
 10
5.683480
 20
3.763760
  0
VERTEX
  8
0
  6
CONTINUOUS
 10
5.683480
 20
3.618560
  0
VERTEX
  8
0
  6
CONTINUOUS
 10
5.682160
 20
2.872320
  0
VERTEX
  8
0
  6
CONTINUOUS
 10
5.682160
 20
3.017520
  0
SEQEND
  8
0
  0
SOLID
  8
0
 62
    15
 10
5.468760
 20
3.197480
 11
5.470080
 21
3.943720
 12
5.682160
 22
3.017520
 13
5.683480
 23
3.763760
  0
POLYLINE
  8
0
  6
CONTINUOUS
 66
     1
 40
0.000000
 41
0.000000
  0
VERTEX
  8
0
  6
CONTINUOUS
 10
5.468760
 20
3.197480
  0
VERTEX
  8
0
  6
CONTINUOUS
 10
5.470080
 20
3.943720
  0
VERTEX
  8
0
  6
CONTINUOUS
 10
5.683480
 20
3.763760
  0
VERTEX
  8
0
  6
CONTINUOUS
 10
5.682160
 20
3.017520
  0
VERTEX
  8
0
  6
CONTINUOUS
 10
5.468760
 20
3.197480
  0
SEQEND
  8
0
  0
SOLID
  8
0
 62
    15
 10
5.468760
 20
3.293400
 11
5.470080
 21
4.040080
 12
5.468760
 22
3.197480
 13
5.470080
 23
3.943720
  0
POLYLINE
  8
0
  6
CONTINUOUS
 66
     1
 40
0.000000
 41
0.000000
  0
VERTEX
  8
0
  6
CONTINUOUS
 10
5.468760
 20
3.293400
  0
VERTEX
  8
0
  6
CONTINUOUS
 10
5.470080
 20
4.040080
  0
VERTEX
  8
0
  6
CONTINUOUS
 10
5.470080
 20
3.943720
  0
VERTEX
  8
0
  6
CONTINUOUS
 10
5.468760
 20
3.197480
  0
VERTEX
  8
0
  6
CONTINUOUS
 10
5.468760
 20
3.293400
  0
SEQEND
  8
0
  0
SOLID
  8
0
 62
    15
 10
5.234240
 20
3.293400
 11
5.235560
 21
4.040080
 12
5.468760
 22
3.293400
 13
5.470080
 23
4.040080
  0
POLYLINE
  8
0
  6
CONTINUOUS
 66
     1
 40
0.000000
 41
0.000000
  0
VERTEX
  8
0
  6
CONTINUOUS
 10
5.234240
 20
3.293400
  0
VERTEX
  8
0
  6
CONTINUOUS
 10
5.235560
 20
4.040080
  0
VERTEX
  8
0
  6
CONTINUOUS
 10
5.470080
 20
4.040080
  0
VERTEX
  8
0
  6
CONTINUOUS
 10
5.468760
 20
3.293400
  0
VERTEX
  8
0
  6
CONTINUOUS
 10
5.234240
 20
3.293400
  0
SEQEND
  8
0
  0
SOLID
  8
0
 62
    15
 10
5.231160
 20
3.333440
 11
5.232480
 21
4.080120
 12
5.234240
 22
3.293400
 13
5.235560
 23
4.040080
  0
POLYLINE
  8
0
  6
CONTINUOUS
 66
     1
 40
0.000000
 41
0.000000
  0
VERTEX
  8
0
  6
CONTINUOUS
 10
5.231160
 20
3.333440
  0
VERTEX
  8
0
  6
CONTINUOUS
 10
5.232480
 20
4.080120
  0
VERTEX
  8
0
  6
CONTINUOUS
 10
5.235560
 20
4.040080
  0
VERTEX
  8
0
  6
CONTINUOUS
 10
5.234240
 20
3.293400
  0
VERTEX
  8
0
  6
CONTINUOUS
 10
5.231160
 20
3.333440
  0
SEQEND
  8
0
  0
SOLID
  8
0
 62
    15
 10
5.222360
 20
3.368640
 11
5.223680
 21
4.115320
 12
5.231160
 22
3.333440
 13
5.232480
 23
4.080120
  0
POLYLINE
  8
0
  6
CONTINUOUS
 66
     1
 40
0.000000
 41
0.000000
  0
VERTEX
  8
0
  6
CONTINUOUS
 10
5.222360
 20
3.368640
  0
VERTEX
  8
0
  6
CONTINUOUS
 10
5.223680
 20
4.115320
  0
VERTEX
  8
0
  6
CONTINUOUS
 10
5.232480
 20
4.080120
  0
VERTEX
  8
0
  6
CONTINUOUS
 10
5.231160
 20
3.333440
  0
VERTEX
  8
0
  6
CONTINUOUS
 10
5.222360
 20
3.368640
  0
SEQEND
  8
0
  0
SOLID
  8
0
 62
    15
 10
2.138400
 20
3.630880
 11
2.139720
 21
4.377120
 12
2.763640
 22
3.630880
 13
2.764960
 23
4.377120
  0
POLYLINE
  8
0
  6
CONTINUOUS
 66
     1
 40
0.000000
 41
0.000000
  0
VERTEX
  8
0
  6
CONTINUOUS
 10
2.138400
 20
3.630880
  0
VERTEX
  8
0
  6
CONTINUOUS
 10
2.139720
 20
4.377120
  0
VERTEX
  8
0
  6
CONTINUOUS
 10
2.764960
 20
4.377120
  0
VERTEX
  8
0
  6
CONTINUOUS
 10
2.763640
 20
3.630880
  0
VERTEX
  8
0
  6
CONTINUOUS
 10
2.138400
 20
3.630880
  0
SEQEND
  8
0
  0
SOLID
  8
0
 62
    15
 10
2.763640
 20
3.630880
 11
2.764960
 21
4.377120
 12
2.770240
 22
3.630880
 13
2.771560
 23
4.377120
  0
POLYLINE
  8
0
  6
CONTINUOUS
 66
     1
 40
0.000000
 41
0.000000
  0
VERTEX
  8
0
  6
CONTINUOUS
 10
2.763640
 20
3.630880
  0
VERTEX
  8
0
  6
CONTINUOUS
 10
2.764960
 20
4.377120
  0
VERTEX
  8
0
  6
CONTINUOUS
 10
2.771560
 20
4.377120
  0
VERTEX
  8
0
  6
CONTINUOUS
 10
2.770240
 20
3.630880
  0
VERTEX
  8
0
  6
CONTINUOUS
 10
2.763640
 20
3.630880
  0
SEQEND
  8
0
  0
POLYLINE
  8
0
  6
CONTINUOUS
 66
     1
 40
0.000000
 41
0.000000
  0
VERTEX
  8
0
  6
CONTINUOUS
 10
2.770240
 20
3.630880
  0
VERTEX
  8
0
  6
CONTINUOUS
 10
2.770240
 20
3.416160
  0
VERTEX
  8
0
  6
CONTINUOUS
 10
2.852960
 20
3.472920
  0
VERTEX
  8
0
  6
CONTINUOUS
 10
2.927760
 20
3.516480
  0
VERTEX
  8
0
  6
CONTINUOUS
 10
2.999480
 20
3.549920
  0
VERTEX
  8
0
  6
CONTINUOUS
 10
3.068560
 20
3.574120
  0
VERTEX
  8
0
  6
CONTINUOUS
 10
3.135440
 20
3.589520
  0
VERTEX
  8
0
  6
CONTINUOUS
 10
3.200120
 20
3.597000
  0
VERTEX
  8
0
  6
CONTINUOUS
 10
3.263040
 20
3.597440
  0
VERTEX
  8
0
  6
CONTINUOUS
 10
3.324200
 20
3.591280
  0
VERTEX
  8
0
  6
CONTINUOUS
 10
3.383160
 20
3.578960
  0
VERTEX
  8
0
  6
CONTINUOUS
 10
3.441240
 20
3.561800
  0
VERTEX
  8
0
  6
CONTINUOUS
 10
3.498000
 20
3.540240
  0
VERTEX
  8
0
  6
CONTINUOUS
 10
3.553440
 20
3.515160
  0
VERTEX
  8
0
  6
CONTINUOUS
 10
3.662120
 20
3.456200
  0
VERTEX
  8
0
  6
CONTINUOUS
 10
3.875520
 20
3.323760
  0
VERTEX
  8
0
  6
CONTINUOUS
 10
3.982880
 20
3.262160
  0
VERTEX
  8
0
  6
CONTINUOUS
 10
4.092440
 20
3.210240
  0
VERTEX
  8
0
  6
CONTINUOUS
 10
4.148760
 20
3.190000
  0
VERTEX
  8
0
  6
CONTINUOUS
 10
4.206400
 20
3.174160
  0
VERTEX
  8
0
  6
CONTINUOUS
 10
4.265360
 20
3.164040
  0
VERTEX
  8
0
  6
CONTINUOUS
 10
4.325640
 20
3.159640
  0
VERTEX
  8
0
  6
CONTINUOUS
 10
4.388120
 20
3.162280
  0
VERTEX
  8
0
  6
CONTINUOUS
 10
4.451920
 20
3.171960
  0
VERTEX
  8
0
  6
CONTINUOUS
 10
4.518360
 20
3.190000
  0
VERTEX
  8
0
  6
CONTINUOUS
 10
4.587000
 20
3.217280
  0
VERTEX
  8
0
  6
CONTINUOUS
 10
4.657840
 20
3.253360
  0
VERTEX
  8
0
  6
CONTINUOUS
 10
4.731760
 20
3.300000
  0
VERTEX
  8
0
  6
CONTINUOUS
 10
4.917000
 20
3.300000
  0
VERTEX
  8
0
  6
CONTINUOUS
 10
4.918320
 20
3.298680
  0
VERTEX
  8
0
  6
CONTINUOUS
 10
4.924920
 20
3.340480
  0
VERTEX
  8
0
  6
CONTINUOUS
 10
4.937240
 20
3.376560
  0
VERTEX
  8
0
  6
CONTINUOUS
 10
4.954400
 20
3.406480
  0
VERTEX
  8
0
  6
CONTINUOUS
 10
4.975960
 20
3.430680
  0
VERTEX
  8
0
  6
CONTINUOUS
 10
5.000160
 20
3.449160
  0
VERTEX
  8
0
  6
CONTINUOUS
 10
5.027000
 20
3.461920
  0
VERTEX
  8
0
  6
CONTINUOUS
 10
5.055160
 20
3.468960
  0
VERTEX
  8
0
  6
CONTINUOUS
 10
5.084200
 20
3.470720
  0
VERTEX
  8
0
  6
CONTINUOUS
 10
5.112800
 20
3.466760
  0
VERTEX
  8
0
  6
CONTINUOUS
 10
5.140520
 20
3.457960
  0
VERTEX
  8
0
  6
CONTINUOUS
 10
5.166040
 20
3.443440
  0
VERTEX
  8
0
  6
CONTINUOUS
 10
5.188480
 20
3.423640
  0
VERTEX
  8
0
  6
CONTINUOUS
 10
5.207840
 20
3.398560
  0
VERTEX
  8
0
  6
CONTINUOUS
 10
5.222360
 20
3.368640
  0
VERTEX
  8
0
  6
CONTINUOUS
 10
5.231160
 20
3.333440
  0
VERTEX
  8
0
  6
CONTINUOUS
 10
5.234240
 20
3.293400
  0
VERTEX
  8
0
  6
CONTINUOUS
 10
5.468760
 20
3.293400
  0
VERTEX
  8
0
  6
CONTINUOUS
 10
5.468760
 20
3.197480
  0
VERTEX
  8
0
  6
CONTINUOUS
 10
5.682160
 20
3.017520
  0
VERTEX
  8
0
  6
CONTINUOUS
 10
5.682160
 20
2.872320
  0
VERTEX
  8
0
  6
CONTINUOUS
 10
2.142360
 20
2.872320
  0
VERTEX
  8
0
  6
CONTINUOUS
 10
2.138400
 20
2.871000
  0
VERTEX
  8
0
  6
CONTINUOUS
 10
2.138400
 20
3.630880
  0
VERTEX
  8
0
  6
CONTINUOUS
 10
2.770240
 20
3.630880
  0
SEQEND
  8
0
  0
TEXT
  8
0
 10
3.660360
 20
2.631200
 40
0.138152
  1
BA  66
 41
1.000000
  7
SN0
 71
     0
 72
     5
 11
4.158425
 21
2.631200
  0
TEXT
  8
0
 10
3.458400
 20
2.439360
 40
0.138152
  1
3/4" x 3-1/2"
 41
1.000000
  7
SN0
 71
     0
 72
     5
 11
4.359513
 21
2.439360
  0
ENDSEC
  0
EOF
