  0
SECTION
  2
HEADER
  9
$ACADVER
  1
AC1006
  9
$EXTMIN
 10
1.777160
 20
1.257080
  9
$EXTMAX
 10
4.507360
 20
4.015880
  9
$LTSCALE
 40
0.044000
  9
$PDMODE
 70
    35
  9
$PDSIZE
 40
0.035200
  0
ENDSEC
  0
SECTION
  2
TABLES
  0
TABLE
  2
LTYPE
 70
     9
  0
LTYPE
  2
CONTINUOUS
 70
    64
  3
Solid line
 72
    65
 73
     0
 40
0.000000
  0
LTYPE
  2
DASHED
 70
    64
  3
__ __ __ __ __ __ __ __ __ __ __ __ __ __ __
 72
    65
 73
     2
 40
0.000330
 49
0.000220
 49
-0.000110
  0
LTYPE
  2
HIDDEN
 70
    64
  3
 _ _ _ _ _ _ _ _ _ _ _ _ _ _ _ _ _ _ _ _ _ _
 72
    65
 73
     2
 40
0.000165
 49
0.000110
 49
-0.000055
  0
LTYPE
  2
CENTER
 70
    64
  3
____ _ ____ _ ____ _ ____ _ ____ _ ____ _ ____
 72
    65
 73
     4
 40
0.000880
 49
0.000550
 49
-0.000110
 49
0.000110
 49
-0.000110
  0
LTYPE
  2
PHANTOM
 70
    64
  3
_____ _ _ _____ _ _ _____ _ _ _____ _ _ ____
 72
    65
 73
     6
 40
0.001100
 49
0.000550
 49
-0.000110
 49
0.000110
 49
-0.000110
 49
0.000110
 49
-0.000110
  0
LTYPE
  2
DOT
 70
    64
  3
...............................................
 72
    65
 73
     2
 40
0.000110
 49
0.000000
 49
-0.000110
  0
LTYPE
  2
DASHDOT
 70
    64
  3
__ . __ . __ . __ . __ . __ . __ . __ . __ . __
 72
    65
 73
     4
 40
0.000440
 49
0.000220
 49
-0.000110
 49
0.000000
 49
-0.000110
  0
LTYPE
  2
BORDER
 70
    64
  3
__ __ . __ __ . __ __ . __ __ . __ __ . __ __
 72
    65
 73
     6
 40
0.000770
 49
0.000220
 49
-0.000110
 49
0.000220
 49
-0.000110
 49
0.000000
 49
-0.000110
  0
LTYPE
  2
DIVIDE
 70
    64
  3
__ . . __ . . __ . . __ . . __ . . __ . . __
 72
    65
 73
     6
 40
0.000550
 49
0.000220
 49
-0.000110
 49
0.000000
 49
-0.000110
 49
0.000000
 49
-0.000110
  0
LTYPE
  2
DOTDOT
 70
    64
  3
 . .  . .  . .  . .  . .  . . 
 72
    65
 73
     5
 40
0.000242
 49
-0.000110
 49
0.000000
 49
-0.000110
 49
0.000000
 49
-0.000110
  0
ENDTAB
  0
TABLE
  2
STYLE
 70
     2
  0
STYLE
 70
     0
  2
SN0
 40
0.000000
 41
0.000440
 50
0.000000
 71
     0
 42
0.000000
  3
ROMAND
  0
STYLE
 70
    68
  2
SV0
 40
0.000000
 41
0.000440
 50
0.000000
 71
     0
 42
0.000000
  3
ROMAND
  0
ENDTAB
  0
TABLE
  2
LAYER
 70
     3
  0
LAYER
  2
FOREGROUND
 70
    64
 62
     7
  6
CONTINUOUS
  0
LAYER
  2
BACKGROUND
 70
    65
 62
    -7
  6
CONTINUOUS
  0
LAYER
  2
0
 70
    64
 62
     7
  6
CONTINUOUS
  0
ENDTAB
  0
ENDSEC
  0
SECTION
  2
ENTITIES
  0
POLYLINE
  8
FOREGROUND
  6
CONTINUOUS
 66
     1
 40
0.000000
 41
0.000000
  0
VERTEX
  8
FOREGROUND
  6
CONTINUOUS
 10
0.000000
 20
5.272960
  0
VERTEX
  8
FOREGROUND
  6
CONTINUOUS
 10
8.499920
 20
5.272960
  0
VERTEX
  8
FOREGROUND
  6
CONTINUOUS
 10
8.499920
 20
-5.727040
  0
VERTEX
  8
FOREGROUND
  6
CONTINUOUS
 10
0.000000
 20
-5.727040
  0
VERTEX
  8
FOREGROUND
  6
CONTINUOUS
 10
0.000000
 20
5.272960
  0
SEQEND
  8
0
  0
POLYLINE
  8
FOREGROUND
  6
CONTINUOUS
 66
     1
 40
0.000000
 41
0.000000
  0
VERTEX
  8
FOREGROUND
  6
CONTINUOUS
 10
0.000000
 20
5.272960
  0
VERTEX
  8
FOREGROUND
  6
CONTINUOUS
 10
8.499920
 20
5.272960
  0
VERTEX
  8
FOREGROUND
  6
CONTINUOUS
 10
8.499920
 20
-5.727040
  0
VERTEX
  8
FOREGROUND
  6
CONTINUOUS
 10
0.000000
 20
-5.727040
  0
VERTEX
  8
FOREGROUND
  6
CONTINUOUS
 10
0.000000
 20
5.272960
  0
SEQEND
  8
0
  0
POLYLINE
  8
0
  6
CONTINUOUS
 66
     1
 40
0.014080
 41
0.014080
  0
VERTEX
  8
0
  6
CONTINUOUS
 10
3.689840
 20
1.998920
  0
VERTEX
  8
0
  6
CONTINUOUS
 10
3.689840
 20
3.921280
  0
VERTEX
  8
0
  6
CONTINUOUS
 10
3.829320
 20
3.921280
  0
VERTEX
  8
0
  6
CONTINUOUS
 10
3.831960
 20
3.905880
  0
VERTEX
  8
0
  6
CONTINUOUS
 10
3.840320
 20
3.885640
  0
VERTEX
  8
0
  6
CONTINUOUS
 10
3.858360
 20
3.854400
  0
VERTEX
  8
0
  6
CONTINUOUS
 10
3.883880
 20
3.820080
  0
VERTEX
  8
0
  6
CONTINUOUS
 10
3.915560
 20
3.785320
  0
VERTEX
  8
0
  6
CONTINUOUS
 10
3.952520
 20
3.751880
  0
VERTEX
  8
0
  6
CONTINUOUS
 10
3.993440
 20
3.723720
  0
VERTEX
  8
0
  6
CONTINUOUS
 10
4.015000
 20
3.711840
  0
VERTEX
  8
0
  6
CONTINUOUS
 10
4.048440
 20
3.698200
  0
VERTEX
  8
0
  6
CONTINUOUS
 10
4.059880
 20
3.694680
  0
VERTEX
  8
0
  6
CONTINUOUS
 10
4.059880
 20
3.566640
  0
VERTEX
  8
0
  6
CONTINUOUS
 10
4.092440
 20
3.562680
  0
VERTEX
  8
0
  6
CONTINUOUS
 10
4.133360
 20
3.553000
  0
VERTEX
  8
0
  6
CONTINUOUS
 10
4.169440
 20
3.539360
  0
VERTEX
  8
0
  6
CONTINUOUS
 10
4.191000
 20
3.528360
  0
VERTEX
  8
0
  6
CONTINUOUS
 10
4.210360
 20
3.516040
  0
VERTEX
  8
0
  6
CONTINUOUS
 10
4.242920
 20
3.487880
  0
VERTEX
  8
0
  6
CONTINUOUS
 10
4.267560
 20
3.455760
  0
VERTEX
  8
0
  6
CONTINUOUS
 10
4.277240
 20
3.438600
  0
VERTEX
  8
0
  6
CONTINUOUS
 10
4.290880
 20
3.402080
  0
VERTEX
  8
0
  6
CONTINUOUS
 10
4.297480
 20
3.364680
  0
VERTEX
  8
0
  6
CONTINUOUS
 10
4.297920
 20
3.345760
  0
VERTEX
  8
0
  6
CONTINUOUS
 10
4.294840
 20
3.307920
  0
VERTEX
  8
0
  6
CONTINUOUS
 10
4.290880
 20
3.289440
  0
VERTEX
  8
0
  6
CONTINUOUS
 10
4.278120
 20
3.253800
  0
VERTEX
  8
0
  6
CONTINUOUS
 10
4.260080
 20
3.220800
  0
VERTEX
  8
0
  6
CONTINUOUS
 10
4.236320
 20
3.191760
  0
VERTEX
  8
0
  6
CONTINUOUS
 10
4.222680
 20
3.179000
  0
VERTEX
  8
0
  6
CONTINUOUS
 10
4.207720
 20
3.167560
  0
VERTEX
  8
0
  6
CONTINUOUS
 10
4.191440
 20
3.157440
  0
VERTEX
  8
0
  6
CONTINUOUS
 10
4.174280
 20
3.149080
  0
VERTEX
  8
0
  6
CONTINUOUS
 10
4.155800
 20
3.142480
  0
VERTEX
  8
0
  6
CONTINUOUS
 10
4.136440
 20
3.137640
  0
VERTEX
  8
0
  6
CONTINUOUS
 10
4.114440
 20
3.134560
  0
VERTEX
  8
0
  6
CONTINUOUS
 10
4.115760
 20
3.099800
  0
VERTEX
  8
0
  6
CONTINUOUS
 10
4.133360
 20
3.016640
  0
VERTEX
  8
0
  6
CONTINUOUS
 10
4.154480
 20
2.945360
  0
VERTEX
  8
0
  6
CONTINUOUS
 10
4.177800
 20
2.883760
  0
VERTEX
  8
0
  6
CONTINUOUS
 10
4.213440
 20
2.814240
  0
VERTEX
  8
0
  6
CONTINUOUS
 10
4.242920
 20
2.768920
  0
VERTEX
  8
0
  6
CONTINUOUS
 10
4.284720
 20
2.714360
  0
VERTEX
  8
0
  6
CONTINUOUS
 10
4.399560
 20
2.580160
  0
VERTEX
  8
0
  6
CONTINUOUS
 10
4.423760
 20
2.549360
  0
VERTEX
  8
0
  6
CONTINUOUS
 10
4.454120
 20
2.500960
  0
VERTEX
  8
0
  6
CONTINUOUS
 10
4.466440
 20
2.478080
  0
VERTEX
  8
0
  6
CONTINUOUS
 10
4.484480
 20
2.434080
  0
VERTEX
  8
0
  6
CONTINUOUS
 10
4.491080
 20
2.412960
  0
VERTEX
  8
0
  6
CONTINUOUS
 10
4.498560
 20
2.373360
  0
VERTEX
  8
0
  6
CONTINUOUS
 10
4.499880
 20
2.336840
  0
VERTEX
  8
0
  6
CONTINUOUS
 10
4.498560
 20
2.319240
  0
VERTEX
  8
0
  6
CONTINUOUS
 10
4.491960
 20
2.287120
  0
VERTEX
  8
0
  6
CONTINUOUS
 10
4.481400
 20
2.257200
  0
VERTEX
  8
0
  6
CONTINUOUS
 10
4.466880
 20
2.230800
  0
VERTEX
  8
0
  6
CONTINUOUS
 10
4.449720
 20
2.207040
  0
VERTEX
  8
0
  6
CONTINUOUS
 10
4.419800
 20
2.177120
  0
VERTEX
  8
0
  6
CONTINUOUS
 10
4.387680
 20
2.153360
  0
VERTEX
  8
0
  6
CONTINUOUS
 10
4.355560
 20
2.136200
  0
VERTEX
  8
0
  6
CONTINUOUS
 10
4.298800
 20
2.116840
  0
VERTEX
  8
0
  6
CONTINUOUS
 10
4.289120
 20
2.111560
  0
VERTEX
  8
0
  6
CONTINUOUS
 10
4.271080
 20
2.095280
  0
VERTEX
  8
0
  6
CONTINUOUS
 10
4.261840
 20
2.077240
  0
VERTEX
  8
0
  6
CONTINUOUS
 10
4.258760
 20
2.062280
  0
VERTEX
  8
0
  6
CONTINUOUS
 10
4.258320
 20
1.998920
  0
VERTEX
  8
0
  6
CONTINUOUS
 10
3.688960
 20
1.998920
  0
SEQEND
  8
0
  0
SOLID
  8
0
 62
    15
 10
2.204400
 20
2.820400
 11
2.849000
 21
3.193960
 12
2.215840
 22
2.763200
 13
2.860880
 23
3.137200
  0
POLYLINE
  8
0
  6
CONTINUOUS
 66
     1
 40
0.000000
 41
0.000000
  0
VERTEX
  8
0
  6
CONTINUOUS
 10
2.204400
 20
2.820400
  0
VERTEX
  8
0
  6
CONTINUOUS
 10
2.849000
 20
3.193960
  0
VERTEX
  8
0
  6
CONTINUOUS
 10
2.860880
 20
3.137200
  0
VERTEX
  8
0
  6
CONTINUOUS
 10
2.215840
 20
2.763200
  0
VERTEX
  8
0
  6
CONTINUOUS
 10
2.204400
 20
2.820400
  0
SEQEND
  8
0
  0
SOLID
  8
0
 62
     7
 10
1.917520
 20
3.641440
 11
2.562560
 21
4.015440
 12
1.922800
 22
3.619880
 13
2.567400
 23
3.993440
  0
POLYLINE
  8
0
  6
CONTINUOUS
 66
     1
 40
0.000000
 41
0.000000
  0
VERTEX
  8
0
  6
CONTINUOUS
 10
1.917520
 20
3.641440
  0
VERTEX
  8
0
  6
CONTINUOUS
 10
2.562560
 20
4.015440
  0
VERTEX
  8
0
  6
CONTINUOUS
 10
2.567400
 20
3.993440
  0
VERTEX
  8
0
  6
CONTINUOUS
 10
1.922800
 20
3.619880
  0
VERTEX
  8
0
  6
CONTINUOUS
 10
1.917520
 20
3.641440
  0
SEQEND
  8
0
  0
SOLID
  8
0
 62
     7
 10
1.922800
 20
3.619880
 11
2.567400
 21
3.993440
 12
1.936440
 22
3.590840
 13
2.581480
 23
3.964840
  0
POLYLINE
  8
0
  6
CONTINUOUS
 66
     1
 40
0.000000
 41
0.000000
  0
VERTEX
  8
0
  6
CONTINUOUS
 10
1.922800
 20
3.619880
  0
VERTEX
  8
0
  6
CONTINUOUS
 10
2.567400
 20
3.993440
  0
VERTEX
  8
0
  6
CONTINUOUS
 10
2.581480
 20
3.964840
  0
VERTEX
  8
0
  6
CONTINUOUS
 10
1.936440
 20
3.590840
  0
VERTEX
  8
0
  6
CONTINUOUS
 10
1.922800
 20
3.619880
  0
SEQEND
  8
0
  0
SOLID
  8
0
 62
     7
 10
1.936440
 20
3.590840
 11
2.581480
 21
3.964840
 12
1.958880
 22
3.557840
 13
2.603480
 23
3.931400
  0
POLYLINE
  8
0
  6
CONTINUOUS
 66
     1
 40
0.000000
 41
0.000000
  0
VERTEX
  8
0
  6
CONTINUOUS
 10
1.936440
 20
3.590840
  0
VERTEX
  8
0
  6
CONTINUOUS
 10
2.581480
 20
3.964840
  0
VERTEX
  8
0
  6
CONTINUOUS
 10
2.603480
 20
3.931400
  0
VERTEX
  8
0
  6
CONTINUOUS
 10
1.958880
 20
3.557840
  0
VERTEX
  8
0
  6
CONTINUOUS
 10
1.936440
 20
3.590840
  0
SEQEND
  8
0
  0
SOLID
  8
0
 62
     7
 10
1.958880
 20
3.557840
 11
2.603480
 21
3.931400
 12
1.987480
 22
3.522640
 13
2.632520
 23
3.896640
  0
POLYLINE
  8
0
  6
CONTINUOUS
 66
     1
 40
0.000000
 41
0.000000
  0
VERTEX
  8
0
  6
CONTINUOUS
 10
1.958880
 20
3.557840
  0
VERTEX
  8
0
  6
CONTINUOUS
 10
2.603480
 20
3.931400
  0
VERTEX
  8
0
  6
CONTINUOUS
 10
2.632520
 20
3.896640
  0
VERTEX
  8
0
  6
CONTINUOUS
 10
1.987480
 20
3.522640
  0
VERTEX
  8
0
  6
CONTINUOUS
 10
1.958880
 20
3.557840
  0
SEQEND
  8
0
  0
SOLID
  8
0
 62
     7
 10
1.987480
 20
3.522640
 11
2.632520
 21
3.896640
 12
2.022240
 22
3.488320
 13
2.666840
 23
3.862320
  0
POLYLINE
  8
0
  6
CONTINUOUS
 66
     1
 40
0.000000
 41
0.000000
  0
VERTEX
  8
0
  6
CONTINUOUS
 10
1.987480
 20
3.522640
  0
VERTEX
  8
0
  6
CONTINUOUS
 10
2.632520
 20
3.896640
  0
VERTEX
  8
0
  6
CONTINUOUS
 10
2.666840
 20
3.862320
  0
VERTEX
  8
0
  6
CONTINUOUS
 10
2.022240
 20
3.488320
  0
VERTEX
  8
0
  6
CONTINUOUS
 10
1.987480
 20
3.522640
  0
SEQEND
  8
0
  0
SOLID
  8
0
 62
    15
 10
2.022240
 20
3.488320
 11
2.666840
 21
3.862320
 12
2.060960
 22
3.457080
 13
2.706000
 23
3.831080
  0
POLYLINE
  8
0
  6
CONTINUOUS
 66
     1
 40
0.000000
 41
0.000000
  0
VERTEX
  8
0
  6
CONTINUOUS
 10
2.022240
 20
3.488320
  0
VERTEX
  8
0
  6
CONTINUOUS
 10
2.666840
 20
3.862320
  0
VERTEX
  8
0
  6
CONTINUOUS
 10
2.706000
 20
3.831080
  0
VERTEX
  8
0
  6
CONTINUOUS
 10
2.060960
 20
3.457080
  0
VERTEX
  8
0
  6
CONTINUOUS
 10
2.022240
 20
3.488320
  0
SEQEND
  8
0
  0
SOLID
  8
0
 62
    15
 10
2.060960
 20
3.457080
 11
2.706000
 21
3.831080
 12
2.103640
 22
3.432000
 13
2.748240
 23
3.805560
  0
POLYLINE
  8
0
  6
CONTINUOUS
 66
     1
 40
0.000000
 41
0.000000
  0
VERTEX
  8
0
  6
CONTINUOUS
 10
2.060960
 20
3.457080
  0
VERTEX
  8
0
  6
CONTINUOUS
 10
2.706000
 20
3.831080
  0
VERTEX
  8
0
  6
CONTINUOUS
 10
2.748240
 20
3.805560
  0
VERTEX
  8
0
  6
CONTINUOUS
 10
2.103640
 20
3.432000
  0
VERTEX
  8
0
  6
CONTINUOUS
 10
2.060960
 20
3.457080
  0
SEQEND
  8
0
  0
SOLID
  8
0
 62
    15
 10
2.103640
 20
3.432000
 11
2.748240
 21
3.805560
 12
2.148520
 22
3.414840
 13
2.793120
 23
3.788840
  0
POLYLINE
  8
0
  6
CONTINUOUS
 66
     1
 40
0.000000
 41
0.000000
  0
VERTEX
  8
0
  6
CONTINUOUS
 10
2.103640
 20
3.432000
  0
VERTEX
  8
0
  6
CONTINUOUS
 10
2.748240
 20
3.805560
  0
VERTEX
  8
0
  6
CONTINUOUS
 10
2.793120
 20
3.788840
  0
VERTEX
  8
0
  6
CONTINUOUS
 10
2.148520
 20
3.414840
  0
VERTEX
  8
0
  6
CONTINUOUS
 10
2.103640
 20
3.432000
  0
SEQEND
  8
0
  0
SOLID
  8
0
 62
    15
 10
2.148520
 20
3.414840
 11
2.793120
 21
3.788840
 12
2.148520
 22
3.286800
 13
2.793120
 23
3.660800
  0
POLYLINE
  8
0
  6
CONTINUOUS
 66
     1
 40
0.000000
 41
0.000000
  0
VERTEX
  8
0
  6
CONTINUOUS
 10
2.148520
 20
3.414840
  0
VERTEX
  8
0
  6
CONTINUOUS
 10
2.793120
 20
3.788840
  0
VERTEX
  8
0
  6
CONTINUOUS
 10
2.793120
 20
3.660800
  0
VERTEX
  8
0
  6
CONTINUOUS
 10
2.148520
 20
3.286800
  0
VERTEX
  8
0
  6
CONTINUOUS
 10
2.148520
 20
3.414840
  0
SEQEND
  8
0
  0
SOLID
  8
0
 62
    15
 10
2.148520
 20
3.286800
 11
2.793120
 21
3.660800
 12
2.151160
 22
3.286800
 13
2.795760
 23
3.660800
  0
POLYLINE
  8
0
  6
CONTINUOUS
 66
     1
 40
0.000000
 41
0.000000
  0
VERTEX
  8
0
  6
CONTINUOUS
 10
2.148520
 20
3.286800
  0
VERTEX
  8
0
  6
CONTINUOUS
 10
2.793120
 20
3.660800
  0
VERTEX
  8
0
  6
CONTINUOUS
 10
2.795760
 20
3.660800
  0
VERTEX
  8
0
  6
CONTINUOUS
 10
2.151160
 20
3.286800
  0
VERTEX
  8
0
  6
CONTINUOUS
 10
2.148520
 20
3.286800
  0
SEQEND
  8
0
  0
SOLID
  8
0
 62
    15
 10
2.151160
 20
3.286800
 11
2.795760
 21
3.660800
 12
2.208800
 22
3.276680
 13
2.853840
 23
3.650680
  0
POLYLINE
  8
0
  6
CONTINUOUS
 66
     1
 40
0.000000
 41
0.000000
  0
VERTEX
  8
0
  6
CONTINUOUS
 10
2.151160
 20
3.286800
  0
VERTEX
  8
0
  6
CONTINUOUS
 10
2.795760
 20
3.660800
  0
VERTEX
  8
0
  6
CONTINUOUS
 10
2.853840
 20
3.650680
  0
VERTEX
  8
0
  6
CONTINUOUS
 10
2.208800
 20
3.276680
  0
VERTEX
  8
0
  6
CONTINUOUS
 10
2.151160
 20
3.286800
  0
SEQEND
  8
0
  0
SOLID
  8
0
 62
    15
 10
2.208800
 20
3.276680
 11
2.853840
 21
3.650680
 12
2.258080
 22
3.259520
 13
2.903120
 23
3.633520
  0
POLYLINE
  8
0
  6
CONTINUOUS
 66
     1
 40
0.000000
 41
0.000000
  0
VERTEX
  8
0
  6
CONTINUOUS
 10
2.208800
 20
3.276680
  0
VERTEX
  8
0
  6
CONTINUOUS
 10
2.853840
 20
3.650680
  0
VERTEX
  8
0
  6
CONTINUOUS
 10
2.903120
 20
3.633520
  0
VERTEX
  8
0
  6
CONTINUOUS
 10
2.258080
 20
3.259520
  0
VERTEX
  8
0
  6
CONTINUOUS
 10
2.208800
 20
3.276680
  0
SEQEND
  8
0
  0
SOLID
  8
0
 62
    15
 10
2.258080
 20
3.259520
 11
2.903120
 21
3.633520
 12
2.299000
 22
3.236200
 13
2.943600
 23
3.610200
  0
POLYLINE
  8
0
  6
CONTINUOUS
 66
     1
 40
0.000000
 41
0.000000
  0
VERTEX
  8
0
  6
CONTINUOUS
 10
2.258080
 20
3.259520
  0
VERTEX
  8
0
  6
CONTINUOUS
 10
2.903120
 20
3.633520
  0
VERTEX
  8
0
  6
CONTINUOUS
 10
2.943600
 20
3.610200
  0
VERTEX
  8
0
  6
CONTINUOUS
 10
2.299000
 20
3.236200
  0
VERTEX
  8
0
  6
CONTINUOUS
 10
2.258080
 20
3.259520
  0
SEQEND
  8
0
  0
SOLID
  8
0
 62
     7
 10
2.299000
 20
3.236200
 11
2.943600
 21
3.610200
 12
2.331560
 22
3.208040
 13
2.976160
 23
3.582040
  0
POLYLINE
  8
0
  6
CONTINUOUS
 66
     1
 40
0.000000
 41
0.000000
  0
VERTEX
  8
0
  6
CONTINUOUS
 10
2.299000
 20
3.236200
  0
VERTEX
  8
0
  6
CONTINUOUS
 10
2.943600
 20
3.610200
  0
VERTEX
  8
0
  6
CONTINUOUS
 10
2.976160
 20
3.582040
  0
VERTEX
  8
0
  6
CONTINUOUS
 10
2.331560
 20
3.208040
  0
VERTEX
  8
0
  6
CONTINUOUS
 10
2.299000
 20
3.236200
  0
SEQEND
  8
0
  0
SOLID
  8
0
 62
     7
 10
2.331560
 20
3.208040
 11
2.976160
 21
3.582040
 12
2.356200
 22
3.175920
 13
3.000800
 23
3.549920
  0
POLYLINE
  8
0
  6
CONTINUOUS
 66
     1
 40
0.000000
 41
0.000000
  0
VERTEX
  8
0
  6
CONTINUOUS
 10
2.331560
 20
3.208040
  0
VERTEX
  8
0
  6
CONTINUOUS
 10
2.976160
 20
3.582040
  0
VERTEX
  8
0
  6
CONTINUOUS
 10
3.000800
 20
3.549920
  0
VERTEX
  8
0
  6
CONTINUOUS
 10
2.356200
 20
3.175920
  0
VERTEX
  8
0
  6
CONTINUOUS
 10
2.331560
 20
3.208040
  0
SEQEND
  8
0
  0
SOLID
  8
0
 62
     7
 10
2.356200
 20
3.175920
 11
3.000800
 21
3.549920
 12
2.373360
 22
3.140720
 13
3.018400
 23
3.514720
  0
POLYLINE
  8
0
  6
CONTINUOUS
 66
     1
 40
0.000000
 41
0.000000
  0
VERTEX
  8
0
  6
CONTINUOUS
 10
2.356200
 20
3.175920
  0
VERTEX
  8
0
  6
CONTINUOUS
 10
3.000800
 20
3.549920
  0
VERTEX
  8
0
  6
CONTINUOUS
 10
3.018400
 20
3.514720
  0
VERTEX
  8
0
  6
CONTINUOUS
 10
2.373360
 20
3.140720
  0
VERTEX
  8
0
  6
CONTINUOUS
 10
2.356200
 20
3.175920
  0
SEQEND
  8
0
  0
SOLID
  8
0
 62
    15
 10
2.373360
 20
3.140720
 11
3.018400
 21
3.514720
 12
2.383480
 22
3.103760
 13
3.028080
 23
3.477760
  0
POLYLINE
  8
0
  6
CONTINUOUS
 66
     1
 40
0.000000
 41
0.000000
  0
VERTEX
  8
0
  6
CONTINUOUS
 10
2.373360
 20
3.140720
  0
VERTEX
  8
0
  6
CONTINUOUS
 10
3.018400
 20
3.514720
  0
VERTEX
  8
0
  6
CONTINUOUS
 10
3.028080
 20
3.477760
  0
VERTEX
  8
0
  6
CONTINUOUS
 10
2.383480
 20
3.103760
  0
VERTEX
  8
0
  6
CONTINUOUS
 10
2.373360
 20
3.140720
  0
SEQEND
  8
0
  0
SOLID
  8
0
 62
    15
 10
2.383480
 20
3.103760
 11
3.028080
 21
3.477760
 12
2.386560
 22
3.065920
 13
3.031600
 23
3.439480
  0
POLYLINE
  8
0
  6
CONTINUOUS
 66
     1
 40
0.000000
 41
0.000000
  0
VERTEX
  8
0
  6
CONTINUOUS
 10
2.383480
 20
3.103760
  0
VERTEX
  8
0
  6
CONTINUOUS
 10
3.028080
 20
3.477760
  0
VERTEX
  8
0
  6
CONTINUOUS
 10
3.031600
 20
3.439480
  0
VERTEX
  8
0
  6
CONTINUOUS
 10
2.386560
 20
3.065920
  0
VERTEX
  8
0
  6
CONTINUOUS
 10
2.383480
 20
3.103760
  0
SEQEND
  8
0
  0
SOLID
  8
0
 62
    15
 10
2.386560
 20
3.065920
 11
3.031600
 21
3.439480
 12
2.383480
 22
3.028080
 13
3.028080
 23
3.402080
  0
POLYLINE
  8
0
  6
CONTINUOUS
 66
     1
 40
0.000000
 41
0.000000
  0
VERTEX
  8
0
  6
CONTINUOUS
 10
2.386560
 20
3.065920
  0
VERTEX
  8
0
  6
CONTINUOUS
 10
3.031600
 20
3.439480
  0
VERTEX
  8
0
  6
CONTINUOUS
 10
3.028080
 20
3.402080
  0
VERTEX
  8
0
  6
CONTINUOUS
 10
2.383480
 20
3.028080
  0
VERTEX
  8
0
  6
CONTINUOUS
 10
2.386560
 20
3.065920
  0
SEQEND
  8
0
  0
SOLID
  8
0
 62
    15
 10
2.383480
 20
3.028080
 11
3.028080
 21
3.402080
 12
2.373800
 22
2.991560
 13
3.018400
 23
3.365560
  0
POLYLINE
  8
0
  6
CONTINUOUS
 66
     1
 40
0.000000
 41
0.000000
  0
VERTEX
  8
0
  6
CONTINUOUS
 10
2.383480
 20
3.028080
  0
VERTEX
  8
0
  6
CONTINUOUS
 10
3.028080
 20
3.402080
  0
VERTEX
  8
0
  6
CONTINUOUS
 10
3.018400
 20
3.365560
  0
VERTEX
  8
0
  6
CONTINUOUS
 10
2.373800
 20
2.991560
  0
VERTEX
  8
0
  6
CONTINUOUS
 10
2.383480
 20
3.028080
  0
SEQEND
  8
0
  0
SOLID
  8
0
 62
    15
 10
2.373800
 20
2.991560
 11
3.018400
 21
3.365560
 12
2.358400
 22
2.957240
 13
3.003000
 23
3.331240
  0
POLYLINE
  8
0
  6
CONTINUOUS
 66
     1
 40
0.000000
 41
0.000000
  0
VERTEX
  8
0
  6
CONTINUOUS
 10
2.373800
 20
2.991560
  0
VERTEX
  8
0
  6
CONTINUOUS
 10
3.018400
 20
3.365560
  0
VERTEX
  8
0
  6
CONTINUOUS
 10
3.003000
 20
3.331240
  0
VERTEX
  8
0
  6
CONTINUOUS
 10
2.358400
 20
2.957240
  0
VERTEX
  8
0
  6
CONTINUOUS
 10
2.373800
 20
2.991560
  0
SEQEND
  8
0
  0
SOLID
  8
0
 62
    15
 10
2.203080
 20
2.854720
 11
2.847680
 21
3.228720
 12
2.204400
 22
2.820400
 13
2.849000
 23
3.193960
  0
POLYLINE
  8
0
  6
CONTINUOUS
 66
     1
 40
0.000000
 41
0.000000
  0
VERTEX
  8
0
  6
CONTINUOUS
 10
2.203080
 20
2.854720
  0
VERTEX
  8
0
  6
CONTINUOUS
 10
2.847680
 20
3.228720
  0
VERTEX
  8
0
  6
CONTINUOUS
 10
2.849000
 20
3.193960
  0
VERTEX
  8
0
  6
CONTINUOUS
 10
2.204400
 20
2.820400
  0
VERTEX
  8
0
  6
CONTINUOUS
 10
2.203080
 20
2.854720
  0
SEQEND
  8
0
  0
SOLID
  8
0
 62
    15
 10
2.337280
 20
2.926000
 11
2.982320
 21
3.300000
 12
2.311320
 22
2.899160
 13
2.955920
 23
3.273160
  0
POLYLINE
  8
0
  6
CONTINUOUS
 66
     1
 40
0.000000
 41
0.000000
  0
VERTEX
  8
0
  6
CONTINUOUS
 10
2.337280
 20
2.926000
  0
VERTEX
  8
0
  6
CONTINUOUS
 10
2.982320
 20
3.300000
  0
VERTEX
  8
0
  6
CONTINUOUS
 10
2.955920
 20
3.273160
  0
VERTEX
  8
0
  6
CONTINUOUS
 10
2.311320
 20
2.899160
  0
VERTEX
  8
0
  6
CONTINUOUS
 10
2.337280
 20
2.926000
  0
SEQEND
  8
0
  0
SOLID
  8
0
 62
    15
 10
2.311320
 20
2.899160
 11
2.955920
 21
3.273160
 12
2.280080
 22
2.878040
 13
2.924680
 23
3.251600
  0
POLYLINE
  8
0
  6
CONTINUOUS
 66
     1
 40
0.000000
 41
0.000000
  0
VERTEX
  8
0
  6
CONTINUOUS
 10
2.311320
 20
2.899160
  0
VERTEX
  8
0
  6
CONTINUOUS
 10
2.955920
 20
3.273160
  0
VERTEX
  8
0
  6
CONTINUOUS
 10
2.924680
 20
3.251600
  0
VERTEX
  8
0
  6
CONTINUOUS
 10
2.280080
 20
2.878040
  0
VERTEX
  8
0
  6
CONTINUOUS
 10
2.311320
 20
2.899160
  0
SEQEND
  8
0
  0
SOLID
  8
0
 62
    15
 10
2.358400
 20
2.957240
 11
3.003000
 21
3.331240
 12
2.337280
 22
2.926000
 13
2.982320
 23
3.300000
  0
POLYLINE
  8
0
  6
CONTINUOUS
 66
     1
 40
0.000000
 41
0.000000
  0
VERTEX
  8
0
  6
CONTINUOUS
 10
2.358400
 20
2.957240
  0
VERTEX
  8
0
  6
CONTINUOUS
 10
3.003000
 20
3.331240
  0
VERTEX
  8
0
  6
CONTINUOUS
 10
2.982320
 20
3.300000
  0
VERTEX
  8
0
  6
CONTINUOUS
 10
2.337280
 20
2.926000
  0
VERTEX
  8
0
  6
CONTINUOUS
 10
2.358400
 20
2.957240
  0
SEQEND
  8
0
  0
SOLID
  8
0
 62
    15
 10
1.778480
 20
3.641440
 11
2.423520
 21
4.015440
 12
1.917520
 22
3.641440
 13
2.562560
 23
4.015440
  0
POLYLINE
  8
0
  6
CONTINUOUS
 66
     1
 40
0.000000
 41
0.000000
  0
VERTEX
  8
0
  6
CONTINUOUS
 10
1.778480
 20
3.641440
  0
VERTEX
  8
0
  6
CONTINUOUS
 10
2.423520
 20
4.015440
  0
VERTEX
  8
0
  6
CONTINUOUS
 10
2.562560
 20
4.015440
  0
VERTEX
  8
0
  6
CONTINUOUS
 10
1.917520
 20
3.641440
  0
VERTEX
  8
0
  6
CONTINUOUS
 10
1.778480
 20
3.641440
  0
SEQEND
  8
0
  0
SOLID
  8
0
 62
    15
 10
2.215840
 20
2.763200
 11
2.860880
 21
3.137200
 12
2.228600
 22
2.712160
 13
2.873640
 23
3.085720
  0
POLYLINE
  8
0
  6
CONTINUOUS
 66
     1
 40
0.000000
 41
0.000000
  0
VERTEX
  8
0
  6
CONTINUOUS
 10
2.215840
 20
2.763200
  0
VERTEX
  8
0
  6
CONTINUOUS
 10
2.860880
 20
3.137200
  0
VERTEX
  8
0
  6
CONTINUOUS
 10
2.873640
 20
3.085720
  0
VERTEX
  8
0
  6
CONTINUOUS
 10
2.228600
 20
2.712160
  0
VERTEX
  8
0
  6
CONTINUOUS
 10
2.215840
 20
2.763200
  0
SEQEND
  8
0
  0
SOLID
  8
0
 62
     7
 10
2.228600
 20
2.712160
 11
2.873640
 21
3.085720
 12
2.243120
 22
2.665520
 13
2.887720
 23
3.039520
  0
POLYLINE
  8
0
  6
CONTINUOUS
 66
     1
 40
0.000000
 41
0.000000
  0
VERTEX
  8
0
  6
CONTINUOUS
 10
2.228600
 20
2.712160
  0
VERTEX
  8
0
  6
CONTINUOUS
 10
2.873640
 20
3.085720
  0
VERTEX
  8
0
  6
CONTINUOUS
 10
2.887720
 20
3.039520
  0
VERTEX
  8
0
  6
CONTINUOUS
 10
2.243120
 20
2.665520
  0
VERTEX
  8
0
  6
CONTINUOUS
 10
2.228600
 20
2.712160
  0
SEQEND
  8
0
  0
SOLID
  8
0
 62
     7
 10
2.243120
 20
2.665520
 11
2.887720
 21
3.039520
 12
2.258520
 22
2.623720
 13
2.903120
 23
2.997280
  0
POLYLINE
  8
0
  6
CONTINUOUS
 66
     1
 40
0.000000
 41
0.000000
  0
VERTEX
  8
0
  6
CONTINUOUS
 10
2.243120
 20
2.665520
  0
VERTEX
  8
0
  6
CONTINUOUS
 10
2.887720
 20
3.039520
  0
VERTEX
  8
0
  6
CONTINUOUS
 10
2.903120
 20
2.997280
  0
VERTEX
  8
0
  6
CONTINUOUS
 10
2.258520
 20
2.623720
  0
VERTEX
  8
0
  6
CONTINUOUS
 10
2.243120
 20
2.665520
  0
SEQEND
  8
0
  0
SOLID
  8
0
 62
     7
 10
2.258520
 20
2.623720
 11
2.903120
 21
2.997280
 12
2.292840
 22
2.551120
 13
2.937880
 23
2.924680
  0
POLYLINE
  8
0
  6
CONTINUOUS
 66
     1
 40
0.000000
 41
0.000000
  0
VERTEX
  8
0
  6
CONTINUOUS
 10
2.258520
 20
2.623720
  0
VERTEX
  8
0
  6
CONTINUOUS
 10
2.903120
 20
2.997280
  0
VERTEX
  8
0
  6
CONTINUOUS
 10
2.937880
 20
2.924680
  0
VERTEX
  8
0
  6
CONTINUOUS
 10
2.292840
 20
2.551120
  0
VERTEX
  8
0
  6
CONTINUOUS
 10
2.258520
 20
2.623720
  0
SEQEND
  8
0
  0
SOLID
  8
0
 62
     7
 10
2.292840
 20
2.551120
 11
2.937880
 21
2.924680
 12
2.331120
 22
2.489520
 13
2.976160
 23
2.863080
  0
POLYLINE
  8
0
  6
CONTINUOUS
 66
     1
 40
0.000000
 41
0.000000
  0
VERTEX
  8
0
  6
CONTINUOUS
 10
2.292840
 20
2.551120
  0
VERTEX
  8
0
  6
CONTINUOUS
 10
2.937880
 20
2.924680
  0
VERTEX
  8
0
  6
CONTINUOUS
 10
2.976160
 20
2.863080
  0
VERTEX
  8
0
  6
CONTINUOUS
 10
2.331120
 20
2.489520
  0
VERTEX
  8
0
  6
CONTINUOUS
 10
2.292840
 20
2.551120
  0
SEQEND
  8
0
  0
SOLID
  8
0
 62
     7
 10
2.331120
 20
2.489520
 11
2.976160
 21
2.863080
 12
2.417800
 22
2.382600
 13
3.062400
 23
2.756600
  0
POLYLINE
  8
0
  6
CONTINUOUS
 66
     1
 40
0.000000
 41
0.000000
  0
VERTEX
  8
0
  6
CONTINUOUS
 10
2.331120
 20
2.489520
  0
VERTEX
  8
0
  6
CONTINUOUS
 10
2.976160
 20
2.863080
  0
VERTEX
  8
0
  6
CONTINUOUS
 10
3.062400
 20
2.756600
  0
VERTEX
  8
0
  6
CONTINUOUS
 10
2.417800
 20
2.382600
  0
VERTEX
  8
0
  6
CONTINUOUS
 10
2.331120
 20
2.489520
  0
SEQEND
  8
0
  0
SOLID
  8
0
 62
     7
 10
2.417800
 20
2.382600
 11
3.062400
 21
2.756600
 12
2.440680
 22
2.356640
 13
3.085720
 23
2.730200
  0
POLYLINE
  8
0
  6
CONTINUOUS
 66
     1
 40
0.000000
 41
0.000000
  0
VERTEX
  8
0
  6
CONTINUOUS
 10
2.417800
 20
2.382600
  0
VERTEX
  8
0
  6
CONTINUOUS
 10
3.062400
 20
2.756600
  0
VERTEX
  8
0
  6
CONTINUOUS
 10
3.085720
 20
2.730200
  0
VERTEX
  8
0
  6
CONTINUOUS
 10
2.440680
 20
2.356640
  0
VERTEX
  8
0
  6
CONTINUOUS
 10
2.417800
 20
2.382600
  0
SEQEND
  8
0
  0
SOLID
  8
0
 62
     7
 10
2.440680
 20
2.356640
 11
3.085720
 21
2.730200
 12
2.464440
 22
2.329360
 13
3.109040
 23
2.702920
  0
POLYLINE
  8
0
  6
CONTINUOUS
 66
     1
 40
0.000000
 41
0.000000
  0
VERTEX
  8
0
  6
CONTINUOUS
 10
2.440680
 20
2.356640
  0
VERTEX
  8
0
  6
CONTINUOUS
 10
3.085720
 20
2.730200
  0
VERTEX
  8
0
  6
CONTINUOUS
 10
3.109040
 20
2.702920
  0
VERTEX
  8
0
  6
CONTINUOUS
 10
2.464440
 20
2.329360
  0
VERTEX
  8
0
  6
CONTINUOUS
 10
2.440680
 20
2.356640
  0
SEQEND
  8
0
  0
SOLID
  8
0
 62
     7
 10
2.464440
 20
2.329360
 11
3.109040
 21
2.702920
 12
2.512400
 22
2.269520
 13
3.157000
 23
2.643520
  0
POLYLINE
  8
0
  6
CONTINUOUS
 66
     1
 40
0.000000
 41
0.000000
  0
VERTEX
  8
0
  6
CONTINUOUS
 10
2.464440
 20
2.329360
  0
VERTEX
  8
0
  6
CONTINUOUS
 10
3.109040
 20
2.702920
  0
VERTEX
  8
0
  6
CONTINUOUS
 10
3.157000
 20
2.643520
  0
VERTEX
  8
0
  6
CONTINUOUS
 10
2.512400
 20
2.269520
  0
VERTEX
  8
0
  6
CONTINUOUS
 10
2.464440
 20
2.329360
  0
SEQEND
  8
0
  0
SOLID
  8
0
 62
     7
 10
2.512400
 20
2.269520
 11
3.157000
 21
2.643520
 12
2.542760
 22
2.221120
 13
3.187800
 23
2.595120
  0
POLYLINE
  8
0
  6
CONTINUOUS
 66
     1
 40
0.000000
 41
0.000000
  0
VERTEX
  8
0
  6
CONTINUOUS
 10
2.512400
 20
2.269520
  0
VERTEX
  8
0
  6
CONTINUOUS
 10
3.157000
 20
2.643520
  0
VERTEX
  8
0
  6
CONTINUOUS
 10
3.187800
 20
2.595120
  0
VERTEX
  8
0
  6
CONTINUOUS
 10
2.542760
 20
2.221120
  0
VERTEX
  8
0
  6
CONTINUOUS
 10
2.512400
 20
2.269520
  0
SEQEND
  8
0
  0
SOLID
  8
0
 62
     7
 10
2.542760
 20
2.221120
 11
3.187800
 21
2.595120
 12
2.565200
 22
2.175800
 13
3.209800
 23
2.549800
  0
POLYLINE
  8
0
  6
CONTINUOUS
 66
     1
 40
0.000000
 41
0.000000
  0
VERTEX
  8
0
  6
CONTINUOUS
 10
2.542760
 20
2.221120
  0
VERTEX
  8
0
  6
CONTINUOUS
 10
3.187800
 20
2.595120
  0
VERTEX
  8
0
  6
CONTINUOUS
 10
3.209800
 20
2.549800
  0
VERTEX
  8
0
  6
CONTINUOUS
 10
2.565200
 20
2.175800
  0
VERTEX
  8
0
  6
CONTINUOUS
 10
2.542760
 20
2.221120
  0
SEQEND
  8
0
  0
SOLID
  8
0
 62
    15
 10
2.565200
 20
2.175800
 11
3.209800
 21
2.549800
 12
2.579720
 22
2.133120
 13
3.224320
 23
2.507120
  0
POLYLINE
  8
0
  6
CONTINUOUS
 66
     1
 40
0.000000
 41
0.000000
  0
VERTEX
  8
0
  6
CONTINUOUS
 10
2.565200
 20
2.175800
  0
VERTEX
  8
0
  6
CONTINUOUS
 10
3.209800
 20
2.549800
  0
VERTEX
  8
0
  6
CONTINUOUS
 10
3.224320
 20
2.507120
  0
VERTEX
  8
0
  6
CONTINUOUS
 10
2.579720
 20
2.133120
  0
VERTEX
  8
0
  6
CONTINUOUS
 10
2.565200
 20
2.175800
  0
SEQEND
  8
0
  0
SOLID
  8
0
 62
    15
 10
2.579720
 20
2.133120
 11
3.224320
 21
2.507120
 12
2.587200
 22
2.093520
 13
3.231800
 23
2.467520
  0
POLYLINE
  8
0
  6
CONTINUOUS
 66
     1
 40
0.000000
 41
0.000000
  0
VERTEX
  8
0
  6
CONTINUOUS
 10
2.579720
 20
2.133120
  0
VERTEX
  8
0
  6
CONTINUOUS
 10
3.224320
 20
2.507120
  0
VERTEX
  8
0
  6
CONTINUOUS
 10
3.231800
 20
2.467520
  0
VERTEX
  8
0
  6
CONTINUOUS
 10
2.587200
 20
2.093520
  0
VERTEX
  8
0
  6
CONTINUOUS
 10
2.579720
 20
2.133120
  0
SEQEND
  8
0
  0
SOLID
  8
0
 62
    15
 10
2.587200
 20
2.093520
 11
3.231800
 21
2.467520
 12
2.588520
 22
2.057000
 13
3.233560
 23
2.430560
  0
POLYLINE
  8
0
  6
CONTINUOUS
 66
     1
 40
0.000000
 41
0.000000
  0
VERTEX
  8
0
  6
CONTINUOUS
 10
2.587200
 20
2.093520
  0
VERTEX
  8
0
  6
CONTINUOUS
 10
3.231800
 20
2.467520
  0
VERTEX
  8
0
  6
CONTINUOUS
 10
3.233560
 20
2.430560
  0
VERTEX
  8
0
  6
CONTINUOUS
 10
2.588520
 20
2.057000
  0
VERTEX
  8
0
  6
CONTINUOUS
 10
2.587200
 20
2.093520
  0
SEQEND
  8
0
  0
SOLID
  8
0
 62
    15
 10
2.588520
 20
2.057000
 11
3.233560
 21
2.430560
 12
2.584560
 22
2.023120
 13
3.229160
 23
2.396680
  0
POLYLINE
  8
0
  6
CONTINUOUS
 66
     1
 40
0.000000
 41
0.000000
  0
VERTEX
  8
0
  6
CONTINUOUS
 10
2.588520
 20
2.057000
  0
VERTEX
  8
0
  6
CONTINUOUS
 10
3.233560
 20
2.430560
  0
VERTEX
  8
0
  6
CONTINUOUS
 10
3.229160
 20
2.396680
  0
VERTEX
  8
0
  6
CONTINUOUS
 10
2.584560
 20
2.023120
  0
VERTEX
  8
0
  6
CONTINUOUS
 10
2.588520
 20
2.057000
  0
SEQEND
  8
0
  0
SOLID
  8
0
 62
    15
 10
2.584560
 20
2.023120
 11
3.229160
 21
2.396680
 12
2.575760
 22
1.991880
 13
3.220800
 23
2.365880
  0
POLYLINE
  8
0
  6
CONTINUOUS
 66
     1
 40
0.000000
 41
0.000000
  0
VERTEX
  8
0
  6
CONTINUOUS
 10
2.584560
 20
2.023120
  0
VERTEX
  8
0
  6
CONTINUOUS
 10
3.229160
 20
2.396680
  0
VERTEX
  8
0
  6
CONTINUOUS
 10
3.220800
 20
2.365880
  0
VERTEX
  8
0
  6
CONTINUOUS
 10
2.575760
 20
1.991880
  0
VERTEX
  8
0
  6
CONTINUOUS
 10
2.584560
 20
2.023120
  0
SEQEND
  8
0
  0
SOLID
  8
0
 62
    15
 10
2.575760
 20
1.991880
 11
3.220800
 21
2.365880
 12
2.563000
 22
1.963720
 13
3.208040
 23
2.337720
  0
POLYLINE
  8
0
  6
CONTINUOUS
 66
     1
 40
0.000000
 41
0.000000
  0
VERTEX
  8
0
  6
CONTINUOUS
 10
2.575760
 20
1.991880
  0
VERTEX
  8
0
  6
CONTINUOUS
 10
3.220800
 20
2.365880
  0
VERTEX
  8
0
  6
CONTINUOUS
 10
3.208040
 20
2.337720
  0
VERTEX
  8
0
  6
CONTINUOUS
 10
2.563000
 20
1.963720
  0
VERTEX
  8
0
  6
CONTINUOUS
 10
2.575760
 20
1.991880
  0
SEQEND
  8
0
  0
SOLID
  8
0
 62
    15
 10
2.368520
 20
1.824240
 11
3.013120
 21
2.198240
 12
2.353120
 22
1.804000
 13
2.998160
 23
2.177560
  0
POLYLINE
  8
0
  6
CONTINUOUS
 66
     1
 40
0.000000
 41
0.000000
  0
VERTEX
  8
0
  6
CONTINUOUS
 10
2.368520
 20
1.824240
  0
VERTEX
  8
0
  6
CONTINUOUS
 10
3.013120
 20
2.198240
  0
VERTEX
  8
0
  6
CONTINUOUS
 10
2.998160
 20
2.177560
  0
VERTEX
  8
0
  6
CONTINUOUS
 10
2.353120
 20
1.804000
  0
VERTEX
  8
0
  6
CONTINUOUS
 10
2.368520
 20
1.824240
  0
SEQEND
  8
0
  0
SOLID
  8
0
 62
    15
 10
2.353120
 20
1.804000
 11
2.998160
 21
2.177560
 12
2.348720
 22
1.789920
 13
2.993320
 23
2.163920
  0
POLYLINE
  8
0
  6
CONTINUOUS
 66
     1
 40
0.000000
 41
0.000000
  0
VERTEX
  8
0
  6
CONTINUOUS
 10
2.353120
 20
1.804000
  0
VERTEX
  8
0
  6
CONTINUOUS
 10
2.998160
 20
2.177560
  0
VERTEX
  8
0
  6
CONTINUOUS
 10
2.993320
 20
2.163920
  0
VERTEX
  8
0
  6
CONTINUOUS
 10
2.348720
 20
1.789920
  0
VERTEX
  8
0
  6
CONTINUOUS
 10
2.353120
 20
1.804000
  0
SEQEND
  8
0
  0
SOLID
  8
0
 62
    15
 10
2.387440
 20
1.837000
 11
3.032480
 21
2.211000
 12
2.368520
 22
1.824240
 13
3.013120
 23
2.198240
  0
POLYLINE
  8
0
  6
CONTINUOUS
 66
     1
 40
0.000000
 41
0.000000
  0
VERTEX
  8
0
  6
CONTINUOUS
 10
2.387440
 20
1.837000
  0
VERTEX
  8
0
  6
CONTINUOUS
 10
3.032480
 20
2.211000
  0
VERTEX
  8
0
  6
CONTINUOUS
 10
3.013120
 20
2.198240
  0
VERTEX
  8
0
  6
CONTINUOUS
 10
2.368520
 20
1.824240
  0
VERTEX
  8
0
  6
CONTINUOUS
 10
2.387440
 20
1.837000
  0
SEQEND
  8
0
  0
SOLID
  8
0
 62
    15
 10
2.563000
 20
1.963720
 11
3.208040
 21
2.337720
 12
2.528680
 22
1.916640
 13
3.173280
 23
2.290200
  0
POLYLINE
  8
0
  6
CONTINUOUS
 66
     1
 40
0.000000
 41
0.000000
  0
VERTEX
  8
0
  6
CONTINUOUS
 10
2.563000
 20
1.963720
  0
VERTEX
  8
0
  6
CONTINUOUS
 10
3.208040
 20
2.337720
  0
VERTEX
  8
0
  6
CONTINUOUS
 10
3.173280
 20
2.290200
  0
VERTEX
  8
0
  6
CONTINUOUS
 10
2.528680
 20
1.916640
  0
VERTEX
  8
0
  6
CONTINUOUS
 10
2.563000
 20
1.963720
  0
SEQEND
  8
0
  0
SOLID
  8
0
 62
    15
 10
2.528680
 20
1.916640
 11
3.173280
 21
2.290200
 12
2.486880
 22
1.880560
 13
3.131480
 23
2.254560
  0
POLYLINE
  8
0
  6
CONTINUOUS
 66
     1
 40
0.000000
 41
0.000000
  0
VERTEX
  8
0
  6
CONTINUOUS
 10
2.528680
 20
1.916640
  0
VERTEX
  8
0
  6
CONTINUOUS
 10
3.173280
 20
2.290200
  0
VERTEX
  8
0
  6
CONTINUOUS
 10
3.131480
 20
2.254560
  0
VERTEX
  8
0
  6
CONTINUOUS
 10
2.486880
 20
1.880560
  0
VERTEX
  8
0
  6
CONTINUOUS
 10
2.528680
 20
1.916640
  0
SEQEND
  8
0
  0
SOLID
  8
0
 62
    15
 10
2.348720
 20
1.789920
 11
2.993320
 21
2.163920
 12
2.346960
 22
1.773640
 13
2.992000
 23
2.147200
  0
POLYLINE
  8
0
  6
CONTINUOUS
 66
     1
 40
0.000000
 41
0.000000
  0
VERTEX
  8
0
  6
CONTINUOUS
 10
2.348720
 20
1.789920
  0
VERTEX
  8
0
  6
CONTINUOUS
 10
2.993320
 20
2.163920
  0
VERTEX
  8
0
  6
CONTINUOUS
 10
2.992000
 20
2.147200
  0
VERTEX
  8
0
  6
CONTINUOUS
 10
2.346960
 20
1.773640
  0
VERTEX
  8
0
  6
CONTINUOUS
 10
2.348720
 20
1.789920
  0
SEQEND
  8
0
  0
SOLID
  8
0
 62
    15
 10
2.346960
 20
1.773640
 11
2.992000
 21
2.147200
 12
2.346960
 22
1.719080
 13
2.992000
 23
2.092640
  0
POLYLINE
  8
0
  6
CONTINUOUS
 66
     1
 40
0.000000
 41
0.000000
  0
VERTEX
  8
0
  6
CONTINUOUS
 10
2.346960
 20
1.773640
  0
VERTEX
  8
0
  6
CONTINUOUS
 10
2.992000
 20
2.147200
  0
VERTEX
  8
0
  6
CONTINUOUS
 10
2.992000
 20
2.092640
  0
VERTEX
  8
0
  6
CONTINUOUS
 10
2.346960
 20
1.719080
  0
VERTEX
  8
0
  6
CONTINUOUS
 10
2.346960
 20
1.773640
  0
SEQEND
  8
0
  0
SOLID
  8
0
 62
    15
 10
1.777600
 20
1.719080
 11
2.422640
 21
2.092640
 12
1.778480
 22
1.719080
 13
2.423520
 23
2.092640
  0
POLYLINE
  8
0
  6
CONTINUOUS
 66
     1
 40
0.000000
 41
0.000000
  0
VERTEX
  8
0
  6
CONTINUOUS
 10
1.777600
 20
1.719080
  0
VERTEX
  8
0
  6
CONTINUOUS
 10
2.422640
 20
2.092640
  0
VERTEX
  8
0
  6
CONTINUOUS
 10
2.423520
 20
2.092640
  0
VERTEX
  8
0
  6
CONTINUOUS
 10
1.778480
 20
1.719080
  0
VERTEX
  8
0
  6
CONTINUOUS
 10
1.777600
 20
1.719080
  0
SEQEND
  8
0
  0
POLYLINE
  8
0
  6
CONTINUOUS
 66
     1
 40
0.000000
 41
0.000000
  0
VERTEX
  8
0
  6
CONTINUOUS
 10
1.778480
 20
1.719080
  0
VERTEX
  8
0
  6
CONTINUOUS
 10
1.778480
 20
3.641440
  0
VERTEX
  8
0
  6
CONTINUOUS
 10
1.917520
 20
3.641440
  0
VERTEX
  8
0
  6
CONTINUOUS
 10
1.922800
 20
3.619880
  0
VERTEX
  8
0
  6
CONTINUOUS
 10
1.936440
 20
3.590840
  0
VERTEX
  8
0
  6
CONTINUOUS
 10
1.958880
 20
3.557840
  0
VERTEX
  8
0
  6
CONTINUOUS
 10
1.987480
 20
3.522640
  0
VERTEX
  8
0
  6
CONTINUOUS
 10
2.022240
 20
3.488320
  0
VERTEX
  8
0
  6
CONTINUOUS
 10
2.060960
 20
3.457080
  0
VERTEX
  8
0
  6
CONTINUOUS
 10
2.103640
 20
3.432000
  0
VERTEX
  8
0
  6
CONTINUOUS
 10
2.148520
 20
3.414840
  0
VERTEX
  8
0
  6
CONTINUOUS
 10
2.148520
 20
3.286800
  0
VERTEX
  8
0
  6
CONTINUOUS
 10
2.208800
 20
3.276680
  0
VERTEX
  8
0
  6
CONTINUOUS
 10
2.258080
 20
3.259520
  0
VERTEX
  8
0
  6
CONTINUOUS
 10
2.299000
 20
3.236200
  0
VERTEX
  8
0
  6
CONTINUOUS
 10
2.331560
 20
3.208040
  0
VERTEX
  8
0
  6
CONTINUOUS
 10
2.356200
 20
3.175920
  0
VERTEX
  8
0
  6
CONTINUOUS
 10
2.373360
 20
3.140720
  0
VERTEX
  8
0
  6
CONTINUOUS
 10
2.383480
 20
3.103760
  0
VERTEX
  8
0
  6
CONTINUOUS
 10
2.386560
 20
3.065920
  0
VERTEX
  8
0
  6
CONTINUOUS
 10
2.383480
 20
3.028080
  0
VERTEX
  8
0
  6
CONTINUOUS
 10
2.373800
 20
2.991560
  0
VERTEX
  8
0
  6
CONTINUOUS
 10
2.358400
 20
2.957240
  0
VERTEX
  8
0
  6
CONTINUOUS
 10
2.337280
 20
2.926000
  0
VERTEX
  8
0
  6
CONTINUOUS
 10
2.311320
 20
2.899160
  0
VERTEX
  8
0
  6
CONTINUOUS
 10
2.280080
 20
2.878040
  0
VERTEX
  8
0
  6
CONTINUOUS
 10
2.244440
 20
2.862640
  0
VERTEX
  8
0
  6
CONTINUOUS
 10
2.203080
 20
2.854720
  0
VERTEX
  8
0
  6
CONTINUOUS
 10
2.204400
 20
2.820400
  0
VERTEX
  8
0
  6
CONTINUOUS
 10
2.215840
 20
2.763200
  0
VERTEX
  8
0
  6
CONTINUOUS
 10
2.228600
 20
2.712160
  0
VERTEX
  8
0
  6
CONTINUOUS
 10
2.243120
 20
2.665520
  0
VERTEX
  8
0
  6
CONTINUOUS
 10
2.258520
 20
2.623720
  0
VERTEX
  8
0
  6
CONTINUOUS
 10
2.292840
 20
2.551120
  0
VERTEX
  8
0
  6
CONTINUOUS
 10
2.331120
 20
2.489520
  0
VERTEX
  8
0
  6
CONTINUOUS
 10
2.417800
 20
2.382600
  0
VERTEX
  8
0
  6
CONTINUOUS
 10
2.464440
 20
2.329360
  0
VERTEX
  8
0
  6
CONTINUOUS
 10
2.512400
 20
2.269520
  0
VERTEX
  8
0
  6
CONTINUOUS
 10
2.542760
 20
2.221120
  0
VERTEX
  8
0
  6
CONTINUOUS
 10
2.565200
 20
2.175800
  0
VERTEX
  8
0
  6
CONTINUOUS
 10
2.579720
 20
2.133120
  0
VERTEX
  8
0
  6
CONTINUOUS
 10
2.587200
 20
2.093520
  0
VERTEX
  8
0
  6
CONTINUOUS
 10
2.588520
 20
2.057000
  0
VERTEX
  8
0
  6
CONTINUOUS
 10
2.584560
 20
2.023120
  0
VERTEX
  8
0
  6
CONTINUOUS
 10
2.575760
 20
1.991880
  0
VERTEX
  8
0
  6
CONTINUOUS
 10
2.563000
 20
1.963720
  0
VERTEX
  8
0
  6
CONTINUOUS
 10
2.528680
 20
1.916640
  0
VERTEX
  8
0
  6
CONTINUOUS
 10
2.486880
 20
1.880560
  0
VERTEX
  8
0
  6
CONTINUOUS
 10
2.443760
 20
1.856800
  0
VERTEX
  8
0
  6
CONTINUOUS
 10
2.387440
 20
1.837000
  0
VERTEX
  8
0
  6
CONTINUOUS
 10
2.368520
 20
1.824240
  0
VERTEX
  8
0
  6
CONTINUOUS
 10
2.353120
 20
1.804000
  0
VERTEX
  8
0
  6
CONTINUOUS
 10
2.348720
 20
1.789920
  0
VERTEX
  8
0
  6
CONTINUOUS
 10
2.346960
 20
1.773640
  0
VERTEX
  8
0
  6
CONTINUOUS
 10
2.346960
 20
1.719080
  0
VERTEX
  8
0
  6
CONTINUOUS
 10
1.777600
 20
1.719080
  0
VERTEX
  8
0
  6
CONTINUOUS
 10
1.778480
 20
1.719080
  0
SEQEND
  8
0
  0
TEXT
  8
0
 10
2.256760
 20
1.492480
 40
0.138209
  1
BA  65
 41
1.000000
  7
SN0
 71
     0
 72
     5
 11
2.754310
 21
1.492480
  0
TEXT
  8
0
 10
1.962400
 20
1.300640
 40
0.138209
  1
3/4" x 1-15/16"
 41
1.000000
  7
SN0
 71
     0
 72
     5
 11
3.046195
 21
1.300640
  0
ENDSEC
  0
EOF
