  0
SECTION
  2
HEADER
  9
$ACADVER
  1
AC1006
  9
$EXTMIN
 10
1.426480
 20
1.418120
  9
$EXTMAX
 10
6.725840
 20
7.269680
  9
$LTSCALE
 40
0.044000
  9
$PDMODE
 70
    35
  9
$PDSIZE
 40
0.035200
  0
ENDSEC
  0
SECTION
  2
TABLES
  0
TABLE
  2
LTYPE
 70
     9
  0
LTYPE
  2
CONTINUOUS
 70
    64
  3
Solid line
 72
    65
 73
     0
 40
0.000000
  0
LTYPE
  2
DASHED
 70
    64
  3
__ __ __ __ __ __ __ __ __ __ __ __ __ __ __
 72
    65
 73
     2
 40
0.000330
 49
0.000220
 49
-0.000110
  0
LTYPE
  2
HIDDEN
 70
    64
  3
 _ _ _ _ _ _ _ _ _ _ _ _ _ _ _ _ _ _ _ _ _ _
 72
    65
 73
     2
 40
0.000165
 49
0.000110
 49
-0.000055
  0
LTYPE
  2
CENTER
 70
    64
  3
____ _ ____ _ ____ _ ____ _ ____ _ ____ _ ____
 72
    65
 73
     4
 40
0.000880
 49
0.000550
 49
-0.000110
 49
0.000110
 49
-0.000110
  0
LTYPE
  2
PHANTOM
 70
    64
  3
_____ _ _ _____ _ _ _____ _ _ _____ _ _ ____
 72
    65
 73
     6
 40
0.001100
 49
0.000550
 49
-0.000110
 49
0.000110
 49
-0.000110
 49
0.000110
 49
-0.000110
  0
LTYPE
  2
DOT
 70
    64
  3
...............................................
 72
    65
 73
     2
 40
0.000110
 49
0.000000
 49
-0.000110
  0
LTYPE
  2
DASHDOT
 70
    64
  3
__ . __ . __ . __ . __ . __ . __ . __ . __ . __
 72
    65
 73
     4
 40
0.000440
 49
0.000220
 49
-0.000110
 49
0.000000
 49
-0.000110
  0
LTYPE
  2
BORDER
 70
    64
  3
__ __ . __ __ . __ __ . __ __ . __ __ . __ __
 72
    65
 73
     6
 40
0.000770
 49
0.000220
 49
-0.000110
 49
0.000220
 49
-0.000110
 49
0.000000
 49
-0.000110
  0
LTYPE
  2
DIVIDE
 70
    64
  3
__ . . __ . . __ . . __ . . __ . . __ . . __
 72
    65
 73
     6
 40
0.000550
 49
0.000220
 49
-0.000110
 49
0.000000
 49
-0.000110
 49
0.000000
 49
-0.000110
  0
LTYPE
  2
DOTDOT
 70
    64
  3
 . .  . .  . .  . .  . .  . . 
 72
    65
 73
     5
 40
0.000242
 49
-0.000110
 49
0.000000
 49
-0.000110
 49
0.000000
 49
-0.000110
  0
ENDTAB
  0
TABLE
  2
STYLE
 70
     2
  0
STYLE
 70
     0
  2
SN0
 40
0.000000
 41
0.000440
 50
0.000000
 71
     0
 42
0.000000
  3
ROMAND
  0
STYLE
 70
    68
  2
SV0
 40
0.000000
 41
0.000440
 50
0.000000
 71
     0
 42
0.000000
  3
ROMAND
  0
ENDTAB
  0
TABLE
  2
LAYER
 70
     3
  0
LAYER
  2
FOREGROUND
 70
    64
 62
     7
  6
CONTINUOUS
  0
LAYER
  2
BACKGROUND
 70
    65
 62
    -7
  6
CONTINUOUS
  0
LAYER
  2
0
 70
    64
 62
     7
  6
CONTINUOUS
  0
ENDTAB
  0
ENDSEC
  0
SECTION
  2
ENTITIES
  0
POLYLINE
  8
FOREGROUND
  6
CONTINUOUS
 66
     1
 40
0.000000
 41
0.000000
  0
VERTEX
  8
FOREGROUND
  6
CONTINUOUS
 10
0.000000
 20
8.687800
  0
VERTEX
  8
FOREGROUND
  6
CONTINUOUS
 10
8.499920
 20
8.687800
  0
VERTEX
  8
FOREGROUND
  6
CONTINUOUS
 10
8.499920
 20
-2.312200
  0
VERTEX
  8
FOREGROUND
  6
CONTINUOUS
 10
0.000000
 20
-2.312200
  0
VERTEX
  8
FOREGROUND
  6
CONTINUOUS
 10
0.000000
 20
8.687800
  0
SEQEND
  8
0
  0
POLYLINE
  8
FOREGROUND
  6
CONTINUOUS
 66
     1
 40
0.000000
 41
0.000000
  0
VERTEX
  8
FOREGROUND
  6
CONTINUOUS
 10
0.000000
 20
8.687800
  0
VERTEX
  8
FOREGROUND
  6
CONTINUOUS
 10
8.499920
 20
8.687800
  0
VERTEX
  8
FOREGROUND
  6
CONTINUOUS
 10
8.499920
 20
-2.312200
  0
VERTEX
  8
FOREGROUND
  6
CONTINUOUS
 10
0.000000
 20
-2.312200
  0
VERTEX
  8
FOREGROUND
  6
CONTINUOUS
 10
0.000000
 20
8.687800
  0
SEQEND
  8
0
  0
POLYLINE
  8
0
  6
CONTINUOUS
 66
     1
 40
0.014080
 41
0.014080
  0
VERTEX
  8
0
  6
CONTINUOUS
 10
2.129160
 20
7.260440
  0
VERTEX
  8
0
  6
CONTINUOUS
 10
2.170960
 20
7.225240
  0
VERTEX
  8
0
  6
CONTINUOUS
 10
2.214080
 20
7.191800
  0
VERTEX
  8
0
  6
CONTINUOUS
 10
2.258520
 20
7.160120
  0
VERTEX
  8
0
  6
CONTINUOUS
 10
2.350040
 20
7.102480
  0
VERTEX
  8
0
  6
CONTINUOUS
 10
2.397120
 20
7.076080
  0
VERTEX
  8
0
  6
CONTINUOUS
 10
2.445520
 20
7.051440
  0
VERTEX
  8
0
  6
CONTINUOUS
 10
2.494800
 20
7.028560
  0
VERTEX
  8
0
  6
CONTINUOUS
 10
2.595560
 20
6.987640
  0
VERTEX
  8
0
  6
CONTINUOUS
 10
2.699840
 20
6.953320
  0
VERTEX
  8
0
  6
CONTINUOUS
 10
2.807200
 20
6.925600
  0
VERTEX
  8
0
  6
CONTINUOUS
 10
2.861760
 20
6.913720
  0
VERTEX
  8
0
  6
CONTINUOUS
 10
2.917200
 20
6.903600
  0
VERTEX
  8
0
  6
CONTINUOUS
 10
3.029400
 20
6.888200
  0
VERTEX
  8
0
  6
CONTINUOUS
 10
3.143360
 20
6.878080
  0
VERTEX
  8
0
  6
CONTINUOUS
 10
3.201440
 20
6.875000
  0
VERTEX
  8
0
  6
CONTINUOUS
 10
3.318040
 20
6.873680
  0
VERTEX
  8
0
  6
CONTINUOUS
 10
3.436400
 20
6.877640
  0
VERTEX
  8
0
  6
CONTINUOUS
 10
3.495800
 20
6.881160
  0
VERTEX
  8
0
  6
CONTINUOUS
 10
3.615040
 20
6.893040
  0
VERTEX
  8
0
  6
CONTINUOUS
 10
3.735160
 20
6.909320
  0
VERTEX
  8
0
  6
CONTINUOUS
 10
3.855720
 20
6.930880
  0
VERTEX
  8
0
  6
CONTINUOUS
 10
3.978920
 20
6.957280
  0
VERTEX
  8
0
  6
CONTINUOUS
 10
4.172520
 20
7.003920
  0
VERTEX
  8
0
  6
CONTINUOUS
 10
4.373160
 20
7.054520
  0
VERTEX
  8
0
  6
CONTINUOUS
 10
4.578640
 20
7.102920
  0
VERTEX
  8
0
  6
CONTINUOUS
 10
4.716800
 20
7.131080
  0
VERTEX
  8
0
  6
CONTINUOUS
 10
4.854960
 20
7.154400
  0
VERTEX
  8
0
  6
CONTINUOUS
 10
4.992240
 20
7.170680
  0
VERTEX
  8
0
  6
CONTINUOUS
 10
5.094320
 20
7.177280
  0
VERTEX
  8
0
  6
CONTINUOUS
 10
5.161640
 20
7.179040
  0
VERTEX
  8
0
  6
CONTINUOUS
 10
5.228520
 20
7.177720
  0
VERTEX
  8
0
  6
CONTINUOUS
 10
5.294080
 20
7.173760
  0
VERTEX
  8
0
  6
CONTINUOUS
 10
5.359200
 20
7.166720
  0
VERTEX
  8
0
  6
CONTINUOUS
 10
5.423440
 20
7.156160
  0
VERTEX
  8
0
  6
CONTINUOUS
 10
5.486360
 20
7.142520
  0
VERTEX
  8
0
  6
CONTINUOUS
 10
5.548400
 20
7.124920
  0
VERTEX
  8
0
  6
CONTINUOUS
 10
5.608680
 20
7.103360
  0
VERTEX
  8
0
  6
CONTINUOUS
 10
5.668080
 20
7.077840
  0
VERTEX
  8
0
  6
CONTINUOUS
 10
5.725720
 20
7.047920
  0
VERTEX
  8
0
  6
CONTINUOUS
 10
5.782040
 20
7.013160
  0
VERTEX
  8
0
  6
CONTINUOUS
 10
5.836160
 20
6.974000
  0
VERTEX
  8
0
  6
CONTINUOUS
 10
5.888960
 20
6.930000
  0
VERTEX
  8
0
  6
CONTINUOUS
 10
5.914480
 20
6.905800
  0
VERTEX
  8
0
  6
CONTINUOUS
 10
5.914480
 20
6.904480
  0
VERTEX
  8
0
  6
CONTINUOUS
 10
6.401120
 20
7.194880
  0
VERTEX
  8
0
  6
CONTINUOUS
 10
6.719680
 20
6.754880
  0
VERTEX
  8
0
  6
CONTINUOUS
 10
6.719680
 20
6.750920
  0
VERTEX
  8
0
  6
CONTINUOUS
 10
6.361080
 20
6.511120
  0
VERTEX
  8
0
  6
CONTINUOUS
 10
1.617000
 20
6.511120
  0
VERTEX
  8
0
  6
CONTINUOUS
 10
1.431760
 20
6.882920
  0
VERTEX
  8
0
  6
CONTINUOUS
 10
2.123880
 20
7.263080
  0
VERTEX
  8
0
  6
CONTINUOUS
 10
2.129160
 20
7.260440
  0
SEQEND
  8
0
  0
SOLID
  8
0
 62
    15
 10
3.683680
 20
3.774320
 11
4.651240
 21
3.234880
 12
3.589520
 22
3.509440
 13
4.557080
 23
2.969560
  0
POLYLINE
  8
0
  6
CONTINUOUS
 66
     1
 40
0.000000
 41
0.000000
  0
VERTEX
  8
0
  6
CONTINUOUS
 10
3.683680
 20
3.774320
  0
VERTEX
  8
0
  6
CONTINUOUS
 10
4.651240
 20
3.234880
  0
VERTEX
  8
0
  6
CONTINUOUS
 10
4.557080
 20
2.969560
  0
VERTEX
  8
0
  6
CONTINUOUS
 10
3.589520
 20
3.509440
  0
VERTEX
  8
0
  6
CONTINUOUS
 10
3.683680
 20
3.774320
  0
SEQEND
  8
0
  0
SOLID
  8
0
 62
    15
 10
5.068360
 20
5.559400
 11
6.035920
 21
5.019520
 12
5.063080
 22
5.556320
 13
6.030640
 23
5.016440
  0
POLYLINE
  8
0
  6
CONTINUOUS
 66
     1
 40
0.000000
 41
0.000000
  0
VERTEX
  8
0
  6
CONTINUOUS
 10
5.068360
 20
5.559400
  0
VERTEX
  8
0
  6
CONTINUOUS
 10
6.035920
 20
5.019520
  0
VERTEX
  8
0
  6
CONTINUOUS
 10
6.030640
 20
5.016440
  0
VERTEX
  8
0
  6
CONTINUOUS
 10
5.063080
 20
5.556320
  0
VERTEX
  8
0
  6
CONTINUOUS
 10
5.068360
 20
5.559400
  0
SEQEND
  8
0
  0
SOLID
  8
0
 62
    15
 10
5.063080
 20
5.556320
 11
6.030640
 21
5.016440
 12
4.859800
 22
5.478880
 13
5.827360
 23
4.939440
  0
POLYLINE
  8
0
  6
CONTINUOUS
 66
     1
 40
0.000000
 41
0.000000
  0
VERTEX
  8
0
  6
CONTINUOUS
 10
5.063080
 20
5.556320
  0
VERTEX
  8
0
  6
CONTINUOUS
 10
6.030640
 20
5.016440
  0
VERTEX
  8
0
  6
CONTINUOUS
 10
5.827360
 20
4.939440
  0
VERTEX
  8
0
  6
CONTINUOUS
 10
4.859800
 20
5.478880
  0
VERTEX
  8
0
  6
CONTINUOUS
 10
5.063080
 20
5.556320
  0
SEQEND
  8
0
  0
SOLID
  8
0
 62
    15
 10
4.859800
 20
5.478880
 11
5.827360
 21
4.939440
 12
4.671040
 22
5.372840
 13
5.638600
 23
4.832960
  0
POLYLINE
  8
0
  6
CONTINUOUS
 66
     1
 40
0.000000
 41
0.000000
  0
VERTEX
  8
0
  6
CONTINUOUS
 10
4.859800
 20
5.478880
  0
VERTEX
  8
0
  6
CONTINUOUS
 10
5.827360
 20
4.939440
  0
VERTEX
  8
0
  6
CONTINUOUS
 10
5.638600
 20
4.832960
  0
VERTEX
  8
0
  6
CONTINUOUS
 10
4.671040
 20
5.372840
  0
VERTEX
  8
0
  6
CONTINUOUS
 10
4.859800
 20
5.478880
  0
SEQEND
  8
0
  0
SOLID
  8
0
 62
    15
 10
4.671040
 20
5.372840
 11
5.638600
 21
4.832960
 12
4.497240
 22
5.239960
 13
5.464800
 23
4.700080
  0
POLYLINE
  8
0
  6
CONTINUOUS
 66
     1
 40
0.000000
 41
0.000000
  0
VERTEX
  8
0
  6
CONTINUOUS
 10
4.671040
 20
5.372840
  0
VERTEX
  8
0
  6
CONTINUOUS
 10
5.638600
 20
4.832960
  0
VERTEX
  8
0
  6
CONTINUOUS
 10
5.464800
 20
4.700080
  0
VERTEX
  8
0
  6
CONTINUOUS
 10
4.497240
 20
5.239960
  0
VERTEX
  8
0
  6
CONTINUOUS
 10
4.671040
 20
5.372840
  0
SEQEND
  8
0
  0
SOLID
  8
0
 62
    15
 10
4.497240
 20
5.239960
 11
5.464800
 21
4.700080
 12
4.338840
 22
5.083760
 13
5.306400
 23
4.543880
  0
POLYLINE
  8
0
  6
CONTINUOUS
 66
     1
 40
0.000000
 41
0.000000
  0
VERTEX
  8
0
  6
CONTINUOUS
 10
4.497240
 20
5.239960
  0
VERTEX
  8
0
  6
CONTINUOUS
 10
5.464800
 20
4.700080
  0
VERTEX
  8
0
  6
CONTINUOUS
 10
5.306400
 20
4.543880
  0
VERTEX
  8
0
  6
CONTINUOUS
 10
4.338840
 20
5.083760
  0
VERTEX
  8
0
  6
CONTINUOUS
 10
4.497240
 20
5.239960
  0
SEQEND
  8
0
  0
SOLID
  8
0
 62
    15
 10
4.338840
 20
5.083760
 11
5.306400
 21
4.543880
 12
4.195400
 22
4.906440
 13
5.162960
 23
4.366560
  0
POLYLINE
  8
0
  6
CONTINUOUS
 66
     1
 40
0.000000
 41
0.000000
  0
VERTEX
  8
0
  6
CONTINUOUS
 10
4.338840
 20
5.083760
  0
VERTEX
  8
0
  6
CONTINUOUS
 10
5.306400
 20
4.543880
  0
VERTEX
  8
0
  6
CONTINUOUS
 10
5.162960
 20
4.366560
  0
VERTEX
  8
0
  6
CONTINUOUS
 10
4.195400
 20
4.906440
  0
VERTEX
  8
0
  6
CONTINUOUS
 10
4.338840
 20
5.083760
  0
SEQEND
  8
0
  0
SOLID
  8
0
 62
    15
 10
4.195400
 20
4.906440
 11
5.162960
 21
4.366560
 12
4.067360
 22
4.711080
 13
5.034920
 23
4.171200
  0
POLYLINE
  8
0
  6
CONTINUOUS
 66
     1
 40
0.000000
 41
0.000000
  0
VERTEX
  8
0
  6
CONTINUOUS
 10
4.195400
 20
4.906440
  0
VERTEX
  8
0
  6
CONTINUOUS
 10
5.162960
 20
4.366560
  0
VERTEX
  8
0
  6
CONTINUOUS
 10
5.034920
 20
4.171200
  0
VERTEX
  8
0
  6
CONTINUOUS
 10
4.067360
 20
4.711080
  0
VERTEX
  8
0
  6
CONTINUOUS
 10
4.195400
 20
4.906440
  0
SEQEND
  8
0
  0
SOLID
  8
0
 62
    15
 10
4.067360
 20
4.711080
 11
5.034920
 21
4.171200
 12
3.954720
 22
4.500320
 13
4.922280
 23
3.960440
  0
POLYLINE
  8
0
  6
CONTINUOUS
 66
     1
 40
0.000000
 41
0.000000
  0
VERTEX
  8
0
  6
CONTINUOUS
 10
4.067360
 20
4.711080
  0
VERTEX
  8
0
  6
CONTINUOUS
 10
5.034920
 20
4.171200
  0
VERTEX
  8
0
  6
CONTINUOUS
 10
4.922280
 20
3.960440
  0
VERTEX
  8
0
  6
CONTINUOUS
 10
3.954720
 20
4.500320
  0
VERTEX
  8
0
  6
CONTINUOUS
 10
4.067360
 20
4.711080
  0
SEQEND
  8
0
  0
SOLID
  8
0
 62
    15
 10
3.954720
 20
4.500320
 11
4.922280
 21
3.960440
 12
3.857480
 22
4.277240
 13
4.825040
 23
3.737360
  0
POLYLINE
  8
0
  6
CONTINUOUS
 66
     1
 40
0.000000
 41
0.000000
  0
VERTEX
  8
0
  6
CONTINUOUS
 10
3.954720
 20
4.500320
  0
VERTEX
  8
0
  6
CONTINUOUS
 10
4.922280
 20
3.960440
  0
VERTEX
  8
0
  6
CONTINUOUS
 10
4.825040
 20
3.737360
  0
VERTEX
  8
0
  6
CONTINUOUS
 10
3.857480
 20
4.277240
  0
VERTEX
  8
0
  6
CONTINUOUS
 10
3.954720
 20
4.500320
  0
SEQEND
  8
0
  0
SOLID
  8
0
 62
    15
 10
3.857480
 20
4.277240
 11
4.825040
 21
3.737360
 12
3.770360
 22
4.034800
 13
4.737920
 23
3.494920
  0
POLYLINE
  8
0
  6
CONTINUOUS
 66
     1
 40
0.000000
 41
0.000000
  0
VERTEX
  8
0
  6
CONTINUOUS
 10
3.857480
 20
4.277240
  0
VERTEX
  8
0
  6
CONTINUOUS
 10
4.825040
 20
3.737360
  0
VERTEX
  8
0
  6
CONTINUOUS
 10
4.737920
 20
3.494920
  0
VERTEX
  8
0
  6
CONTINUOUS
 10
3.770360
 20
4.034800
  0
VERTEX
  8
0
  6
CONTINUOUS
 10
3.857480
 20
4.277240
  0
SEQEND
  8
0
  0
SOLID
  8
0
 62
    15
 10
3.770360
 20
4.034800
 11
4.737920
 21
3.494920
 12
3.683680
 22
3.774320
 13
4.651240
 23
3.234880
  0
POLYLINE
  8
0
  6
CONTINUOUS
 66
     1
 40
0.000000
 41
0.000000
  0
VERTEX
  8
0
  6
CONTINUOUS
 10
3.770360
 20
4.034800
  0
VERTEX
  8
0
  6
CONTINUOUS
 10
4.737920
 20
3.494920
  0
VERTEX
  8
0
  6
CONTINUOUS
 10
4.651240
 20
3.234880
  0
VERTEX
  8
0
  6
CONTINUOUS
 10
3.683680
 20
3.774320
  0
VERTEX
  8
0
  6
CONTINUOUS
 10
3.770360
 20
4.034800
  0
SEQEND
  8
0
  0
SOLID
  8
0
 62
    15
 10
5.122040
 20
6.334680
 11
6.089600
 21
5.794800
 12
5.068360
 22
5.559400
 13
6.035920
 23
5.019520
  0
POLYLINE
  8
0
  6
CONTINUOUS
 66
     1
 40
0.000000
 41
0.000000
  0
VERTEX
  8
0
  6
CONTINUOUS
 10
5.122040
 20
6.334680
  0
VERTEX
  8
0
  6
CONTINUOUS
 10
6.089600
 20
5.794800
  0
VERTEX
  8
0
  6
CONTINUOUS
 10
6.035920
 20
5.019520
  0
VERTEX
  8
0
  6
CONTINUOUS
 10
5.068360
 20
5.559400
  0
VERTEX
  8
0
  6
CONTINUOUS
 10
5.122040
 20
6.334680
  0
SEQEND
  8
0
  0
SOLID
  8
0
 62
    15
 10
3.589520
 20
3.509440
 11
4.557080
 21
2.969560
 12
3.479960
 22
3.251600
 13
4.447520
 23
2.711720
  0
POLYLINE
  8
0
  6
CONTINUOUS
 66
     1
 40
0.000000
 41
0.000000
  0
VERTEX
  8
0
  6
CONTINUOUS
 10
3.589520
 20
3.509440
  0
VERTEX
  8
0
  6
CONTINUOUS
 10
4.557080
 20
2.969560
  0
VERTEX
  8
0
  6
CONTINUOUS
 10
4.447520
 20
2.711720
  0
VERTEX
  8
0
  6
CONTINUOUS
 10
3.479960
 20
3.251600
  0
VERTEX
  8
0
  6
CONTINUOUS
 10
3.589520
 20
3.509440
  0
SEQEND
  8
0
  0
SOLID
  8
0
 62
    15
 10
3.479960
 20
3.251600
 11
4.447520
 21
2.711720
 12
3.346640
 22
3.014440
 13
4.314200
 23
2.475000
  0
POLYLINE
  8
0
  6
CONTINUOUS
 66
     1
 40
0.000000
 41
0.000000
  0
VERTEX
  8
0
  6
CONTINUOUS
 10
3.479960
 20
3.251600
  0
VERTEX
  8
0
  6
CONTINUOUS
 10
4.447520
 20
2.711720
  0
VERTEX
  8
0
  6
CONTINUOUS
 10
4.314200
 20
2.475000
  0
VERTEX
  8
0
  6
CONTINUOUS
 10
3.346640
 20
3.014440
  0
VERTEX
  8
0
  6
CONTINUOUS
 10
3.479960
 20
3.251600
  0
SEQEND
  8
0
  0
SOLID
  8
0
 62
    15
 10
3.346640
 20
3.014440
 11
4.314200
 21
2.475000
 12
3.182520
 22
2.810720
 13
4.150080
 23
2.271280
  0
POLYLINE
  8
0
  6
CONTINUOUS
 66
     1
 40
0.000000
 41
0.000000
  0
VERTEX
  8
0
  6
CONTINUOUS
 10
3.346640
 20
3.014440
  0
VERTEX
  8
0
  6
CONTINUOUS
 10
4.314200
 20
2.475000
  0
VERTEX
  8
0
  6
CONTINUOUS
 10
4.150080
 20
2.271280
  0
VERTEX
  8
0
  6
CONTINUOUS
 10
3.182520
 20
2.810720
  0
VERTEX
  8
0
  6
CONTINUOUS
 10
3.346640
 20
3.014440
  0
SEQEND
  8
0
  0
SOLID
  8
0
 62
    15
 10
3.182520
 20
2.810720
 11
4.150080
 21
2.271280
 12
3.086600
 22
2.725360
 13
4.054160
 23
2.185920
  0
POLYLINE
  8
0
  6
CONTINUOUS
 66
     1
 40
0.000000
 41
0.000000
  0
VERTEX
  8
0
  6
CONTINUOUS
 10
3.182520
 20
2.810720
  0
VERTEX
  8
0
  6
CONTINUOUS
 10
4.150080
 20
2.271280
  0
VERTEX
  8
0
  6
CONTINUOUS
 10
4.054160
 20
2.185920
  0
VERTEX
  8
0
  6
CONTINUOUS
 10
3.086600
 20
2.725360
  0
VERTEX
  8
0
  6
CONTINUOUS
 10
3.182520
 20
2.810720
  0
SEQEND
  8
0
  0
SOLID
  8
0
 62
    15
 10
3.086600
 20
2.725360
 11
4.054160
 21
2.185920
 12
2.979680
 22
2.653200
 13
3.947240
 23
2.113320
  0
POLYLINE
  8
0
  6
CONTINUOUS
 66
     1
 40
0.000000
 41
0.000000
  0
VERTEX
  8
0
  6
CONTINUOUS
 10
3.086600
 20
2.725360
  0
VERTEX
  8
0
  6
CONTINUOUS
 10
4.054160
 20
2.185920
  0
VERTEX
  8
0
  6
CONTINUOUS
 10
3.947240
 20
2.113320
  0
VERTEX
  8
0
  6
CONTINUOUS
 10
2.979680
 20
2.653200
  0
VERTEX
  8
0
  6
CONTINUOUS
 10
3.086600
 20
2.725360
  0
SEQEND
  8
0
  0
SOLID
  8
0
 62
    15
 10
2.979680
 20
2.653200
 11
3.947240
 21
2.113320
 12
2.861320
 22
2.595560
 13
3.828880
 23
2.056120
  0
POLYLINE
  8
0
  6
CONTINUOUS
 66
     1
 40
0.000000
 41
0.000000
  0
VERTEX
  8
0
  6
CONTINUOUS
 10
2.979680
 20
2.653200
  0
VERTEX
  8
0
  6
CONTINUOUS
 10
3.947240
 20
2.113320
  0
VERTEX
  8
0
  6
CONTINUOUS
 10
3.828880
 20
2.056120
  0
VERTEX
  8
0
  6
CONTINUOUS
 10
2.861320
 20
2.595560
  0
VERTEX
  8
0
  6
CONTINUOUS
 10
2.979680
 20
2.653200
  0
SEQEND
  8
0
  0
SOLID
  8
0
 62
    15
 10
2.728880
 20
2.555080
 11
3.696440
 21
2.015200
 12
2.712600
 22
1.988360
 13
3.680160
 23
1.448480
  0
POLYLINE
  8
0
  6
CONTINUOUS
 66
     1
 40
0.000000
 41
0.000000
  0
VERTEX
  8
0
  6
CONTINUOUS
 10
2.728880
 20
2.555080
  0
VERTEX
  8
0
  6
CONTINUOUS
 10
3.696440
 20
2.015200
  0
VERTEX
  8
0
  6
CONTINUOUS
 10
3.680160
 20
1.448480
  0
VERTEX
  8
0
  6
CONTINUOUS
 10
2.712600
 20
1.988360
  0
VERTEX
  8
0
  6
CONTINUOUS
 10
2.728880
 20
2.555080
  0
SEQEND
  8
0
  0
SOLID
  8
0
 62
    15
 10
2.861320
 20
2.595560
 11
3.828880
 21
2.056120
 12
2.730200
 22
2.554640
 13
3.697760
 23
2.014760
  0
POLYLINE
  8
0
  6
CONTINUOUS
 66
     1
 40
0.000000
 41
0.000000
  0
VERTEX
  8
0
  6
CONTINUOUS
 10
2.861320
 20
2.595560
  0
VERTEX
  8
0
  6
CONTINUOUS
 10
3.828880
 20
2.056120
  0
VERTEX
  8
0
  6
CONTINUOUS
 10
3.697760
 20
2.014760
  0
VERTEX
  8
0
  6
CONTINUOUS
 10
2.730200
 20
2.554640
  0
VERTEX
  8
0
  6
CONTINUOUS
 10
2.861320
 20
2.595560
  0
SEQEND
  8
0
  0
SOLID
  8
0
 62
    15
 10
2.167000
 20
1.958440
 11
3.134560
 21
1.418560
 12
2.157320
 22
1.961960
 13
3.124880
 23
1.422080
  0
POLYLINE
  8
0
  6
CONTINUOUS
 66
     1
 40
0.000000
 41
0.000000
  0
VERTEX
  8
0
  6
CONTINUOUS
 10
2.167000
 20
1.958440
  0
VERTEX
  8
0
  6
CONTINUOUS
 10
3.134560
 20
1.418560
  0
VERTEX
  8
0
  6
CONTINUOUS
 10
3.124880
 20
1.422080
  0
VERTEX
  8
0
  6
CONTINUOUS
 10
2.157320
 20
1.961960
  0
VERTEX
  8
0
  6
CONTINUOUS
 10
2.167000
 20
1.958440
  0
SEQEND
  8
0
  0
SOLID
  8
0
 62
    15
 10
2.712600
 20
1.988360
 11
3.680160
 21
1.448480
 12
2.167000
 22
1.958440
 13
3.134560
 23
1.418560
  0
POLYLINE
  8
0
  6
CONTINUOUS
 66
     1
 40
0.000000
 41
0.000000
  0
VERTEX
  8
0
  6
CONTINUOUS
 10
2.712600
 20
1.988360
  0
VERTEX
  8
0
  6
CONTINUOUS
 10
3.680160
 20
1.448480
  0
VERTEX
  8
0
  6
CONTINUOUS
 10
3.134560
 20
1.418560
  0
VERTEX
  8
0
  6
CONTINUOUS
 10
2.167000
 20
1.958440
  0
VERTEX
  8
0
  6
CONTINUOUS
 10
2.712600
 20
1.988360
  0
SEQEND
  8
0
  0
SOLID
  8
0
 62
    15
 10
5.119400
 20
6.347000
 11
6.086960
 21
5.807560
 12
5.116320
 22
6.347440
 13
6.083880
 23
5.807560
  0
POLYLINE
  8
0
  6
CONTINUOUS
 66
     1
 40
0.000000
 41
0.000000
  0
VERTEX
  8
0
  6
CONTINUOUS
 10
5.119400
 20
6.347000
  0
VERTEX
  8
0
  6
CONTINUOUS
 10
6.086960
 20
5.807560
  0
VERTEX
  8
0
  6
CONTINUOUS
 10
6.083880
 20
5.807560
  0
VERTEX
  8
0
  6
CONTINUOUS
 10
5.116320
 20
6.347440
  0
VERTEX
  8
0
  6
CONTINUOUS
 10
5.119400
 20
6.347000
  0
SEQEND
  8
0
  0
SOLID
  8
0
 62
    15
 10
5.116320
 20
6.347440
 11
6.083880
 21
5.807560
 12
5.122040
 22
6.334680
 13
6.089600
 23
5.794800
  0
POLYLINE
  8
0
  6
CONTINUOUS
 66
     1
 40
0.000000
 41
0.000000
  0
VERTEX
  8
0
  6
CONTINUOUS
 10
5.116320
 20
6.347440
  0
VERTEX
  8
0
  6
CONTINUOUS
 10
6.083880
 20
5.807560
  0
VERTEX
  8
0
  6
CONTINUOUS
 10
6.089600
 20
5.794800
  0
VERTEX
  8
0
  6
CONTINUOUS
 10
5.122040
 20
6.334680
  0
VERTEX
  8
0
  6
CONTINUOUS
 10
5.116320
 20
6.347440
  0
SEQEND
  8
0
  0
POLYLINE
  8
0
  6
CONTINUOUS
 66
     1
 40
0.000000
 41
0.000000
  0
VERTEX
  8
0
  6
CONTINUOUS
 10
5.122040
 20
6.334680
  0
VERTEX
  8
0
  6
CONTINUOUS
 10
5.068360
 20
5.559400
  0
VERTEX
  8
0
  6
CONTINUOUS
 10
5.063080
 20
5.556320
  0
VERTEX
  8
0
  6
CONTINUOUS
 10
4.859800
 20
5.478880
  0
VERTEX
  8
0
  6
CONTINUOUS
 10
4.671040
 20
5.372840
  0
VERTEX
  8
0
  6
CONTINUOUS
 10
4.497240
 20
5.239960
  0
VERTEX
  8
0
  6
CONTINUOUS
 10
4.338840
 20
5.083760
  0
VERTEX
  8
0
  6
CONTINUOUS
 10
4.195400
 20
4.906440
  0
VERTEX
  8
0
  6
CONTINUOUS
 10
4.067360
 20
4.711080
  0
VERTEX
  8
0
  6
CONTINUOUS
 10
3.954720
 20
4.500320
  0
VERTEX
  8
0
  6
CONTINUOUS
 10
3.857480
 20
4.277240
  0
VERTEX
  8
0
  6
CONTINUOUS
 10
3.770360
 20
4.034800
  0
VERTEX
  8
0
  6
CONTINUOUS
 10
3.683680
 20
3.774320
  0
VERTEX
  8
0
  6
CONTINUOUS
 10
3.589520
 20
3.509440
  0
VERTEX
  8
0
  6
CONTINUOUS
 10
3.479960
 20
3.251600
  0
VERTEX
  8
0
  6
CONTINUOUS
 10
3.346640
 20
3.014440
  0
VERTEX
  8
0
  6
CONTINUOUS
 10
3.182520
 20
2.810720
  0
VERTEX
  8
0
  6
CONTINUOUS
 10
3.086600
 20
2.725360
  0
VERTEX
  8
0
  6
CONTINUOUS
 10
2.979680
 20
2.653200
  0
VERTEX
  8
0
  6
CONTINUOUS
 10
2.861320
 20
2.595560
  0
VERTEX
  8
0
  6
CONTINUOUS
 10
2.730200
 20
2.554640
  0
VERTEX
  8
0
  6
CONTINUOUS
 10
2.728880
 20
2.555080
  0
VERTEX
  8
0
  6
CONTINUOUS
 10
2.712600
 20
1.988360
  0
VERTEX
  8
0
  6
CONTINUOUS
 10
2.167000
 20
1.958440
  0
VERTEX
  8
0
  6
CONTINUOUS
 10
2.157320
 20
1.961960
  0
VERTEX
  8
0
  6
CONTINUOUS
 10
2.157320
 20
2.389640
  0
VERTEX
  8
0
  6
CONTINUOUS
 10
4.685120
 20
6.348320
  0
VERTEX
  8
0
  6
CONTINUOUS
 10
5.119400
 20
6.347000
  0
VERTEX
  8
0
  6
CONTINUOUS
 10
5.116320
 20
6.347440
  0
VERTEX
  8
0
  6
CONTINUOUS
 10
5.122040
 20
6.334680
  0
SEQEND
  8
0
  0
TEXT
  8
0
 10
4.373160
 20
1.657040
 40
0.138126
  1
BA  63
 41
1.000000
  7
SN0
 71
     0
 72
     5
 11
4.871420
 21
1.657040
  0
TEXT
  8
0
 10
4.171200
 20
1.465640
 40
0.138126
  1
3/4" x 5-1/4"
 41
1.000000
  7
SN0
 71
     0
 72
     5
 11
5.071755
 21
1.465640
  0
ENDSEC
  0
EOF
