  0
SECTION
  2
HEADER
  9
$ACADVER
  1
AC1006
  9
$EXTMIN
 10
1.510727
 20
2.273721
  9
$EXTMAX
 10
20.079583
 20
7.063715
  9
$LTSCALE
 40
0.080315
  9
$PDMODE
 70
    35
  9
$PDSIZE
 40
0.064252
  0
ENDSEC
  0
SECTION
  2
TABLES
  0
TABLE
  2
LTYPE
 70
     9
  0
LTYPE
  2
CONTINUOUS
 70
    64
  3
Solid line
 72
    65
 73
     0
 40
0.000000
  0
LTYPE
  2
DASHED
 70
    64
  3
__ __ __ __ __ __ __ __ __ __ __ __ __ __ __
 72
    65
 73
     2
 40
0.000602
 49
0.000402
 49
-0.000201
  0
LTYPE
  2
HIDDEN
 70
    64
  3
 _ _ _ _ _ _ _ _ _ _ _ _ _ _ _ _ _ _ _ _ _ _
 72
    65
 73
     2
 40
0.000301
 49
0.000201
 49
-0.000100
  0
LTYPE
  2
CENTER
 70
    64
  3
____ _ ____ _ ____ _ ____ _ ____ _ ____ _ ____
 72
    65
 73
     4
 40
0.001606
 49
0.001004
 49
-0.000201
 49
0.000201
 49
-0.000201
  0
LTYPE
  2
PHANTOM
 70
    64
  3
_____ _ _ _____ _ _ _____ _ _ _____ _ _ ____
 72
    65
 73
     6
 40
0.002008
 49
0.001004
 49
-0.000201
 49
0.000201
 49
-0.000201
 49
0.000201
 49
-0.000201
  0
LTYPE
  2
DOT
 70
    64
  3
...............................................
 72
    65
 73
     2
 40
0.000201
 49
0.000000
 49
-0.000201
  0
LTYPE
  2
DASHDOT
 70
    64
  3
__ . __ . __ . __ . __ . __ . __ . __ . __ . __
 72
    65
 73
     4
 40
0.000803
 49
0.000402
 49
-0.000201
 49
0.000000
 49
-0.000201
  0
LTYPE
  2
BORDER
 70
    64
  3
__ __ . __ __ . __ __ . __ __ . __ __ . __ __
 72
    65
 73
     6
 40
0.001406
 49
0.000402
 49
-0.000201
 49
0.000402
 49
-0.000201
 49
0.000000
 49
-0.000201
  0
LTYPE
  2
DIVIDE
 70
    64
  3
__ . . __ . . __ . . __ . . __ . . __ . . __
 72
    65
 73
     6
 40
0.001004
 49
0.000402
 49
-0.000201
 49
0.000000
 49
-0.000201
 49
0.000000
 49
-0.000201
  0
LTYPE
  2
DOTDOT
 70
    64
  3
 . .  . .  . .  . .  . .  . . 
 72
    65
 73
     5
 40
0.000442
 49
-0.000201
 49
0.000000
 49
-0.000201
 49
0.000000
 49
-0.000201
  0
ENDTAB
  0
TABLE
  2
STYLE
 70
     4
  0
STYLE
 70
     0
  2
SN0
 40
0.000000
 41
0.000803
 50
0.000000
 71
     0
 42
0.000000
  3
ROMAND
  0
STYLE
 70
    68
  2
SV0
 40
0.000000
 41
0.000803
 50
0.000000
 71
     0
 42
0.000000
  3
ROMAND
  0
STYLE
 70
     0
  2
SN1
 40
0.000000
 41
0.000803
 50
0.000000
 71
     0
 42
0.000000
  3
ROMAND
  0
STYLE
 70
    68
  2
SV1
 40
0.000000
 41
0.000803
 50
0.000000
 71
     0
 42
0.000000
  3
ROMAND
  0
ENDTAB
  0
TABLE
  2
LAYER
 70
     3
  0
LAYER
  2
FOREGROUND
 70
    64
 62
     7
  6
CONTINUOUS
  0
LAYER
  2
BACKGROUND
 70
    65
 62
    -7
  6
CONTINUOUS
  0
LAYER
  2
0
 70
    64
 62
     7
  6
CONTINUOUS
  0
ENDTAB
  0
ENDSEC
  0
SECTION
  2
ENTITIES
  0
POLYLINE
  8
FOREGROUND
  6
CONTINUOUS
 66
     1
 40
0.000000
 41
0.000000
  0
VERTEX
  8
FOREGROUND
  6
CONTINUOUS
 10
0.000000
 20
9.337436
  0
VERTEX
  8
FOREGROUND
  6
CONTINUOUS
 10
8.499749
 20
9.337436
  0
VERTEX
  8
FOREGROUND
  6
CONTINUOUS
 10
8.499749
 20
-1.662523
  0
VERTEX
  8
FOREGROUND
  6
CONTINUOUS
 10
0.000000
 20
-1.662523
  0
VERTEX
  8
FOREGROUND
  6
CONTINUOUS
 10
0.000000
 20
9.337436
  0
SEQEND
  8
0
  0
POLYLINE
  8
FOREGROUND
  6
CONTINUOUS
 66
     1
 40
0.000000
 41
0.000000
  0
VERTEX
  8
FOREGROUND
  6
CONTINUOUS
 10
0.000000
 20
9.337436
  0
VERTEX
  8
FOREGROUND
  6
CONTINUOUS
 10
8.499749
 20
9.337436
  0
VERTEX
  8
FOREGROUND
  6
CONTINUOUS
 10
8.499749
 20
-1.662523
  0
VERTEX
  8
FOREGROUND
  6
CONTINUOUS
 10
0.000000
 20
-1.662523
  0
VERTEX
  8
FOREGROUND
  6
CONTINUOUS
 10
0.000000
 20
9.337436
  0
SEQEND
  8
0
  0
TEXT
  8
0
 10
20.047457
 20
2.280146
 40
0.011064
  1
B242
 41
1.000000
  7
SN0
 71
     0
 72
     5
 11
20.075310
 21
2.280146
  0
POLYLINE
  8
0
  6
CONTINUOUS
 66
     1
 40
0.013654
 41
0.013654
  0
VERTEX
  8
0
  6
CONTINUOUS
 10
2.844761
 20
7.011510
  0
VERTEX
  8
0
  6
CONTINUOUS
 10
2.941140
 20
6.936014
  0
VERTEX
  8
0
  6
CONTINUOUS
 10
3.006998
 20
6.894250
  0
VERTEX
  8
0
  6
CONTINUOUS
 10
3.073660
 20
6.859714
  0
VERTEX
  8
0
  6
CONTINUOUS
 10
3.174857
 20
6.821163
  0
VERTEX
  8
0
  6
CONTINUOUS
 10
3.242321
 20
6.805100
  0
VERTEX
  8
0
  6
CONTINUOUS
 10
3.309786
 20
6.795462
  0
VERTEX
  8
0
  6
CONTINUOUS
 10
3.377251
 20
6.792250
  0
VERTEX
  8
0
  6
CONTINUOUS
 10
3.443912
 20
6.797068
  0
VERTEX
  8
0
  6
CONTINUOUS
 10
3.509771
 20
6.808313
  0
VERTEX
  8
0
  6
CONTINUOUS
 10
3.574826
 20
6.826785
  0
VERTEX
  8
0
  6
CONTINUOUS
 10
3.638275
 20
6.852486
  0
VERTEX
  8
0
  6
CONTINUOUS
 10
3.700117
 20
6.885415
  0
VERTEX
  8
0
  6
CONTINUOUS
 10
3.790070
 20
6.948061
  0
VERTEX
  8
0
  6
CONTINUOUS
 10
3.847094
 20
6.997856
  0
VERTEX
  8
0
  6
CONTINUOUS
 10
3.874401
 20
7.025967
  0
VERTEX
  8
0
  6
CONTINUOUS
 10
3.880023
 20
7.025967
  0
VERTEX
  8
0
  6
CONTINUOUS
 10
4.053504
 20
6.742454
  0
VERTEX
  8
0
  6
CONTINUOUS
 10
4.057520
 20
6.746470
  0
VERTEX
  8
0
  6
CONTINUOUS
 10
4.083221
 20
6.791446
  0
VERTEX
  8
0
  6
CONTINUOUS
 10
4.120166
 20
6.834817
  0
VERTEX
  8
0
  6
CONTINUOUS
 10
4.169158
 20
6.876580
  0
VERTEX
  8
0
  6
CONTINUOUS
 10
4.227788
 20
6.913525
  0
VERTEX
  8
0
  6
CONTINUOUS
 10
4.296859
 20
6.945651
  0
VERTEX
  8
0
  6
CONTINUOUS
 10
4.373961
 20
6.971352
  0
VERTEX
  8
0
  6
CONTINUOUS
 10
4.459095
 20
6.988218
  0
VERTEX
  8
0
  6
CONTINUOUS
 10
4.504072
 20
6.993037
  0
VERTEX
  8
0
  6
CONTINUOUS
 10
4.578765
 20
6.997053
  0
VERTEX
  8
0
  6
CONTINUOUS
 10
4.581174
 20
6.998659
  0
VERTEX
  8
0
  6
CONTINUOUS
 10
4.628560
 20
6.996250
  0
VERTEX
  8
0
  6
CONTINUOUS
 10
4.673537
 20
6.991431
  0
VERTEX
  8
0
  6
CONTINUOUS
 10
4.759474
 20
6.973762
  0
VERTEX
  8
0
  6
CONTINUOUS
 10
4.836576
 20
6.948864
  0
VERTEX
  8
0
  6
CONTINUOUS
 10
4.904844
 20
6.915935
  0
VERTEX
  8
0
  6
CONTINUOUS
 10
4.964277
 20
6.878990
  0
VERTEX
  8
0
  6
CONTINUOUS
 10
5.012467
 20
6.837226
  0
VERTEX
  8
0
  6
CONTINUOUS
 10
5.050215
 20
6.793856
  0
VERTEX
  8
0
  6
CONTINUOUS
 10
5.077522
 20
6.746470
  0
VERTEX
  8
0
  6
CONTINUOUS
 10
5.257428
 20
7.029982
  0
VERTEX
  8
0
  6
CONTINUOUS
 10
5.313648
 20
6.975368
  0
VERTEX
  8
0
  6
CONTINUOUS
 10
5.372278
 20
6.927982
  0
VERTEX
  8
0
  6
CONTINUOUS
 10
5.432515
 20
6.888628
  0
VERTEX
  8
0
  6
CONTINUOUS
 10
5.494357
 20
6.855698
  0
VERTEX
  8
0
  6
CONTINUOUS
 10
5.557806
 20
6.829998
  0
VERTEX
  8
0
  6
CONTINUOUS
 10
5.622861
 20
6.811525
  0
VERTEX
  8
0
  6
CONTINUOUS
 10
5.688720
 20
6.799478
  0
VERTEX
  8
0
  6
CONTINUOUS
 10
5.755381
 20
6.794659
  0
VERTEX
  8
0
  6
CONTINUOUS
 10
5.822846
 20
6.797872
  0
VERTEX
  8
0
  6
CONTINUOUS
 10
5.890311
 20
6.807509
  0
VERTEX
  8
0
  6
CONTINUOUS
 10
5.957775
 20
6.824376
  0
VERTEX
  8
0
  6
CONTINUOUS
 10
6.025240
 20
6.847667
  0
VERTEX
  8
0
  6
CONTINUOUS
 10
6.092705
 20
6.878990
  0
VERTEX
  8
0
  6
CONTINUOUS
 10
6.158563
 20
6.916738
  0
VERTEX
  8
0
  6
CONTINUOUS
 10
6.255745
 20
6.986612
  0
VERTEX
  8
0
  6
CONTINUOUS
 10
6.287871
 20
7.013919
  0
VERTEX
  8
0
  6
CONTINUOUS
 10
6.299918
 20
7.013919
  0
VERTEX
  8
0
  6
CONTINUOUS
 10
6.298312
 20
7.013919
  0
VERTEX
  8
0
  6
CONTINUOUS
 10
6.490265
 20
6.758517
  0
VERTEX
  8
0
  6
CONTINUOUS
 10
6.766549
 20
7.061305
  0
VERTEX
  8
0
  6
CONTINUOUS
 10
7.229164
 20
7.062108
  0
VERTEX
  8
0
  6
CONTINUOUS
 10
7.239605
 20
6.997856
  0
VERTEX
  8
0
  6
CONTINUOUS
 10
7.258077
 20
6.932801
  0
VERTEX
  8
0
  6
CONTINUOUS
 10
7.270928
 20
6.899872
  0
VERTEX
  8
0
  6
CONTINUOUS
 10
7.305463
 20
6.838029
  0
VERTEX
  8
0
  6
CONTINUOUS
 10
7.351243
 20
6.782612
  0
VERTEX
  8
0
  6
CONTINUOUS
 10
7.394613
 20
6.748076
  0
VERTEX
  8
0
  6
CONTINUOUS
 10
7.444408
 20
6.721572
  0
VERTEX
  8
0
  6
CONTINUOUS
 10
7.482156
 20
6.708722
  0
VERTEX
  8
0
  6
CONTINUOUS
 10
7.523920
 20
6.700690
  0
VERTEX
  8
0
  6
CONTINUOUS
 10
7.593794
 20
6.698281
  0
VERTEX
  8
0
  6
CONTINUOUS
 10
7.619495
 20
6.700690
  0
VERTEX
  8
0
  6
CONTINUOUS
 10
7.619495
 20
6.262170
  0
VERTEX
  8
0
  6
CONTINUOUS
 10
7.610661
 20
6.262170
  0
VERTEX
  8
0
  6
CONTINUOUS
 10
7.610661
 20
6.263776
  0
VERTEX
  8
0
  6
CONTINUOUS
 10
1.511531
 20
6.263776
  0
VERTEX
  8
0
  6
CONTINUOUS
 10
1.511531
 20
6.272611
  0
VERTEX
  8
0
  6
CONTINUOUS
 10
1.513137
 20
6.271808
  0
VERTEX
  8
0
  6
CONTINUOUS
 10
1.513137
 20
6.698281
  0
VERTEX
  8
0
  6
CONTINUOUS
 10
1.538838
 20
6.695871
  0
VERTEX
  8
0
  6
CONTINUOUS
 10
1.586224
 20
6.695871
  0
VERTEX
  8
0
  6
CONTINUOUS
 10
1.629594
 20
6.701493
  0
VERTEX
  8
0
  6
CONTINUOUS
 10
1.669751
 20
6.711934
  0
VERTEX
  8
0
  6
CONTINUOUS
 10
1.722759
 20
6.736029
  0
VERTEX
  8
0
  6
CONTINUOUS
 10
1.754082
 20
6.756108
  0
VERTEX
  8
0
  6
CONTINUOUS
 10
1.806287
 20
6.805903
  0
VERTEX
  8
0
  6
CONTINUOUS
 10
1.845641
 20
6.865336
  0
VERTEX
  8
0
  6
CONTINUOUS
 10
1.861704
 20
6.896659
  0
VERTEX
  8
0
  6
CONTINUOUS
 10
1.884996
 20
6.962518
  0
VERTEX
  8
0
  6
CONTINUOUS
 10
1.899453
 20
7.026770
  0
VERTEX
  8
0
  6
CONTINUOUS
 10
1.903468
 20
7.058093
  0
VERTEX
  8
0
  6
CONTINUOUS
 10
1.902665
 20
7.058093
  0
VERTEX
  8
0
  6
CONTINUOUS
 10
1.917122
 20
7.058093
  0
VERTEX
  8
0
  6
CONTINUOUS
 10
1.914712
 20
7.058093
  0
VERTEX
  8
0
  6
CONTINUOUS
 10
2.366887
 20
7.058093
  0
VERTEX
  8
0
  6
CONTINUOUS
 10
2.642367
 20
6.755305
  0
VERTEX
  8
0
  6
CONTINUOUS
 10
2.834321
 20
7.011510
  0
VERTEX
  8
0
  6
CONTINUOUS
 10
2.844761
 20
7.011510
  0
SEQEND
  8
0
  0
SOLID
  8
0
 62
    15
 10
5.619649
 20
4.622135
 11
5.611617
 21
5.826059
 12
5.684704
 22
4.603663
 13
5.676673
 23
5.806783
  0
POLYLINE
  8
0
  6
CONTINUOUS
 66
     1
 40
0.000000
 41
0.000000
  0
VERTEX
  8
0
  6
CONTINUOUS
 10
5.619649
 20
4.622135
  0
VERTEX
  8
0
  6
CONTINUOUS
 10
5.611617
 20
5.826059
  0
VERTEX
  8
0
  6
CONTINUOUS
 10
5.676673
 20
5.806783
  0
VERTEX
  8
0
  6
CONTINUOUS
 10
5.684704
 20
4.603663
  0
VERTEX
  8
0
  6
CONTINUOUS
 10
5.619649
 20
4.622135
  0
SEQEND
  8
0
  0
SOLID
  8
0
 62
    15
 10
2.970856
 20
4.751442
 11
2.962825
 21
5.955366
 12
3.035911
 22
4.706466
 13
3.027880
 23
5.910390
  0
POLYLINE
  8
0
  6
CONTINUOUS
 66
     1
 40
0.000000
 41
0.000000
  0
VERTEX
  8
0
  6
CONTINUOUS
 10
2.970856
 20
4.751442
  0
VERTEX
  8
0
  6
CONTINUOUS
 10
2.962825
 20
5.955366
  0
VERTEX
  8
0
  6
CONTINUOUS
 10
3.027880
 20
5.910390
  0
VERTEX
  8
0
  6
CONTINUOUS
 10
3.035911
 20
4.706466
  0
VERTEX
  8
0
  6
CONTINUOUS
 10
2.970856
 20
4.751442
  0
SEQEND
  8
0
  0
SOLID
  8
0
 62
    15
 10
3.035911
 20
4.706466
 11
3.027880
 21
5.910390
 12
3.102573
 22
4.668718
 13
3.093738
 23
5.871838
  0
POLYLINE
  8
0
  6
CONTINUOUS
 66
     1
 40
0.000000
 41
0.000000
  0
VERTEX
  8
0
  6
CONTINUOUS
 10
3.035911
 20
4.706466
  0
VERTEX
  8
0
  6
CONTINUOUS
 10
3.027880
 20
5.910390
  0
VERTEX
  8
0
  6
CONTINUOUS
 10
3.093738
 20
5.871838
  0
VERTEX
  8
0
  6
CONTINUOUS
 10
3.102573
 20
4.668718
  0
VERTEX
  8
0
  6
CONTINUOUS
 10
3.035911
 20
4.706466
  0
SEQEND
  8
0
  0
SOLID
  8
0
 62
    15
 10
3.102573
 20
4.668718
 11
3.093738
 21
5.871838
 12
3.169235
 22
4.637395
 13
3.161203
 23
5.841319
  0
POLYLINE
  8
0
  6
CONTINUOUS
 66
     1
 40
0.000000
 41
0.000000
  0
VERTEX
  8
0
  6
CONTINUOUS
 10
3.102573
 20
4.668718
  0
VERTEX
  8
0
  6
CONTINUOUS
 10
3.093738
 20
5.871838
  0
VERTEX
  8
0
  6
CONTINUOUS
 10
3.161203
 20
5.841319
  0
VERTEX
  8
0
  6
CONTINUOUS
 10
3.169235
 20
4.637395
  0
VERTEX
  8
0
  6
CONTINUOUS
 10
3.102573
 20
4.668718
  0
SEQEND
  8
0
  0
SOLID
  8
0
 62
    15
 10
3.169235
 20
4.637395
 11
3.161203
 21
5.841319
 12
3.236699
 22
4.614104
 13
3.228668
 23
5.817224
  0
POLYLINE
  8
0
  6
CONTINUOUS
 66
     1
 40
0.000000
 41
0.000000
  0
VERTEX
  8
0
  6
CONTINUOUS
 10
3.169235
 20
4.637395
  0
VERTEX
  8
0
  6
CONTINUOUS
 10
3.161203
 20
5.841319
  0
VERTEX
  8
0
  6
CONTINUOUS
 10
3.228668
 20
5.817224
  0
VERTEX
  8
0
  6
CONTINUOUS
 10
3.236699
 20
4.614104
  0
VERTEX
  8
0
  6
CONTINUOUS
 10
3.169235
 20
4.637395
  0
SEQEND
  8
0
  0
SOLID
  8
0
 62
    15
 10
3.236699
 20
4.614104
 11
3.228668
 21
5.817224
 12
3.304164
 22
4.597237
 13
3.296132
 23
5.800358
  0
POLYLINE
  8
0
  6
CONTINUOUS
 66
     1
 40
0.000000
 41
0.000000
  0
VERTEX
  8
0
  6
CONTINUOUS
 10
3.236699
 20
4.614104
  0
VERTEX
  8
0
  6
CONTINUOUS
 10
3.228668
 20
5.817224
  0
VERTEX
  8
0
  6
CONTINUOUS
 10
3.296132
 20
5.800358
  0
VERTEX
  8
0
  6
CONTINUOUS
 10
3.304164
 20
4.597237
  0
VERTEX
  8
0
  6
CONTINUOUS
 10
3.236699
 20
4.614104
  0
SEQEND
  8
0
  0
SOLID
  8
0
 62
    15
 10
3.304164
 20
4.597237
 11
3.296132
 21
5.800358
 12
3.371629
 22
4.587600
 13
3.363597
 23
5.790720
  0
POLYLINE
  8
0
  6
CONTINUOUS
 66
     1
 40
0.000000
 41
0.000000
  0
VERTEX
  8
0
  6
CONTINUOUS
 10
3.304164
 20
4.597237
  0
VERTEX
  8
0
  6
CONTINUOUS
 10
3.296132
 20
5.800358
  0
VERTEX
  8
0
  6
CONTINUOUS
 10
3.363597
 20
5.790720
  0
VERTEX
  8
0
  6
CONTINUOUS
 10
3.371629
 20
4.587600
  0
VERTEX
  8
0
  6
CONTINUOUS
 10
3.304164
 20
4.597237
  0
SEQEND
  8
0
  0
SOLID
  8
0
 62
    15
 10
3.371629
 20
4.587600
 11
3.363597
 21
5.790720
 12
3.439093
 22
4.585190
 13
3.431062
 23
5.788311
  0
POLYLINE
  8
0
  6
CONTINUOUS
 66
     1
 40
0.000000
 41
0.000000
  0
VERTEX
  8
0
  6
CONTINUOUS
 10
3.371629
 20
4.587600
  0
VERTEX
  8
0
  6
CONTINUOUS
 10
3.363597
 20
5.790720
  0
VERTEX
  8
0
  6
CONTINUOUS
 10
3.431062
 20
5.788311
  0
VERTEX
  8
0
  6
CONTINUOUS
 10
3.439093
 20
4.585190
  0
VERTEX
  8
0
  6
CONTINUOUS
 10
3.371629
 20
4.587600
  0
SEQEND
  8
0
  0
SOLID
  8
0
 62
    15
 10
3.439093
 20
4.585190
 11
3.431062
 21
5.788311
 12
3.505755
 22
4.589206
 13
3.497723
 23
5.793129
  0
POLYLINE
  8
0
  6
CONTINUOUS
 66
     1
 40
0.000000
 41
0.000000
  0
VERTEX
  8
0
  6
CONTINUOUS
 10
3.439093
 20
4.585190
  0
VERTEX
  8
0
  6
CONTINUOUS
 10
3.431062
 20
5.788311
  0
VERTEX
  8
0
  6
CONTINUOUS
 10
3.497723
 20
5.793129
  0
VERTEX
  8
0
  6
CONTINUOUS
 10
3.505755
 20
4.589206
  0
VERTEX
  8
0
  6
CONTINUOUS
 10
3.439093
 20
4.585190
  0
SEQEND
  8
0
  0
SOLID
  8
0
 62
    15
 10
3.505755
 20
4.589206
 11
3.497723
 21
5.793129
 12
3.571613
 22
4.601253
 13
3.563582
 23
5.804374
  0
POLYLINE
  8
0
  6
CONTINUOUS
 66
     1
 40
0.000000
 41
0.000000
  0
VERTEX
  8
0
  6
CONTINUOUS
 10
3.505755
 20
4.589206
  0
VERTEX
  8
0
  6
CONTINUOUS
 10
3.497723
 20
5.793129
  0
VERTEX
  8
0
  6
CONTINUOUS
 10
3.563582
 20
5.804374
  0
VERTEX
  8
0
  6
CONTINUOUS
 10
3.571613
 20
4.601253
  0
VERTEX
  8
0
  6
CONTINUOUS
 10
3.505755
 20
4.589206
  0
SEQEND
  8
0
  0
SOLID
  8
0
 62
    15
 10
3.571613
 20
4.601253
 11
3.563582
 21
5.804374
 12
3.636669
 22
4.619726
 13
3.628637
 23
5.822846
  0
POLYLINE
  8
0
  6
CONTINUOUS
 66
     1
 40
0.000000
 41
0.000000
  0
VERTEX
  8
0
  6
CONTINUOUS
 10
3.571613
 20
4.601253
  0
VERTEX
  8
0
  6
CONTINUOUS
 10
3.563582
 20
5.804374
  0
VERTEX
  8
0
  6
CONTINUOUS
 10
3.628637
 20
5.822846
  0
VERTEX
  8
0
  6
CONTINUOUS
 10
3.636669
 20
4.619726
  0
VERTEX
  8
0
  6
CONTINUOUS
 10
3.571613
 20
4.601253
  0
SEQEND
  8
0
  0
SOLID
  8
0
 62
    15
 10
3.636669
 20
4.619726
 11
3.628637
 21
5.822846
 12
3.700117
 22
4.645426
 13
3.692086
 23
5.848547
  0
POLYLINE
  8
0
  6
CONTINUOUS
 66
     1
 40
0.000000
 41
0.000000
  0
VERTEX
  8
0
  6
CONTINUOUS
 10
3.636669
 20
4.619726
  0
VERTEX
  8
0
  6
CONTINUOUS
 10
3.628637
 20
5.822846
  0
VERTEX
  8
0
  6
CONTINUOUS
 10
3.692086
 20
5.848547
  0
VERTEX
  8
0
  6
CONTINUOUS
 10
3.700117
 20
4.645426
  0
VERTEX
  8
0
  6
CONTINUOUS
 10
3.636669
 20
4.619726
  0
SEQEND
  8
0
  0
SOLID
  8
0
 62
    15
 10
3.700117
 20
4.645426
 11
3.692086
 21
5.848547
 12
3.762763
 22
4.677552
 13
3.753929
 23
5.881476
  0
POLYLINE
  8
0
  6
CONTINUOUS
 66
     1
 40
0.000000
 41
0.000000
  0
VERTEX
  8
0
  6
CONTINUOUS
 10
3.700117
 20
4.645426
  0
VERTEX
  8
0
  6
CONTINUOUS
 10
3.692086
 20
5.848547
  0
VERTEX
  8
0
  6
CONTINUOUS
 10
3.753929
 20
5.881476
  0
VERTEX
  8
0
  6
CONTINUOUS
 10
3.762763
 20
4.677552
  0
VERTEX
  8
0
  6
CONTINUOUS
 10
3.700117
 20
4.645426
  0
SEQEND
  8
0
  0
SOLID
  8
0
 62
    15
 10
3.762763
 20
4.677552
 11
3.753929
 21
5.881476
 12
3.822196
 22
4.717710
 13
3.814165
 23
5.921634
  0
POLYLINE
  8
0
  6
CONTINUOUS
 66
     1
 40
0.000000
 41
0.000000
  0
VERTEX
  8
0
  6
CONTINUOUS
 10
3.762763
 20
4.677552
  0
VERTEX
  8
0
  6
CONTINUOUS
 10
3.753929
 20
5.881476
  0
VERTEX
  8
0
  6
CONTINUOUS
 10
3.814165
 20
5.921634
  0
VERTEX
  8
0
  6
CONTINUOUS
 10
3.822196
 20
4.717710
  0
VERTEX
  8
0
  6
CONTINUOUS
 10
3.762763
 20
4.677552
  0
SEQEND
  8
0
  0
SOLID
  8
0
 62
    15
 10
3.822196
 20
4.717710
 11
3.814165
 21
5.921634
 12
3.880827
 22
4.764293
 13
3.871992
 23
5.968216
  0
POLYLINE
  8
0
  6
CONTINUOUS
 66
     1
 40
0.000000
 41
0.000000
  0
VERTEX
  8
0
  6
CONTINUOUS
 10
3.822196
 20
4.717710
  0
VERTEX
  8
0
  6
CONTINUOUS
 10
3.814165
 20
5.921634
  0
VERTEX
  8
0
  6
CONTINUOUS
 10
3.871992
 20
5.968216
  0
VERTEX
  8
0
  6
CONTINUOUS
 10
3.880827
 20
4.764293
  0
VERTEX
  8
0
  6
CONTINUOUS
 10
3.822196
 20
4.717710
  0
SEQEND
  8
0
  0
SOLID
  8
0
 62
    15
 10
3.880827
 20
4.764293
 11
3.871992
 21
5.968216
 12
3.936244
 22
4.818907
 13
3.928212
 23
6.022028
  0
POLYLINE
  8
0
  6
CONTINUOUS
 66
     1
 40
0.000000
 41
0.000000
  0
VERTEX
  8
0
  6
CONTINUOUS
 10
3.880827
 20
4.764293
  0
VERTEX
  8
0
  6
CONTINUOUS
 10
3.871992
 20
5.968216
  0
VERTEX
  8
0
  6
CONTINUOUS
 10
3.928212
 20
6.022028
  0
VERTEX
  8
0
  6
CONTINUOUS
 10
3.936244
 20
4.818907
  0
VERTEX
  8
0
  6
CONTINUOUS
 10
3.880827
 20
4.764293
  0
SEQEND
  8
0
  0
SOLID
  8
0
 62
    15
 10
3.936244
 20
4.818907
 11
3.928212
 21
6.022028
 12
3.941866
 22
4.818907
 13
3.933031
 23
6.022028
  0
POLYLINE
  8
0
  6
CONTINUOUS
 66
     1
 40
0.000000
 41
0.000000
  0
VERTEX
  8
0
  6
CONTINUOUS
 10
3.936244
 20
4.818907
  0
VERTEX
  8
0
  6
CONTINUOUS
 10
3.928212
 20
6.022028
  0
VERTEX
  8
0
  6
CONTINUOUS
 10
3.933031
 20
6.022028
  0
VERTEX
  8
0
  6
CONTINUOUS
 10
3.941866
 20
4.818907
  0
VERTEX
  8
0
  6
CONTINUOUS
 10
3.936244
 20
4.818907
  0
SEQEND
  8
0
  0
SOLID
  8
0
 62
    15
 10
3.941866
 20
4.818907
 11
3.933031
 21
6.022028
 12
4.108118
 22
4.544229
 13
4.100087
 23
5.747350
  0
POLYLINE
  8
0
  6
CONTINUOUS
 66
     1
 40
0.000000
 41
0.000000
  0
VERTEX
  8
0
  6
CONTINUOUS
 10
3.941866
 20
4.818907
  0
VERTEX
  8
0
  6
CONTINUOUS
 10
3.933031
 20
6.022028
  0
VERTEX
  8
0
  6
CONTINUOUS
 10
4.100087
 20
5.747350
  0
VERTEX
  8
0
  6
CONTINUOUS
 10
4.108118
 20
4.544229
  0
VERTEX
  8
0
  6
CONTINUOUS
 10
3.941866
 20
4.818907
  0
SEQEND
  8
0
  0
SOLID
  8
0
 62
    15
 10
4.108118
 20
4.544229
 11
4.100087
 21
5.747350
 12
4.109725
 22
4.542623
 13
4.101693
 23
5.745744
  0
POLYLINE
  8
0
  6
CONTINUOUS
 66
     1
 40
0.000000
 41
0.000000
  0
VERTEX
  8
0
  6
CONTINUOUS
 10
4.108118
 20
4.544229
  0
VERTEX
  8
0
  6
CONTINUOUS
 10
4.100087
 20
5.747350
  0
VERTEX
  8
0
  6
CONTINUOUS
 10
4.101693
 20
5.745744
  0
VERTEX
  8
0
  6
CONTINUOUS
 10
4.109725
 20
4.542623
  0
VERTEX
  8
0
  6
CONTINUOUS
 10
4.108118
 20
4.544229
  0
SEQEND
  8
0
  0
SOLID
  8
0
 62
    15
 10
4.109725
 20
4.542623
 11
4.101693
 21
5.745744
 12
4.115347
 22
4.534592
 13
4.106512
 23
5.737712
  0
POLYLINE
  8
0
  6
CONTINUOUS
 66
     1
 40
0.000000
 41
0.000000
  0
VERTEX
  8
0
  6
CONTINUOUS
 10
4.109725
 20
4.542623
  0
VERTEX
  8
0
  6
CONTINUOUS
 10
4.101693
 20
5.745744
  0
VERTEX
  8
0
  6
CONTINUOUS
 10
4.106512
 20
5.737712
  0
VERTEX
  8
0
  6
CONTINUOUS
 10
4.115347
 20
4.534592
  0
VERTEX
  8
0
  6
CONTINUOUS
 10
4.109725
 20
4.542623
  0
SEQEND
  8
0
  0
SOLID
  8
0
 62
    15
 10
4.115347
 20
4.534592
 11
4.106512
 21
5.737712
 12
4.120166
 22
4.537001
 13
4.112134
 23
5.740925
  0
POLYLINE
  8
0
  6
CONTINUOUS
 66
     1
 40
0.000000
 41
0.000000
  0
VERTEX
  8
0
  6
CONTINUOUS
 10
4.115347
 20
4.534592
  0
VERTEX
  8
0
  6
CONTINUOUS
 10
4.106512
 20
5.737712
  0
VERTEX
  8
0
  6
CONTINUOUS
 10
4.112134
 20
5.740925
  0
VERTEX
  8
0
  6
CONTINUOUS
 10
4.120166
 20
4.537001
  0
VERTEX
  8
0
  6
CONTINUOUS
 10
4.115347
 20
4.534592
  0
SEQEND
  8
0
  0
SOLID
  8
0
 62
    15
 10
4.119362
 20
4.538607
 11
4.110528
 21
5.741728
 12
4.145063
 22
4.582781
 13
4.136229
 23
5.786704
  0
POLYLINE
  8
0
  6
CONTINUOUS
 66
     1
 40
0.000000
 41
0.000000
  0
VERTEX
  8
0
  6
CONTINUOUS
 10
4.119362
 20
4.538607
  0
VERTEX
  8
0
  6
CONTINUOUS
 10
4.110528
 20
5.741728
  0
VERTEX
  8
0
  6
CONTINUOUS
 10
4.136229
 20
5.786704
  0
VERTEX
  8
0
  6
CONTINUOUS
 10
4.145063
 20
4.582781
  0
VERTEX
  8
0
  6
CONTINUOUS
 10
4.119362
 20
4.538607
  0
SEQEND
  8
0
  0
SOLID
  8
0
 62
    15
 10
4.145063
 20
4.582781
 11
4.136229
 21
5.786704
 12
4.182008
 22
4.626954
 13
4.173977
 23
5.830074
  0
POLYLINE
  8
0
  6
CONTINUOUS
 66
     1
 40
0.000000
 41
0.000000
  0
VERTEX
  8
0
  6
CONTINUOUS
 10
4.145063
 20
4.582781
  0
VERTEX
  8
0
  6
CONTINUOUS
 10
4.136229
 20
5.786704
  0
VERTEX
  8
0
  6
CONTINUOUS
 10
4.173977
 20
5.830074
  0
VERTEX
  8
0
  6
CONTINUOUS
 10
4.182008
 20
4.626954
  0
VERTEX
  8
0
  6
CONTINUOUS
 10
4.145063
 20
4.582781
  0
SEQEND
  8
0
  0
SOLID
  8
0
 62
    15
 10
4.182008
 20
4.626954
 11
4.173977
 21
5.830074
 12
4.231000
 22
4.667915
 13
4.222166
 23
5.871838
  0
POLYLINE
  8
0
  6
CONTINUOUS
 66
     1
 40
0.000000
 41
0.000000
  0
VERTEX
  8
0
  6
CONTINUOUS
 10
4.182008
 20
4.626954
  0
VERTEX
  8
0
  6
CONTINUOUS
 10
4.173977
 20
5.830074
  0
VERTEX
  8
0
  6
CONTINUOUS
 10
4.222166
 20
5.871838
  0
VERTEX
  8
0
  6
CONTINUOUS
 10
4.231000
 20
4.667915
  0
VERTEX
  8
0
  6
CONTINUOUS
 10
4.182008
 20
4.626954
  0
SEQEND
  8
0
  0
SOLID
  8
0
 62
    15
 10
4.231000
 20
4.667915
 11
4.222166
 21
5.871838
 12
4.289630
 22
4.705663
 13
4.281599
 23
5.909586
  0
POLYLINE
  8
0
  6
CONTINUOUS
 66
     1
 40
0.000000
 41
0.000000
  0
VERTEX
  8
0
  6
CONTINUOUS
 10
4.231000
 20
4.667915
  0
VERTEX
  8
0
  6
CONTINUOUS
 10
4.222166
 20
5.871838
  0
VERTEX
  8
0
  6
CONTINUOUS
 10
4.281599
 20
5.909586
  0
VERTEX
  8
0
  6
CONTINUOUS
 10
4.289630
 20
4.705663
  0
VERTEX
  8
0
  6
CONTINUOUS
 10
4.231000
 20
4.667915
  0
SEQEND
  8
0
  0
SOLID
  8
0
 62
    15
 10
4.289630
 20
4.705663
 11
4.281599
 21
5.909586
 12
4.358701
 22
4.737789
 13
4.349867
 23
5.941712
  0
POLYLINE
  8
0
  6
CONTINUOUS
 66
     1
 40
0.000000
 41
0.000000
  0
VERTEX
  8
0
  6
CONTINUOUS
 10
4.289630
 20
4.705663
  0
VERTEX
  8
0
  6
CONTINUOUS
 10
4.281599
 20
5.909586
  0
VERTEX
  8
0
  6
CONTINUOUS
 10
4.349867
 20
5.941712
  0
VERTEX
  8
0
  6
CONTINUOUS
 10
4.358701
 20
4.737789
  0
VERTEX
  8
0
  6
CONTINUOUS
 10
4.289630
 20
4.705663
  0
SEQEND
  8
0
  0
SOLID
  8
0
 62
    15
 10
4.358701
 20
4.737789
 11
4.349867
 21
5.941712
 12
4.435804
 22
4.763490
 13
4.426969
 23
5.966610
  0
POLYLINE
  8
0
  6
CONTINUOUS
 66
     1
 40
0.000000
 41
0.000000
  0
VERTEX
  8
0
  6
CONTINUOUS
 10
4.358701
 20
4.737789
  0
VERTEX
  8
0
  6
CONTINUOUS
 10
4.349867
 20
5.941712
  0
VERTEX
  8
0
  6
CONTINUOUS
 10
4.426969
 20
5.966610
  0
VERTEX
  8
0
  6
CONTINUOUS
 10
4.435804
 20
4.763490
  0
VERTEX
  8
0
  6
CONTINUOUS
 10
4.358701
 20
4.737789
  0
SEQEND
  8
0
  0
SOLID
  8
0
 62
    15
 10
4.435804
 20
4.763490
 11
4.426969
 21
5.966610
 12
4.520938
 22
4.780356
 13
4.512906
 23
5.984279
  0
POLYLINE
  8
0
  6
CONTINUOUS
 66
     1
 40
0.000000
 41
0.000000
  0
VERTEX
  8
0
  6
CONTINUOUS
 10
4.435804
 20
4.763490
  0
VERTEX
  8
0
  6
CONTINUOUS
 10
4.426969
 20
5.966610
  0
VERTEX
  8
0
  6
CONTINUOUS
 10
4.512906
 20
5.984279
  0
VERTEX
  8
0
  6
CONTINUOUS
 10
4.520938
 20
4.780356
  0
VERTEX
  8
0
  6
CONTINUOUS
 10
4.435804
 20
4.763490
  0
SEQEND
  8
0
  0
SOLID
  8
0
 62
    15
 10
4.612497
 20
4.786781
 11
4.603663
 21
5.989902
 12
4.640608
 22
4.789190
 13
4.631773
 23
5.992311
  0
POLYLINE
  8
0
  6
CONTINUOUS
 66
     1
 40
0.000000
 41
0.000000
  0
VERTEX
  8
0
  6
CONTINUOUS
 10
4.612497
 20
4.786781
  0
VERTEX
  8
0
  6
CONTINUOUS
 10
4.603663
 20
5.989902
  0
VERTEX
  8
0
  6
CONTINUOUS
 10
4.631773
 20
5.992311
  0
VERTEX
  8
0
  6
CONTINUOUS
 10
4.640608
 20
4.789190
  0
VERTEX
  8
0
  6
CONTINUOUS
 10
4.612497
 20
4.786781
  0
SEQEND
  8
0
  0
SOLID
  8
0
 62
    15
 10
4.520938
 20
4.780356
 11
4.512906
 21
5.984279
 12
4.614104
 22
4.787584
 13
4.605269
 23
5.991508
  0
POLYLINE
  8
0
  6
CONTINUOUS
 66
     1
 40
0.000000
 41
0.000000
  0
VERTEX
  8
0
  6
CONTINUOUS
 10
4.520938
 20
4.780356
  0
VERTEX
  8
0
  6
CONTINUOUS
 10
4.512906
 20
5.984279
  0
VERTEX
  8
0
  6
CONTINUOUS
 10
4.605269
 20
5.991508
  0
VERTEX
  8
0
  6
CONTINUOUS
 10
4.614104
 20
4.787584
  0
VERTEX
  8
0
  6
CONTINUOUS
 10
4.520938
 20
4.780356
  0
SEQEND
  8
0
  0
SOLID
  8
0
 62
    15
 10
4.640608
 20
4.789190
 11
4.631773
 21
5.992311
 12
4.643017
 22
4.790797
 13
4.634985
 23
5.993917
  0
POLYLINE
  8
0
  6
CONTINUOUS
 66
     1
 40
0.000000
 41
0.000000
  0
VERTEX
  8
0
  6
CONTINUOUS
 10
4.640608
 20
4.789190
  0
VERTEX
  8
0
  6
CONTINUOUS
 10
4.631773
 20
5.992311
  0
VERTEX
  8
0
  6
CONTINUOUS
 10
4.634985
 20
5.993917
  0
VERTEX
  8
0
  6
CONTINUOUS
 10
4.643017
 20
4.790797
  0
VERTEX
  8
0
  6
CONTINUOUS
 10
4.640608
 20
4.789190
  0
SEQEND
  8
0
  0
SOLID
  8
0
 62
    15
 10
4.643017
 20
4.790797
 11
4.634985
 21
5.993917
 12
4.736183
 22
4.783568
 13
4.727348
 23
5.986689
  0
POLYLINE
  8
0
  6
CONTINUOUS
 66
     1
 40
0.000000
 41
0.000000
  0
VERTEX
  8
0
  6
CONTINUOUS
 10
4.643017
 20
4.790797
  0
VERTEX
  8
0
  6
CONTINUOUS
 10
4.634985
 20
5.993917
  0
VERTEX
  8
0
  6
CONTINUOUS
 10
4.727348
 20
5.986689
  0
VERTEX
  8
0
  6
CONTINUOUS
 10
4.736183
 20
4.783568
  0
VERTEX
  8
0
  6
CONTINUOUS
 10
4.643017
 20
4.790797
  0
SEQEND
  8
0
  0
SOLID
  8
0
 62
    15
 10
4.736183
 20
4.783568
 11
4.727348
 21
5.986689
 12
4.821317
 22
4.765899
 13
4.812482
 23
5.969823
  0
POLYLINE
  8
0
  6
CONTINUOUS
 66
     1
 40
0.000000
 41
0.000000
  0
VERTEX
  8
0
  6
CONTINUOUS
 10
4.736183
 20
4.783568
  0
VERTEX
  8
0
  6
CONTINUOUS
 10
4.727348
 20
5.986689
  0
VERTEX
  8
0
  6
CONTINUOUS
 10
4.812482
 20
5.969823
  0
VERTEX
  8
0
  6
CONTINUOUS
 10
4.821317
 20
4.765899
  0
VERTEX
  8
0
  6
CONTINUOUS
 10
4.736183
 20
4.783568
  0
SEQEND
  8
0
  0
SOLID
  8
0
 62
    15
 10
4.821317
 20
4.765899
 11
4.812482
 21
5.969823
 12
4.898419
 22
4.741001
 13
4.890388
 23
5.944122
  0
POLYLINE
  8
0
  6
CONTINUOUS
 66
     1
 40
0.000000
 41
0.000000
  0
VERTEX
  8
0
  6
CONTINUOUS
 10
4.821317
 20
4.765899
  0
VERTEX
  8
0
  6
CONTINUOUS
 10
4.812482
 20
5.969823
  0
VERTEX
  8
0
  6
CONTINUOUS
 10
4.890388
 20
5.944122
  0
VERTEX
  8
0
  6
CONTINUOUS
 10
4.898419
 20
4.741001
  0
VERTEX
  8
0
  6
CONTINUOUS
 10
4.821317
 20
4.765899
  0
SEQEND
  8
0
  0
SOLID
  8
0
 62
    15
 10
4.898419
 20
4.741001
 11
4.890388
 21
5.944122
 12
4.966687
 22
4.708072
 13
4.958655
 23
5.911996
  0
POLYLINE
  8
0
  6
CONTINUOUS
 66
     1
 40
0.000000
 41
0.000000
  0
VERTEX
  8
0
  6
CONTINUOUS
 10
4.898419
 20
4.741001
  0
VERTEX
  8
0
  6
CONTINUOUS
 10
4.890388
 20
5.944122
  0
VERTEX
  8
0
  6
CONTINUOUS
 10
4.958655
 20
5.911996
  0
VERTEX
  8
0
  6
CONTINUOUS
 10
4.966687
 20
4.708072
  0
VERTEX
  8
0
  6
CONTINUOUS
 10
4.898419
 20
4.741001
  0
SEQEND
  8
0
  0
SOLID
  8
0
 62
    15
 10
4.966687
 20
4.708072
 11
4.958655
 21
5.911996
 12
5.026120
 22
4.671127
 13
5.017285
 23
5.874248
  0
POLYLINE
  8
0
  6
CONTINUOUS
 66
     1
 40
0.000000
 41
0.000000
  0
VERTEX
  8
0
  6
CONTINUOUS
 10
4.966687
 20
4.708072
  0
VERTEX
  8
0
  6
CONTINUOUS
 10
4.958655
 20
5.911996
  0
VERTEX
  8
0
  6
CONTINUOUS
 10
5.017285
 20
5.874248
  0
VERTEX
  8
0
  6
CONTINUOUS
 10
5.026120
 20
4.671127
  0
VERTEX
  8
0
  6
CONTINUOUS
 10
4.966687
 20
4.708072
  0
SEQEND
  8
0
  0
SOLID
  8
0
 62
    15
 10
5.026120
 20
4.671127
 11
5.017285
 21
5.874248
 12
5.074309
 22
4.629363
 13
5.066278
 23
5.833287
  0
POLYLINE
  8
0
  6
CONTINUOUS
 66
     1
 40
0.000000
 41
0.000000
  0
VERTEX
  8
0
  6
CONTINUOUS
 10
5.026120
 20
4.671127
  0
VERTEX
  8
0
  6
CONTINUOUS
 10
5.017285
 20
5.874248
  0
VERTEX
  8
0
  6
CONTINUOUS
 10
5.066278
 20
5.833287
  0
VERTEX
  8
0
  6
CONTINUOUS
 10
5.074309
 20
4.629363
  0
VERTEX
  8
0
  6
CONTINUOUS
 10
5.026120
 20
4.671127
  0
SEQEND
  8
0
  0
SOLID
  8
0
 62
    15
 10
5.074309
 20
4.629363
 11
5.066278
 21
5.833287
 12
5.112057
 22
4.585993
 13
5.104026
 23
5.789114
  0
POLYLINE
  8
0
  6
CONTINUOUS
 66
     1
 40
0.000000
 41
0.000000
  0
VERTEX
  8
0
  6
CONTINUOUS
 10
5.074309
 20
4.629363
  0
VERTEX
  8
0
  6
CONTINUOUS
 10
5.066278
 20
5.833287
  0
VERTEX
  8
0
  6
CONTINUOUS
 10
5.104026
 20
5.789114
  0
VERTEX
  8
0
  6
CONTINUOUS
 10
5.112057
 20
4.585993
  0
VERTEX
  8
0
  6
CONTINUOUS
 10
5.074309
 20
4.629363
  0
SEQEND
  8
0
  0
SOLID
  8
0
 62
    15
 10
5.112057
 20
4.585993
 11
5.104026
 21
5.789114
 12
5.137758
 22
4.541017
 13
5.129727
 23
5.744940
  0
POLYLINE
  8
0
  6
CONTINUOUS
 66
     1
 40
0.000000
 41
0.000000
  0
VERTEX
  8
0
  6
CONTINUOUS
 10
5.112057
 20
4.585993
  0
VERTEX
  8
0
  6
CONTINUOUS
 10
5.104026
 20
5.789114
  0
VERTEX
  8
0
  6
CONTINUOUS
 10
5.129727
 20
5.744940
  0
VERTEX
  8
0
  6
CONTINUOUS
 10
5.137758
 20
4.541017
  0
VERTEX
  8
0
  6
CONTINUOUS
 10
5.112057
 20
4.585993
  0
SEQEND
  8
0
  0
SOLID
  8
0
 62
    15
 10
5.137758
 20
4.541017
 11
5.129727
 21
5.744940
 12
5.139364
 22
4.538607
 13
5.130530
 23
5.741728
  0
POLYLINE
  8
0
  6
CONTINUOUS
 66
     1
 40
0.000000
 41
0.000000
  0
VERTEX
  8
0
  6
CONTINUOUS
 10
5.137758
 20
4.541017
  0
VERTEX
  8
0
  6
CONTINUOUS
 10
5.129727
 20
5.744940
  0
VERTEX
  8
0
  6
CONTINUOUS
 10
5.130530
 20
5.741728
  0
VERTEX
  8
0
  6
CONTINUOUS
 10
5.139364
 20
4.538607
  0
VERTEX
  8
0
  6
CONTINUOUS
 10
5.137758
 20
4.541017
  0
SEQEND
  8
0
  0
SOLID
  8
0
 62
    15
 10
5.139364
 20
4.538607
 11
5.130530
 21
5.741728
 12
5.319270
 22
4.822923
 13
5.310436
 23
6.026043
  0
POLYLINE
  8
0
  6
CONTINUOUS
 66
     1
 40
0.000000
 41
0.000000
  0
VERTEX
  8
0
  6
CONTINUOUS
 10
5.139364
 20
4.538607
  0
VERTEX
  8
0
  6
CONTINUOUS
 10
5.130530
 20
5.741728
  0
VERTEX
  8
0
  6
CONTINUOUS
 10
5.310436
 20
6.026043
  0
VERTEX
  8
0
  6
CONTINUOUS
 10
5.319270
 20
4.822923
  0
VERTEX
  8
0
  6
CONTINUOUS
 10
5.139364
 20
4.538607
  0
SEQEND
  8
0
  0
SOLID
  8
0
 62
    15
 10
5.319270
 20
4.822923
 11
5.310436
 21
6.026043
 12
5.320073
 22
4.821317
 13
5.312042
 23
6.024437
  0
POLYLINE
  8
0
  6
CONTINUOUS
 66
     1
 40
0.000000
 41
0.000000
  0
VERTEX
  8
0
  6
CONTINUOUS
 10
5.319270
 20
4.822923
  0
VERTEX
  8
0
  6
CONTINUOUS
 10
5.310436
 20
6.026043
  0
VERTEX
  8
0
  6
CONTINUOUS
 10
5.312042
 20
6.024437
  0
VERTEX
  8
0
  6
CONTINUOUS
 10
5.320073
 20
4.821317
  0
VERTEX
  8
0
  6
CONTINUOUS
 10
5.319270
 20
4.822923
  0
SEQEND
  8
0
  0
SOLID
  8
0
 62
    15
 10
5.320073
 20
4.821317
 11
5.312042
 21
6.024437
 12
5.376294
 22
4.767505
 13
5.367459
 23
5.970626
  0
POLYLINE
  8
0
  6
CONTINUOUS
 66
     1
 40
0.000000
 41
0.000000
  0
VERTEX
  8
0
  6
CONTINUOUS
 10
5.320073
 20
4.821317
  0
VERTEX
  8
0
  6
CONTINUOUS
 10
5.312042
 20
6.024437
  0
VERTEX
  8
0
  6
CONTINUOUS
 10
5.367459
 20
5.970626
  0
VERTEX
  8
0
  6
CONTINUOUS
 10
5.376294
 20
4.767505
  0
VERTEX
  8
0
  6
CONTINUOUS
 10
5.320073
 20
4.821317
  0
SEQEND
  8
0
  0
SOLID
  8
0
 62
    15
 10
5.376294
 20
4.767505
 11
5.367459
 21
5.970626
 12
5.434121
 22
4.720119
 13
5.426089
 23
5.924043
  0
POLYLINE
  8
0
  6
CONTINUOUS
 66
     1
 40
0.000000
 41
0.000000
  0
VERTEX
  8
0
  6
CONTINUOUS
 10
5.376294
 20
4.767505
  0
VERTEX
  8
0
  6
CONTINUOUS
 10
5.367459
 20
5.970626
  0
VERTEX
  8
0
  6
CONTINUOUS
 10
5.426089
 20
5.924043
  0
VERTEX
  8
0
  6
CONTINUOUS
 10
5.434121
 20
4.720119
  0
VERTEX
  8
0
  6
CONTINUOUS
 10
5.376294
 20
4.767505
  0
SEQEND
  8
0
  0
SOLID
  8
0
 62
    15
 10
5.434121
 20
4.720119
 11
5.426089
 21
5.924043
 12
5.494357
 22
4.680765
 13
5.486326
 23
5.883886
  0
POLYLINE
  8
0
  6
CONTINUOUS
 66
     1
 40
0.000000
 41
0.000000
  0
VERTEX
  8
0
  6
CONTINUOUS
 10
5.434121
 20
4.720119
  0
VERTEX
  8
0
  6
CONTINUOUS
 10
5.426089
 20
5.924043
  0
VERTEX
  8
0
  6
CONTINUOUS
 10
5.486326
 20
5.883886
  0
VERTEX
  8
0
  6
CONTINUOUS
 10
5.494357
 20
4.680765
  0
VERTEX
  8
0
  6
CONTINUOUS
 10
5.434121
 20
4.720119
  0
SEQEND
  8
0
  0
SOLID
  8
0
 62
    15
 10
5.494357
 20
4.680765
 11
5.486326
 21
5.883886
 12
5.556200
 22
4.647836
 13
5.548168
 23
5.850956
  0
POLYLINE
  8
0
  6
CONTINUOUS
 66
     1
 40
0.000000
 41
0.000000
  0
VERTEX
  8
0
  6
CONTINUOUS
 10
5.494357
 20
4.680765
  0
VERTEX
  8
0
  6
CONTINUOUS
 10
5.486326
 20
5.883886
  0
VERTEX
  8
0
  6
CONTINUOUS
 10
5.548168
 20
5.850956
  0
VERTEX
  8
0
  6
CONTINUOUS
 10
5.556200
 20
4.647836
  0
VERTEX
  8
0
  6
CONTINUOUS
 10
5.494357
 20
4.680765
  0
SEQEND
  8
0
  0
SOLID
  8
0
 62
    15
 10
5.556200
 20
4.647836
 11
5.548168
 21
5.850956
 12
5.619649
 22
4.622135
 13
5.611617
 23
5.826059
  0
POLYLINE
  8
0
  6
CONTINUOUS
 66
     1
 40
0.000000
 41
0.000000
  0
VERTEX
  8
0
  6
CONTINUOUS
 10
5.556200
 20
4.647836
  0
VERTEX
  8
0
  6
CONTINUOUS
 10
5.548168
 20
5.850956
  0
VERTEX
  8
0
  6
CONTINUOUS
 10
5.611617
 20
5.826059
  0
VERTEX
  8
0
  6
CONTINUOUS
 10
5.619649
 20
4.622135
  0
VERTEX
  8
0
  6
CONTINUOUS
 10
5.556200
 20
4.647836
  0
SEQEND
  8
0
  0
SOLID
  8
0
 62
    15
 10
2.907407
 20
4.803647
 11
2.898573
 21
6.007571
 12
2.970856
 22
4.751442
 13
2.962825
 23
5.955366
  0
POLYLINE
  8
0
  6
CONTINUOUS
 66
     1
 40
0.000000
 41
0.000000
  0
VERTEX
  8
0
  6
CONTINUOUS
 10
2.907407
 20
4.803647
  0
VERTEX
  8
0
  6
CONTINUOUS
 10
2.898573
 20
6.007571
  0
VERTEX
  8
0
  6
CONTINUOUS
 10
2.962825
 20
5.955366
  0
VERTEX
  8
0
  6
CONTINUOUS
 10
2.970856
 20
4.751442
  0
VERTEX
  8
0
  6
CONTINUOUS
 10
2.907407
 20
4.803647
  0
SEQEND
  8
0
  0
SOLID
  8
0
 62
    15
 10
5.684704
 20
4.603663
 11
5.676673
 21
5.806783
 12
5.750562
 22
4.591615
 13
5.742531
 23
5.795539
  0
POLYLINE
  8
0
  6
CONTINUOUS
 66
     1
 40
0.000000
 41
0.000000
  0
VERTEX
  8
0
  6
CONTINUOUS
 10
5.684704
 20
4.603663
  0
VERTEX
  8
0
  6
CONTINUOUS
 10
5.676673
 20
5.806783
  0
VERTEX
  8
0
  6
CONTINUOUS
 10
5.742531
 20
5.795539
  0
VERTEX
  8
0
  6
CONTINUOUS
 10
5.750562
 20
4.591615
  0
VERTEX
  8
0
  6
CONTINUOUS
 10
5.684704
 20
4.603663
  0
SEQEND
  8
0
  0
SOLID
  8
0
 62
    15
 10
5.750562
 20
4.591615
 11
5.742531
 21
5.795539
 12
5.817224
 22
4.587600
 13
5.809192
 23
5.790720
  0
POLYLINE
  8
0
  6
CONTINUOUS
 66
     1
 40
0.000000
 41
0.000000
  0
VERTEX
  8
0
  6
CONTINUOUS
 10
5.750562
 20
4.591615
  0
VERTEX
  8
0
  6
CONTINUOUS
 10
5.742531
 20
5.795539
  0
VERTEX
  8
0
  6
CONTINUOUS
 10
5.809192
 20
5.790720
  0
VERTEX
  8
0
  6
CONTINUOUS
 10
5.817224
 20
4.587600
  0
VERTEX
  8
0
  6
CONTINUOUS
 10
5.750562
 20
4.591615
  0
SEQEND
  8
0
  0
SOLID
  8
0
 62
    15
 10
5.817224
 20
4.587600
 11
5.809192
 21
5.790720
 12
5.884689
 22
4.590009
 13
5.876657
 23
5.793933
  0
POLYLINE
  8
0
  6
CONTINUOUS
 66
     1
 40
0.000000
 41
0.000000
  0
VERTEX
  8
0
  6
CONTINUOUS
 10
5.817224
 20
4.587600
  0
VERTEX
  8
0
  6
CONTINUOUS
 10
5.809192
 20
5.790720
  0
VERTEX
  8
0
  6
CONTINUOUS
 10
5.876657
 20
5.793933
  0
VERTEX
  8
0
  6
CONTINUOUS
 10
5.884689
 20
4.590009
  0
VERTEX
  8
0
  6
CONTINUOUS
 10
5.817224
 20
4.587600
  0
SEQEND
  8
0
  0
SOLID
  8
0
 62
    15
 10
5.884689
 20
4.590009
 11
5.876657
 21
5.793933
 12
5.952153
 22
4.599647
 13
5.944122
 23
5.803570
  0
POLYLINE
  8
0
  6
CONTINUOUS
 66
     1
 40
0.000000
 41
0.000000
  0
VERTEX
  8
0
  6
CONTINUOUS
 10
5.884689
 20
4.590009
  0
VERTEX
  8
0
  6
CONTINUOUS
 10
5.876657
 20
5.793933
  0
VERTEX
  8
0
  6
CONTINUOUS
 10
5.944122
 20
5.803570
  0
VERTEX
  8
0
  6
CONTINUOUS
 10
5.952153
 20
4.599647
  0
VERTEX
  8
0
  6
CONTINUOUS
 10
5.884689
 20
4.590009
  0
SEQEND
  8
0
  0
SOLID
  8
0
 62
    15
 10
5.952153
 20
4.599647
 11
5.944122
 21
5.803570
 12
6.020421
 22
4.616513
 13
6.011587
 23
5.819633
  0
POLYLINE
  8
0
  6
CONTINUOUS
 66
     1
 40
0.000000
 41
0.000000
  0
VERTEX
  8
0
  6
CONTINUOUS
 10
5.952153
 20
4.599647
  0
VERTEX
  8
0
  6
CONTINUOUS
 10
5.944122
 20
5.803570
  0
VERTEX
  8
0
  6
CONTINUOUS
 10
6.011587
 20
5.819633
  0
VERTEX
  8
0
  6
CONTINUOUS
 10
6.020421
 20
4.616513
  0
VERTEX
  8
0
  6
CONTINUOUS
 10
5.952153
 20
4.599647
  0
SEQEND
  8
0
  0
SOLID
  8
0
 62
    15
 10
6.020421
 20
4.616513
 11
6.011587
 21
5.819633
 12
6.087083
 22
4.640608
 13
6.079051
 23
5.843728
  0
POLYLINE
  8
0
  6
CONTINUOUS
 66
     1
 40
0.000000
 41
0.000000
  0
VERTEX
  8
0
  6
CONTINUOUS
 10
6.020421
 20
4.616513
  0
VERTEX
  8
0
  6
CONTINUOUS
 10
6.011587
 20
5.819633
  0
VERTEX
  8
0
  6
CONTINUOUS
 10
6.079051
 20
5.843728
  0
VERTEX
  8
0
  6
CONTINUOUS
 10
6.087083
 20
4.640608
  0
VERTEX
  8
0
  6
CONTINUOUS
 10
6.020421
 20
4.616513
  0
SEQEND
  8
0
  0
SOLID
  8
0
 62
    15
 10
6.087083
 20
4.640608
 11
6.079051
 21
5.843728
 12
6.154548
 22
4.671127
 13
6.145713
 23
5.875051
  0
POLYLINE
  8
0
  6
CONTINUOUS
 66
     1
 40
0.000000
 41
0.000000
  0
VERTEX
  8
0
  6
CONTINUOUS
 10
6.087083
 20
4.640608
  0
VERTEX
  8
0
  6
CONTINUOUS
 10
6.079051
 20
5.843728
  0
VERTEX
  8
0
  6
CONTINUOUS
 10
6.145713
 20
5.875051
  0
VERTEX
  8
0
  6
CONTINUOUS
 10
6.154548
 20
4.671127
  0
VERTEX
  8
0
  6
CONTINUOUS
 10
6.087083
 20
4.640608
  0
SEQEND
  8
0
  0
SOLID
  8
0
 62
    15
 10
6.154548
 20
4.671127
 11
6.145713
 21
5.875051
 12
6.220406
 22
4.709679
 13
6.212374
 23
5.912799
  0
POLYLINE
  8
0
  6
CONTINUOUS
 66
     1
 40
0.000000
 41
0.000000
  0
VERTEX
  8
0
  6
CONTINUOUS
 10
6.154548
 20
4.671127
  0
VERTEX
  8
0
  6
CONTINUOUS
 10
6.145713
 20
5.875051
  0
VERTEX
  8
0
  6
CONTINUOUS
 10
6.212374
 20
5.912799
  0
VERTEX
  8
0
  6
CONTINUOUS
 10
6.220406
 20
4.709679
  0
VERTEX
  8
0
  6
CONTINUOUS
 10
6.154548
 20
4.671127
  0
SEQEND
  8
0
  0
SOLID
  8
0
 62
    15
 10
6.220406
 20
4.709679
 11
6.212374
 21
5.912799
 12
6.285461
 22
4.754655
 13
6.277430
 23
5.957775
  0
POLYLINE
  8
0
  6
CONTINUOUS
 66
     1
 40
0.000000
 41
0.000000
  0
VERTEX
  8
0
  6
CONTINUOUS
 10
6.220406
 20
4.709679
  0
VERTEX
  8
0
  6
CONTINUOUS
 10
6.212374
 20
5.912799
  0
VERTEX
  8
0
  6
CONTINUOUS
 10
6.277430
 20
5.957775
  0
VERTEX
  8
0
  6
CONTINUOUS
 10
6.285461
 20
4.754655
  0
VERTEX
  8
0
  6
CONTINUOUS
 10
6.220406
 20
4.709679
  0
SEQEND
  8
0
  0
SOLID
  8
0
 62
    15
 10
6.285461
 20
4.754655
 11
6.277430
 21
5.957775
 12
6.349713
 22
4.806860
 13
6.341682
 23
6.009980
  0
POLYLINE
  8
0
  6
CONTINUOUS
 66
     1
 40
0.000000
 41
0.000000
  0
VERTEX
  8
0
  6
CONTINUOUS
 10
6.285461
 20
4.754655
  0
VERTEX
  8
0
  6
CONTINUOUS
 10
6.277430
 20
5.957775
  0
VERTEX
  8
0
  6
CONTINUOUS
 10
6.341682
 20
6.009980
  0
VERTEX
  8
0
  6
CONTINUOUS
 10
6.349713
 20
4.806860
  0
VERTEX
  8
0
  6
CONTINUOUS
 10
6.285461
 20
4.754655
  0
SEQEND
  8
0
  0
SOLID
  8
0
 62
    15
 10
6.360154
 20
4.806860
 11
6.352123
 21
6.009980
 12
6.552107
 22
4.550655
 13
6.544076
 23
5.753775
  0
POLYLINE
  8
0
  6
CONTINUOUS
 66
     1
 40
0.000000
 41
0.000000
  0
VERTEX
  8
0
  6
CONTINUOUS
 10
6.360154
 20
4.806860
  0
VERTEX
  8
0
  6
CONTINUOUS
 10
6.352123
 20
6.009980
  0
VERTEX
  8
0
  6
CONTINUOUS
 10
6.544076
 20
5.753775
  0
VERTEX
  8
0
  6
CONTINUOUS
 10
6.552107
 20
4.550655
  0
VERTEX
  8
0
  6
CONTINUOUS
 10
6.360154
 20
4.806860
  0
SEQEND
  8
0
  0
SOLID
  8
0
 62
    15
 10
6.349713
 20
4.806860
 11
6.341682
 21
6.009980
 12
6.361761
 22
4.806860
 13
6.353729
 23
6.009980
  0
POLYLINE
  8
0
  6
CONTINUOUS
 66
     1
 40
0.000000
 41
0.000000
  0
VERTEX
  8
0
  6
CONTINUOUS
 10
6.349713
 20
4.806860
  0
VERTEX
  8
0
  6
CONTINUOUS
 10
6.341682
 20
6.009980
  0
VERTEX
  8
0
  6
CONTINUOUS
 10
6.353729
 20
6.009980
  0
VERTEX
  8
0
  6
CONTINUOUS
 10
6.361761
 20
4.806860
  0
VERTEX
  8
0
  6
CONTINUOUS
 10
6.349713
 20
4.806860
  0
SEQEND
  8
0
  0
SOLID
  8
0
 62
    15
 10
6.552107
 20
4.550655
 11
6.544076
 21
5.753775
 12
6.828391
 22
4.853443
 13
6.820360
 23
6.056563
  0
POLYLINE
  8
0
  6
CONTINUOUS
 66
     1
 40
0.000000
 41
0.000000
  0
VERTEX
  8
0
  6
CONTINUOUS
 10
6.552107
 20
4.550655
  0
VERTEX
  8
0
  6
CONTINUOUS
 10
6.544076
 20
5.753775
  0
VERTEX
  8
0
  6
CONTINUOUS
 10
6.820360
 20
6.056563
  0
VERTEX
  8
0
  6
CONTINUOUS
 10
6.828391
 20
4.853443
  0
VERTEX
  8
0
  6
CONTINUOUS
 10
6.552107
 20
4.550655
  0
SEQEND
  8
0
  0
SOLID
  8
0
 62
    15
 10
6.828391
 20
4.853443
 11
6.820360
 21
6.056563
 12
6.834817
 22
4.854246
 13
6.826785
 23
6.058169
  0
POLYLINE
  8
0
  6
CONTINUOUS
 66
     1
 40
0.000000
 41
0.000000
  0
VERTEX
  8
0
  6
CONTINUOUS
 10
6.828391
 20
4.853443
  0
VERTEX
  8
0
  6
CONTINUOUS
 10
6.820360
 20
6.056563
  0
VERTEX
  8
0
  6
CONTINUOUS
 10
6.826785
 20
6.058169
  0
VERTEX
  8
0
  6
CONTINUOUS
 10
6.834817
 20
4.854246
  0
VERTEX
  8
0
  6
CONTINUOUS
 10
6.828391
 20
4.853443
  0
SEQEND
  8
0
  0
SOLID
  8
0
 62
    15
 10
7.291006
 20
4.854246
 11
7.282975
 21
6.058169
 12
7.291006
 22
4.853443
 13
7.282975
 23
6.056563
  0
POLYLINE
  8
0
  6
CONTINUOUS
 66
     1
 40
0.000000
 41
0.000000
  0
VERTEX
  8
0
  6
CONTINUOUS
 10
7.291006
 20
4.854246
  0
VERTEX
  8
0
  6
CONTINUOUS
 10
7.282975
 20
6.058169
  0
VERTEX
  8
0
  6
CONTINUOUS
 10
7.282975
 20
6.056563
  0
VERTEX
  8
0
  6
CONTINUOUS
 10
7.291006
 20
4.853443
  0
VERTEX
  8
0
  6
CONTINUOUS
 10
7.291006
 20
4.854246
  0
SEQEND
  8
0
  0
SOLID
  8
0
 62
    15
 10
6.834817
 20
4.854246
 11
6.826785
 21
6.058169
 12
7.291006
 22
4.854246
 13
7.282975
 23
6.058169
  0
POLYLINE
  8
0
  6
CONTINUOUS
 66
     1
 40
0.000000
 41
0.000000
  0
VERTEX
  8
0
  6
CONTINUOUS
 10
6.834817
 20
4.854246
  0
VERTEX
  8
0
  6
CONTINUOUS
 10
6.826785
 20
6.058169
  0
VERTEX
  8
0
  6
CONTINUOUS
 10
7.282975
 20
6.058169
  0
VERTEX
  8
0
  6
CONTINUOUS
 10
7.291006
 20
4.854246
  0
VERTEX
  8
0
  6
CONTINUOUS
 10
6.834817
 20
4.854246
  0
SEQEND
  8
0
  0
SOLID
  8
0
 62
    15
 10
7.291006
 20
4.853443
 11
7.282975
 21
6.056563
 12
7.301447
 22
4.789994
 13
7.292613
 23
5.993917
  0
POLYLINE
  8
0
  6
CONTINUOUS
 66
     1
 40
0.000000
 41
0.000000
  0
VERTEX
  8
0
  6
CONTINUOUS
 10
7.291006
 20
4.853443
  0
VERTEX
  8
0
  6
CONTINUOUS
 10
7.282975
 20
6.056563
  0
VERTEX
  8
0
  6
CONTINUOUS
 10
7.292613
 20
5.993917
  0
VERTEX
  8
0
  6
CONTINUOUS
 10
7.301447
 20
4.789994
  0
VERTEX
  8
0
  6
CONTINUOUS
 10
7.291006
 20
4.853443
  0
SEQEND
  8
0
  0
SOLID
  8
0
 62
    15
 10
7.301447
 20
4.789994
 11
7.292613
 21
5.993917
 12
7.319920
 22
4.724938
 13
7.311888
 23
5.928059
  0
POLYLINE
  8
0
  6
CONTINUOUS
 66
     1
 40
0.000000
 41
0.000000
  0
VERTEX
  8
0
  6
CONTINUOUS
 10
7.301447
 20
4.789994
  0
VERTEX
  8
0
  6
CONTINUOUS
 10
7.292613
 20
5.993917
  0
VERTEX
  8
0
  6
CONTINUOUS
 10
7.311888
 20
5.928059
  0
VERTEX
  8
0
  6
CONTINUOUS
 10
7.319920
 20
4.724938
  0
VERTEX
  8
0
  6
CONTINUOUS
 10
7.301447
 20
4.789994
  0
SEQEND
  8
0
  0
SOLID
  8
0
 62
    15
 10
7.348833
 20
4.660686
 11
7.340802
 21
5.863807
 12
7.388991
 22
4.601253
 13
7.380156
 23
5.805177
  0
POLYLINE
  8
0
  6
CONTINUOUS
 66
     1
 40
0.000000
 41
0.000000
  0
VERTEX
  8
0
  6
CONTINUOUS
 10
7.348833
 20
4.660686
  0
VERTEX
  8
0
  6
CONTINUOUS
 10
7.340802
 20
5.863807
  0
VERTEX
  8
0
  6
CONTINUOUS
 10
7.380156
 20
5.805177
  0
VERTEX
  8
0
  6
CONTINUOUS
 10
7.388991
 20
4.601253
  0
VERTEX
  8
0
  6
CONTINUOUS
 10
7.348833
 20
4.660686
  0
SEQEND
  8
0
  0
SOLID
  8
0
 62
    15
 10
7.319920
 20
4.724938
 11
7.311888
 21
5.928059
 12
7.348833
 22
4.660686
 13
7.340802
 23
5.863807
  0
POLYLINE
  8
0
  6
CONTINUOUS
 66
     1
 40
0.000000
 41
0.000000
  0
VERTEX
  8
0
  6
CONTINUOUS
 10
7.319920
 20
4.724938
  0
VERTEX
  8
0
  6
CONTINUOUS
 10
7.311888
 20
5.928059
  0
VERTEX
  8
0
  6
CONTINUOUS
 10
7.340802
 20
5.863807
  0
VERTEX
  8
0
  6
CONTINUOUS
 10
7.348833
 20
4.660686
  0
VERTEX
  8
0
  6
CONTINUOUS
 10
7.319920
 20
4.724938
  0
SEQEND
  8
0
  0
SOLID
  8
0
 62
    15
 10
7.388991
 20
4.601253
 11
7.380156
 21
5.805177
 12
7.413085
 22
4.574749
 13
7.405054
 23
5.778673
  0
POLYLINE
  8
0
  6
CONTINUOUS
 66
     1
 40
0.000000
 41
0.000000
  0
VERTEX
  8
0
  6
CONTINUOUS
 10
7.388991
 20
4.601253
  0
VERTEX
  8
0
  6
CONTINUOUS
 10
7.380156
 20
5.805177
  0
VERTEX
  8
0
  6
CONTINUOUS
 10
7.405054
 20
5.778673
  0
VERTEX
  8
0
  6
CONTINUOUS
 10
7.413085
 20
4.574749
  0
VERTEX
  8
0
  6
CONTINUOUS
 10
7.388991
 20
4.601253
  0
SEQEND
  8
0
  0
SOLID
  8
0
 62
    15
 10
7.413085
 20
4.574749
 11
7.405054
 21
5.778673
 12
7.441196
 22
4.551458
 13
7.432361
 23
5.754578
  0
POLYLINE
  8
0
  6
CONTINUOUS
 66
     1
 40
0.000000
 41
0.000000
  0
VERTEX
  8
0
  6
CONTINUOUS
 10
7.413085
 20
4.574749
  0
VERTEX
  8
0
  6
CONTINUOUS
 10
7.405054
 20
5.778673
  0
VERTEX
  8
0
  6
CONTINUOUS
 10
7.432361
 20
5.754578
  0
VERTEX
  8
0
  6
CONTINUOUS
 10
7.441196
 20
4.551458
  0
VERTEX
  8
0
  6
CONTINUOUS
 10
7.413085
 20
4.574749
  0
SEQEND
  8
0
  0
SOLID
  8
0
 62
    15
 10
7.441196
 20
4.551458
 11
7.432361
 21
5.754578
 12
7.471715
 22
4.530576
 13
7.463684
 23
5.734499
  0
POLYLINE
  8
0
  6
CONTINUOUS
 66
     1
 40
0.000000
 41
0.000000
  0
VERTEX
  8
0
  6
CONTINUOUS
 10
7.441196
 20
4.551458
  0
VERTEX
  8
0
  6
CONTINUOUS
 10
7.432361
 20
5.754578
  0
VERTEX
  8
0
  6
CONTINUOUS
 10
7.463684
 20
5.734499
  0
VERTEX
  8
0
  6
CONTINUOUS
 10
7.471715
 20
4.530576
  0
VERTEX
  8
0
  6
CONTINUOUS
 10
7.441196
 20
4.551458
  0
SEQEND
  8
0
  0
SOLID
  8
0
 62
    15
 10
7.471715
 20
4.530576
 11
7.463684
 21
5.734499
 12
7.506251
 22
4.513710
 13
7.498219
 23
5.717633
  0
POLYLINE
  8
0
  6
CONTINUOUS
 66
     1
 40
0.000000
 41
0.000000
  0
VERTEX
  8
0
  6
CONTINUOUS
 10
7.471715
 20
4.530576
  0
VERTEX
  8
0
  6
CONTINUOUS
 10
7.463684
 20
5.734499
  0
VERTEX
  8
0
  6
CONTINUOUS
 10
7.498219
 20
5.717633
  0
VERTEX
  8
0
  6
CONTINUOUS
 10
7.506251
 20
4.513710
  0
VERTEX
  8
0
  6
CONTINUOUS
 10
7.471715
 20
4.530576
  0
SEQEND
  8
0
  0
SOLID
  8
0
 62
    15
 10
7.506251
 20
4.513710
 11
7.498219
 21
5.717633
 12
7.544802
 22
4.501662
 13
7.535968
 23
5.704783
  0
POLYLINE
  8
0
  6
CONTINUOUS
 66
     1
 40
0.000000
 41
0.000000
  0
VERTEX
  8
0
  6
CONTINUOUS
 10
7.506251
 20
4.513710
  0
VERTEX
  8
0
  6
CONTINUOUS
 10
7.498219
 20
5.717633
  0
VERTEX
  8
0
  6
CONTINUOUS
 10
7.535968
 20
5.704783
  0
VERTEX
  8
0
  6
CONTINUOUS
 10
7.544802
 20
4.501662
  0
VERTEX
  8
0
  6
CONTINUOUS
 10
7.506251
 20
4.513710
  0
SEQEND
  8
0
  0
SOLID
  8
0
 62
    15
 10
7.544802
 20
4.501662
 11
7.535968
 21
5.704783
 12
7.586566
 22
4.493631
 13
7.577731
 23
5.696751
  0
POLYLINE
  8
0
  6
CONTINUOUS
 66
     1
 40
0.000000
 41
0.000000
  0
VERTEX
  8
0
  6
CONTINUOUS
 10
7.544802
 20
4.501662
  0
VERTEX
  8
0
  6
CONTINUOUS
 10
7.535968
 20
5.704783
  0
VERTEX
  8
0
  6
CONTINUOUS
 10
7.577731
 20
5.696751
  0
VERTEX
  8
0
  6
CONTINUOUS
 10
7.586566
 20
4.493631
  0
VERTEX
  8
0
  6
CONTINUOUS
 10
7.544802
 20
4.501662
  0
SEQEND
  8
0
  0
SOLID
  8
0
 62
    15
 10
7.586566
 20
4.493631
 11
7.577731
 21
5.696751
 12
7.632346
 22
4.490418
 13
7.623511
 23
5.694342
  0
POLYLINE
  8
0
  6
CONTINUOUS
 66
     1
 40
0.000000
 41
0.000000
  0
VERTEX
  8
0
  6
CONTINUOUS
 10
7.586566
 20
4.493631
  0
VERTEX
  8
0
  6
CONTINUOUS
 10
7.577731
 20
5.696751
  0
VERTEX
  8
0
  6
CONTINUOUS
 10
7.623511
 20
5.694342
  0
VERTEX
  8
0
  6
CONTINUOUS
 10
7.632346
 20
4.490418
  0
VERTEX
  8
0
  6
CONTINUOUS
 10
7.586566
 20
4.493631
  0
SEQEND
  8
0
  0
SOLID
  8
0
 62
    15
 10
7.632346
 20
4.490418
 11
7.623511
 21
5.694342
 12
7.682141
 22
4.492828
 13
7.673306
 23
5.696751
  0
POLYLINE
  8
0
  6
CONTINUOUS
 66
     1
 40
0.000000
 41
0.000000
  0
VERTEX
  8
0
  6
CONTINUOUS
 10
7.632346
 20
4.490418
  0
VERTEX
  8
0
  6
CONTINUOUS
 10
7.623511
 20
5.694342
  0
VERTEX
  8
0
  6
CONTINUOUS
 10
7.673306
 20
5.696751
  0
VERTEX
  8
0
  6
CONTINUOUS
 10
7.682141
 20
4.492828
  0
VERTEX
  8
0
  6
CONTINUOUS
 10
7.632346
 20
4.490418
  0
SEQEND
  8
0
  0
SOLID
  8
0
 62
    15
 10
1.574176
 20
4.055913
 11
1.565342
 21
5.259034
 12
1.574176
 22
4.065551
 13
1.565342
 23
5.268672
  0
POLYLINE
  8
0
  6
CONTINUOUS
 66
     1
 40
0.000000
 41
0.000000
  0
VERTEX
  8
0
  6
CONTINUOUS
 10
1.574176
 20
4.055913
  0
VERTEX
  8
0
  6
CONTINUOUS
 10
1.565342
 20
5.259034
  0
VERTEX
  8
0
  6
CONTINUOUS
 10
1.565342
 20
5.268672
  0
VERTEX
  8
0
  6
CONTINUOUS
 10
1.574176
 20
4.065551
  0
VERTEX
  8
0
  6
CONTINUOUS
 10
1.574176
 20
4.055913
  0
SEQEND
  8
0
  0
SOLID
  8
0
 62
     7
 10
1.574176
 20
4.065551
 11
1.565342
 21
5.268672
 12
1.574979
 22
4.063945
 13
1.566948
 23
5.267065
  0
POLYLINE
  8
0
  6
CONTINUOUS
 66
     1
 40
0.000000
 41
0.000000
  0
VERTEX
  8
0
  6
CONTINUOUS
 10
1.574176
 20
4.065551
  0
VERTEX
  8
0
  6
CONTINUOUS
 10
1.565342
 20
5.268672
  0
VERTEX
  8
0
  6
CONTINUOUS
 10
1.566948
 20
5.267065
  0
VERTEX
  8
0
  6
CONTINUOUS
 10
1.574979
 20
4.063945
  0
VERTEX
  8
0
  6
CONTINUOUS
 10
1.574176
 20
4.065551
  0
SEQEND
  8
0
  0
SOLID
  8
0
 62
    15
 10
1.574979
 20
4.063945
 11
1.566948
 21
5.267065
 12
1.574979
 22
4.490418
 13
1.566948
 23
5.694342
  0
POLYLINE
  8
0
  6
CONTINUOUS
 66
     1
 40
0.000000
 41
0.000000
  0
VERTEX
  8
0
  6
CONTINUOUS
 10
1.574979
 20
4.063945
  0
VERTEX
  8
0
  6
CONTINUOUS
 10
1.566948
 20
5.267065
  0
VERTEX
  8
0
  6
CONTINUOUS
 10
1.566948
 20
5.694342
  0
VERTEX
  8
0
  6
CONTINUOUS
 10
1.574979
 20
4.490418
  0
VERTEX
  8
0
  6
CONTINUOUS
 10
1.574979
 20
4.063945
  0
SEQEND
  8
0
  0
SOLID
  8
0
 62
    15
 10
1.574979
 20
4.490418
 11
1.566948
 21
5.694342
 12
1.624775
 22
4.488009
 13
1.616743
 23
5.691129
  0
POLYLINE
  8
0
  6
CONTINUOUS
 66
     1
 40
0.000000
 41
0.000000
  0
VERTEX
  8
0
  6
CONTINUOUS
 10
1.574979
 20
4.490418
  0
VERTEX
  8
0
  6
CONTINUOUS
 10
1.566948
 20
5.694342
  0
VERTEX
  8
0
  6
CONTINUOUS
 10
1.616743
 20
5.691129
  0
VERTEX
  8
0
  6
CONTINUOUS
 10
1.624775
 20
4.488009
  0
VERTEX
  8
0
  6
CONTINUOUS
 10
1.574979
 20
4.490418
  0
SEQEND
  8
0
  0
SOLID
  8
0
 62
    15
 10
1.624775
 20
4.488009
 11
1.616743
 21
5.691129
 12
1.670554
 22
4.490418
 13
1.661720
 23
5.694342
  0
POLYLINE
  8
0
  6
CONTINUOUS
 66
     1
 40
0.000000
 41
0.000000
  0
VERTEX
  8
0
  6
CONTINUOUS
 10
1.624775
 20
4.488009
  0
VERTEX
  8
0
  6
CONTINUOUS
 10
1.616743
 20
5.691129
  0
VERTEX
  8
0
  6
CONTINUOUS
 10
1.661720
 20
5.694342
  0
VERTEX
  8
0
  6
CONTINUOUS
 10
1.670554
 20
4.490418
  0
VERTEX
  8
0
  6
CONTINUOUS
 10
1.624775
 20
4.488009
  0
SEQEND
  8
0
  0
SOLID
  8
0
 62
    15
 10
1.670554
 20
4.490418
 11
1.661720
 21
5.694342
 12
1.712318
 22
4.498450
 13
1.703484
 23
5.702373
  0
POLYLINE
  8
0
  6
CONTINUOUS
 66
     1
 40
0.000000
 41
0.000000
  0
VERTEX
  8
0
  6
CONTINUOUS
 10
1.670554
 20
4.490418
  0
VERTEX
  8
0
  6
CONTINUOUS
 10
1.661720
 20
5.694342
  0
VERTEX
  8
0
  6
CONTINUOUS
 10
1.703484
 20
5.702373
  0
VERTEX
  8
0
  6
CONTINUOUS
 10
1.712318
 20
4.498450
  0
VERTEX
  8
0
  6
CONTINUOUS
 10
1.670554
 20
4.490418
  0
SEQEND
  8
0
  0
SOLID
  8
0
 62
    15
 10
1.712318
 20
4.498450
 11
1.703484
 21
5.702373
 12
1.750066
 22
4.511300
 13
1.742035
 23
5.714421
  0
POLYLINE
  8
0
  6
CONTINUOUS
 66
     1
 40
0.000000
 41
0.000000
  0
VERTEX
  8
0
  6
CONTINUOUS
 10
1.712318
 20
4.498450
  0
VERTEX
  8
0
  6
CONTINUOUS
 10
1.703484
 20
5.702373
  0
VERTEX
  8
0
  6
CONTINUOUS
 10
1.742035
 20
5.714421
  0
VERTEX
  8
0
  6
CONTINUOUS
 10
1.750066
 20
4.511300
  0
VERTEX
  8
0
  6
CONTINUOUS
 10
1.712318
 20
4.498450
  0
SEQEND
  8
0
  0
SOLID
  8
0
 62
    15
 10
1.750066
 20
4.511300
 11
1.742035
 21
5.714421
 12
1.784602
 22
4.528166
 13
1.776570
 23
5.731287
  0
POLYLINE
  8
0
  6
CONTINUOUS
 66
     1
 40
0.000000
 41
0.000000
  0
VERTEX
  8
0
  6
CONTINUOUS
 10
1.750066
 20
4.511300
  0
VERTEX
  8
0
  6
CONTINUOUS
 10
1.742035
 20
5.714421
  0
VERTEX
  8
0
  6
CONTINUOUS
 10
1.776570
 20
5.731287
  0
VERTEX
  8
0
  6
CONTINUOUS
 10
1.784602
 20
4.528166
  0
VERTEX
  8
0
  6
CONTINUOUS
 10
1.750066
 20
4.511300
  0
SEQEND
  8
0
  0
SOLID
  8
0
 62
    15
 10
1.784602
 20
4.528166
 11
1.776570
 21
5.731287
 12
1.815925
 22
4.548245
 13
1.807090
 23
5.752169
  0
POLYLINE
  8
0
  6
CONTINUOUS
 66
     1
 40
0.000000
 41
0.000000
  0
VERTEX
  8
0
  6
CONTINUOUS
 10
1.784602
 20
4.528166
  0
VERTEX
  8
0
  6
CONTINUOUS
 10
1.776570
 20
5.731287
  0
VERTEX
  8
0
  6
CONTINUOUS
 10
1.807090
 20
5.752169
  0
VERTEX
  8
0
  6
CONTINUOUS
 10
1.815925
 20
4.548245
  0
VERTEX
  8
0
  6
CONTINUOUS
 10
1.784602
 20
4.528166
  0
SEQEND
  8
0
  0
SOLID
  8
0
 62
    15
 10
1.815925
 20
4.548245
 11
1.807090
 21
5.752169
 12
1.843232
 22
4.572340
 13
1.835200
 23
5.775460
  0
POLYLINE
  8
0
  6
CONTINUOUS
 66
     1
 40
0.000000
 41
0.000000
  0
VERTEX
  8
0
  6
CONTINUOUS
 10
1.815925
 20
4.548245
  0
VERTEX
  8
0
  6
CONTINUOUS
 10
1.807090
 20
5.752169
  0
VERTEX
  8
0
  6
CONTINUOUS
 10
1.835200
 20
5.775460
  0
VERTEX
  8
0
  6
CONTINUOUS
 10
1.843232
 20
4.572340
  0
VERTEX
  8
0
  6
CONTINUOUS
 10
1.815925
 20
4.548245
  0
SEQEND
  8
0
  0
SOLID
  8
0
 62
    15
 10
1.843232
 20
4.572340
 11
1.835200
 21
5.775460
 12
1.868130
 22
4.598844
 13
1.859295
 23
5.801964
  0
POLYLINE
  8
0
  6
CONTINUOUS
 66
     1
 40
0.000000
 41
0.000000
  0
VERTEX
  8
0
  6
CONTINUOUS
 10
1.843232
 20
4.572340
  0
VERTEX
  8
0
  6
CONTINUOUS
 10
1.835200
 20
5.775460
  0
VERTEX
  8
0
  6
CONTINUOUS
 10
1.859295
 20
5.801964
  0
VERTEX
  8
0
  6
CONTINUOUS
 10
1.868130
 20
4.598844
  0
VERTEX
  8
0
  6
CONTINUOUS
 10
1.843232
 20
4.572340
  0
SEQEND
  8
0
  0
SOLID
  8
0
 62
    15
 10
1.868130
 20
4.598844
 11
1.859295
 21
5.801964
 12
1.907484
 22
4.657474
 13
1.899453
 23
5.861397
  0
POLYLINE
  8
0
  6
CONTINUOUS
 66
     1
 40
0.000000
 41
0.000000
  0
VERTEX
  8
0
  6
CONTINUOUS
 10
1.868130
 20
4.598844
  0
VERTEX
  8
0
  6
CONTINUOUS
 10
1.859295
 20
5.801964
  0
VERTEX
  8
0
  6
CONTINUOUS
 10
1.899453
 20
5.861397
  0
VERTEX
  8
0
  6
CONTINUOUS
 10
1.907484
 20
4.657474
  0
VERTEX
  8
0
  6
CONTINUOUS
 10
1.868130
 20
4.598844
  0
SEQEND
  8
0
  0
SOLID
  8
0
 62
    15
 10
1.907484
 20
4.657474
 11
1.899453
 21
5.861397
 12
1.936397
 22
4.721726
 13
1.928366
 23
5.925649
  0
POLYLINE
  8
0
  6
CONTINUOUS
 66
     1
 40
0.000000
 41
0.000000
  0
VERTEX
  8
0
  6
CONTINUOUS
 10
1.907484
 20
4.657474
  0
VERTEX
  8
0
  6
CONTINUOUS
 10
1.899453
 20
5.861397
  0
VERTEX
  8
0
  6
CONTINUOUS
 10
1.928366
 20
5.925649
  0
VERTEX
  8
0
  6
CONTINUOUS
 10
1.936397
 20
4.721726
  0
VERTEX
  8
0
  6
CONTINUOUS
 10
1.907484
 20
4.657474
  0
SEQEND
  8
0
  0
SOLID
  8
0
 62
    15
 10
1.936397
 20
4.721726
 11
1.928366
 21
5.925649
 12
1.955673
 22
4.787584
 13
1.947642
 23
5.990705
  0
POLYLINE
  8
0
  6
CONTINUOUS
 66
     1
 40
0.000000
 41
0.000000
  0
VERTEX
  8
0
  6
CONTINUOUS
 10
1.936397
 20
4.721726
  0
VERTEX
  8
0
  6
CONTINUOUS
 10
1.928366
 20
5.925649
  0
VERTEX
  8
0
  6
CONTINUOUS
 10
1.947642
 20
5.990705
  0
VERTEX
  8
0
  6
CONTINUOUS
 10
1.955673
 20
4.787584
  0
VERTEX
  8
0
  6
CONTINUOUS
 10
1.936397
 20
4.721726
  0
SEQEND
  8
0
  0
SOLID
  8
0
 62
    15
 10
1.955673
 20
4.787584
 11
1.947642
 21
5.990705
 12
1.966114
 22
4.850230
 13
1.957279
 23
6.054154
  0
POLYLINE
  8
0
  6
CONTINUOUS
 66
     1
 40
0.000000
 41
0.000000
  0
VERTEX
  8
0
  6
CONTINUOUS
 10
1.955673
 20
4.787584
  0
VERTEX
  8
0
  6
CONTINUOUS
 10
1.947642
 20
5.990705
  0
VERTEX
  8
0
  6
CONTINUOUS
 10
1.957279
 20
6.054154
  0
VERTEX
  8
0
  6
CONTINUOUS
 10
1.966114
 20
4.850230
  0
VERTEX
  8
0
  6
CONTINUOUS
 10
1.955673
 20
4.787584
  0
SEQEND
  8
0
  0
SOLID
  8
0
 62
    15
 10
1.966114
 20
4.850230
 11
1.957279
 21
6.054154
 12
2.428729
 22
4.850230
 13
2.419895
 23
6.054154
  0
POLYLINE
  8
0
  6
CONTINUOUS
 66
     1
 40
0.000000
 41
0.000000
  0
VERTEX
  8
0
  6
CONTINUOUS
 10
1.966114
 20
4.850230
  0
VERTEX
  8
0
  6
CONTINUOUS
 10
1.957279
 20
6.054154
  0
VERTEX
  8
0
  6
CONTINUOUS
 10
2.419895
 20
6.054154
  0
VERTEX
  8
0
  6
CONTINUOUS
 10
2.428729
 20
4.850230
  0
VERTEX
  8
0
  6
CONTINUOUS
 10
1.966114
 20
4.850230
  0
SEQEND
  8
0
  0
SOLID
  8
0
 62
    15
 10
2.428729
 20
4.850230
 11
2.419895
 21
6.054154
 12
2.704210
 22
4.548245
 13
2.696179
 23
5.751366
  0
POLYLINE
  8
0
  6
CONTINUOUS
 66
     1
 40
0.000000
 41
0.000000
  0
VERTEX
  8
0
  6
CONTINUOUS
 10
2.428729
 20
4.850230
  0
VERTEX
  8
0
  6
CONTINUOUS
 10
2.419895
 20
6.054154
  0
VERTEX
  8
0
  6
CONTINUOUS
 10
2.696179
 20
5.751366
  0
VERTEX
  8
0
  6
CONTINUOUS
 10
2.704210
 20
4.548245
  0
VERTEX
  8
0
  6
CONTINUOUS
 10
2.428729
 20
4.850230
  0
SEQEND
  8
0
  0
SOLID
  8
0
 62
    15
 10
2.704210
 20
4.548245
 11
2.696179
 21
5.751366
 12
2.896163
 22
4.803647
 13
2.888132
 23
6.007571
  0
POLYLINE
  8
0
  6
CONTINUOUS
 66
     1
 40
0.000000
 41
0.000000
  0
VERTEX
  8
0
  6
CONTINUOUS
 10
2.704210
 20
4.548245
  0
VERTEX
  8
0
  6
CONTINUOUS
 10
2.696179
 20
5.751366
  0
VERTEX
  8
0
  6
CONTINUOUS
 10
2.888132
 20
6.007571
  0
VERTEX
  8
0
  6
CONTINUOUS
 10
2.896163
 20
4.803647
  0
VERTEX
  8
0
  6
CONTINUOUS
 10
2.704210
 20
4.548245
  0
SEQEND
  8
0
  0
SOLID
  8
0
 62
    15
 10
2.896163
 20
4.803647
 11
2.888132
 21
6.007571
 12
2.907407
 22
4.803647
 13
2.898573
 23
6.007571
  0
POLYLINE
  8
0
  6
CONTINUOUS
 66
     1
 40
0.000000
 41
0.000000
  0
VERTEX
  8
0
  6
CONTINUOUS
 10
2.896163
 20
4.803647
  0
VERTEX
  8
0
  6
CONTINUOUS
 10
2.888132
 20
6.007571
  0
VERTEX
  8
0
  6
CONTINUOUS
 10
2.898573
 20
6.007571
  0
VERTEX
  8
0
  6
CONTINUOUS
 10
2.907407
 20
4.803647
  0
VERTEX
  8
0
  6
CONTINUOUS
 10
2.896163
 20
4.803647
  0
SEQEND
  8
0
  0
POLYLINE
  8
0
  6
CONTINUOUS
 66
     1
 40
0.000000
 41
0.000000
  0
VERTEX
  8
0
  6
CONTINUOUS
 10
2.907407
 20
4.803647
  0
VERTEX
  8
0
  6
CONTINUOUS
 10
2.970856
 20
4.751442
  0
VERTEX
  8
0
  6
CONTINUOUS
 10
3.035911
 20
4.706466
  0
VERTEX
  8
0
  6
CONTINUOUS
 10
3.102573
 20
4.668718
  0
VERTEX
  8
0
  6
CONTINUOUS
 10
3.169235
 20
4.637395
  0
VERTEX
  8
0
  6
CONTINUOUS
 10
3.236699
 20
4.614104
  0
VERTEX
  8
0
  6
CONTINUOUS
 10
3.304164
 20
4.597237
  0
VERTEX
  8
0
  6
CONTINUOUS
 10
3.371629
 20
4.587600
  0
VERTEX
  8
0
  6
CONTINUOUS
 10
3.439093
 20
4.585190
  0
VERTEX
  8
0
  6
CONTINUOUS
 10
3.505755
 20
4.589206
  0
VERTEX
  8
0
  6
CONTINUOUS
 10
3.571613
 20
4.601253
  0
VERTEX
  8
0
  6
CONTINUOUS
 10
3.636669
 20
4.619726
  0
VERTEX
  8
0
  6
CONTINUOUS
 10
3.700117
 20
4.645426
  0
VERTEX
  8
0
  6
CONTINUOUS
 10
3.762763
 20
4.677552
  0
VERTEX
  8
0
  6
CONTINUOUS
 10
3.822196
 20
4.717710
  0
VERTEX
  8
0
  6
CONTINUOUS
 10
3.880827
 20
4.764293
  0
VERTEX
  8
0
  6
CONTINUOUS
 10
3.936244
 20
4.818907
  0
VERTEX
  8
0
  6
CONTINUOUS
 10
3.941866
 20
4.818907
  0
VERTEX
  8
0
  6
CONTINUOUS
 10
4.115347
 20
4.534592
  0
VERTEX
  8
0
  6
CONTINUOUS
 10
4.119362
 20
4.538607
  0
VERTEX
  8
0
  6
CONTINUOUS
 10
4.145063
 20
4.582781
  0
VERTEX
  8
0
  6
CONTINUOUS
 10
4.182008
 20
4.626954
  0
VERTEX
  8
0
  6
CONTINUOUS
 10
4.231000
 20
4.667915
  0
VERTEX
  8
0
  6
CONTINUOUS
 10
4.289630
 20
4.705663
  0
VERTEX
  8
0
  6
CONTINUOUS
 10
4.358701
 20
4.737789
  0
VERTEX
  8
0
  6
CONTINUOUS
 10
4.435804
 20
4.763490
  0
VERTEX
  8
0
  6
CONTINUOUS
 10
4.520938
 20
4.780356
  0
VERTEX
  8
0
  6
CONTINUOUS
 10
4.640608
 20
4.789190
  0
VERTEX
  8
0
  6
CONTINUOUS
 10
4.643017
 20
4.790797
  0
VERTEX
  8
0
  6
CONTINUOUS
 10
4.736183
 20
4.783568
  0
VERTEX
  8
0
  6
CONTINUOUS
 10
4.821317
 20
4.765899
  0
VERTEX
  8
0
  6
CONTINUOUS
 10
4.898419
 20
4.741001
  0
VERTEX
  8
0
  6
CONTINUOUS
 10
4.966687
 20
4.708072
  0
VERTEX
  8
0
  6
CONTINUOUS
 10
5.026120
 20
4.671127
  0
VERTEX
  8
0
  6
CONTINUOUS
 10
5.074309
 20
4.629363
  0
VERTEX
  8
0
  6
CONTINUOUS
 10
5.112057
 20
4.585993
  0
VERTEX
  8
0
  6
CONTINUOUS
 10
5.139364
 20
4.538607
  0
VERTEX
  8
0
  6
CONTINUOUS
 10
5.319270
 20
4.822923
  0
VERTEX
  8
0
  6
CONTINUOUS
 10
5.376294
 20
4.767505
  0
VERTEX
  8
0
  6
CONTINUOUS
 10
5.434121
 20
4.720119
  0
VERTEX
  8
0
  6
CONTINUOUS
 10
5.494357
 20
4.680765
  0
VERTEX
  8
0
  6
CONTINUOUS
 10
5.556200
 20
4.647836
  0
VERTEX
  8
0
  6
CONTINUOUS
 10
5.619649
 20
4.622135
  0
VERTEX
  8
0
  6
CONTINUOUS
 10
5.684704
 20
4.603663
  0
VERTEX
  8
0
  6
CONTINUOUS
 10
5.750562
 20
4.591615
  0
VERTEX
  8
0
  6
CONTINUOUS
 10
5.817224
 20
4.587600
  0
VERTEX
  8
0
  6
CONTINUOUS
 10
5.884689
 20
4.590009
  0
VERTEX
  8
0
  6
CONTINUOUS
 10
5.952153
 20
4.599647
  0
VERTEX
  8
0
  6
CONTINUOUS
 10
6.020421
 20
4.616513
  0
VERTEX
  8
0
  6
CONTINUOUS
 10
6.087083
 20
4.640608
  0
VERTEX
  8
0
  6
CONTINUOUS
 10
6.154548
 20
4.671127
  0
VERTEX
  8
0
  6
CONTINUOUS
 10
6.220406
 20
4.709679
  0
VERTEX
  8
0
  6
CONTINUOUS
 10
6.285461
 20
4.754655
  0
VERTEX
  8
0
  6
CONTINUOUS
 10
6.349713
 20
4.806860
  0
VERTEX
  8
0
  6
CONTINUOUS
 10
6.361761
 20
4.806860
  0
VERTEX
  8
0
  6
CONTINUOUS
 10
6.360154
 20
4.806860
  0
VERTEX
  8
0
  6
CONTINUOUS
 10
6.552107
 20
4.550655
  0
VERTEX
  8
0
  6
CONTINUOUS
 10
6.828391
 20
4.853443
  0
VERTEX
  8
0
  6
CONTINUOUS
 10
7.291006
 20
4.854246
  0
VERTEX
  8
0
  6
CONTINUOUS
 10
7.301447
 20
4.789994
  0
VERTEX
  8
0
  6
CONTINUOUS
 10
7.319920
 20
4.724938
  0
VERTEX
  8
0
  6
CONTINUOUS
 10
7.348833
 20
4.660686
  0
VERTEX
  8
0
  6
CONTINUOUS
 10
7.388991
 20
4.601253
  0
VERTEX
  8
0
  6
CONTINUOUS
 10
7.413085
 20
4.574749
  0
VERTEX
  8
0
  6
CONTINUOUS
 10
7.471715
 20
4.530576
  0
VERTEX
  8
0
  6
CONTINUOUS
 10
7.506251
 20
4.513710
  0
VERTEX
  8
0
  6
CONTINUOUS
 10
7.544802
 20
4.501662
  0
VERTEX
  8
0
  6
CONTINUOUS
 10
7.586566
 20
4.493631
  0
VERTEX
  8
0
  6
CONTINUOUS
 10
7.632346
 20
4.490418
  0
VERTEX
  8
0
  6
CONTINUOUS
 10
7.682141
 20
4.492828
  0
VERTEX
  8
0
  6
CONTINUOUS
 10
7.682141
 20
4.054307
  0
VERTEX
  8
0
  6
CONTINUOUS
 10
7.672503
 20
4.054307
  0
VERTEX
  8
0
  6
CONTINUOUS
 10
7.672503
 20
4.055913
  0
VERTEX
  8
0
  6
CONTINUOUS
 10
1.574176
 20
4.055913
  0
VERTEX
  8
0
  6
CONTINUOUS
 10
1.574979
 20
4.490418
  0
VERTEX
  8
0
  6
CONTINUOUS
 10
1.624775
 20
4.488009
  0
VERTEX
  8
0
  6
CONTINUOUS
 10
1.670554
 20
4.490418
  0
VERTEX
  8
0
  6
CONTINUOUS
 10
1.712318
 20
4.498450
  0
VERTEX
  8
0
  6
CONTINUOUS
 10
1.750066
 20
4.511300
  0
VERTEX
  8
0
  6
CONTINUOUS
 10
1.784602
 20
4.528166
  0
VERTEX
  8
0
  6
CONTINUOUS
 10
1.815925
 20
4.548245
  0
VERTEX
  8
0
  6
CONTINUOUS
 10
1.868130
 20
4.598844
  0
VERTEX
  8
0
  6
CONTINUOUS
 10
1.907484
 20
4.657474
  0
VERTEX
  8
0
  6
CONTINUOUS
 10
1.936397
 20
4.721726
  0
VERTEX
  8
0
  6
CONTINUOUS
 10
1.955673
 20
4.787584
  0
VERTEX
  8
0
  6
CONTINUOUS
 10
1.966114
 20
4.850230
  0
VERTEX
  8
0
  6
CONTINUOUS
 10
2.428729
 20
4.850230
  0
VERTEX
  8
0
  6
CONTINUOUS
 10
2.704210
 20
4.548245
  0
VERTEX
  8
0
  6
CONTINUOUS
 10
2.896163
 20
4.803647
  0
VERTEX
  8
0
  6
CONTINUOUS
 10
2.907407
 20
4.803647
  0
SEQEND
  8
0
  0
TEXT
  8
0
 10
4.373961
 20
3.774007
 40
0.134474
  1
BA  61
 41
1.000000
  7
SN1
 71
     0
 72
     5
 11
4.866036
 21
3.774007
  0
TEXT
  8
0
 10
4.172370
 20
3.582054
 40
0.134474
  1
3/4" x 6-1/8"
 41
1.000000
  7
SN1
 71
     0
 72
     5
 11
5.062747
 21
3.582054
  0
ENDSEC
  0
EOF
