  0
SECTION
  2
HEADER
  9
$ACADVER
  1
AC1006
  9
$EXTMIN
 10
3.527920
 20
3.188680
  9
$EXTMAX
 10
4.914360
 20
5.827800
  9
$LTSCALE
 40
0.044000
  9
$PDMODE
 70
    35
  9
$PDSIZE
 40
0.035200
  0
ENDSEC
  0
SECTION
  2
TABLES
  0
TABLE
  2
LTYPE
 70
     9
  0
LTYPE
  2
CONTINUOUS
 70
    64
  3
Solid line
 72
    65
 73
     0
 40
0.000000
  0
LTYPE
  2
DASHED
 70
    64
  3
__ __ __ __ __ __ __ __ __ __ __ __ __ __ __
 72
    65
 73
     2
 40
0.000330
 49
0.000220
 49
-0.000110
  0
LTYPE
  2
HIDDEN
 70
    64
  3
 _ _ _ _ _ _ _ _ _ _ _ _ _ _ _ _ _ _ _ _ _ _
 72
    65
 73
     2
 40
0.000165
 49
0.000110
 49
-0.000055
  0
LTYPE
  2
CENTER
 70
    64
  3
____ _ ____ _ ____ _ ____ _ ____ _ ____ _ ____
 72
    65
 73
     4
 40
0.000880
 49
0.000550
 49
-0.000110
 49
0.000110
 49
-0.000110
  0
LTYPE
  2
PHANTOM
 70
    64
  3
_____ _ _ _____ _ _ _____ _ _ _____ _ _ ____
 72
    65
 73
     6
 40
0.001100
 49
0.000550
 49
-0.000110
 49
0.000110
 49
-0.000110
 49
0.000110
 49
-0.000110
  0
LTYPE
  2
DOT
 70
    64
  3
...............................................
 72
    65
 73
     2
 40
0.000110
 49
0.000000
 49
-0.000110
  0
LTYPE
  2
DASHDOT
 70
    64
  3
__ . __ . __ . __ . __ . __ . __ . __ . __ . __
 72
    65
 73
     4
 40
0.000440
 49
0.000220
 49
-0.000110
 49
0.000000
 49
-0.000110
  0
LTYPE
  2
BORDER
 70
    64
  3
__ __ . __ __ . __ __ . __ __ . __ __ . __ __
 72
    65
 73
     6
 40
0.000770
 49
0.000220
 49
-0.000110
 49
0.000220
 49
-0.000110
 49
0.000000
 49
-0.000110
  0
LTYPE
  2
DIVIDE
 70
    64
  3
__ . . __ . . __ . . __ . . __ . . __ . . __
 72
    65
 73
     6
 40
0.000550
 49
0.000220
 49
-0.000110
 49
0.000000
 49
-0.000110
 49
0.000000
 49
-0.000110
  0
LTYPE
  2
DOTDOT
 70
    64
  3
 . .  . .  . .  . .  . .  . . 
 72
    65
 73
     5
 40
0.000242
 49
-0.000110
 49
0.000000
 49
-0.000110
 49
0.000000
 49
-0.000110
  0
ENDTAB
  0
TABLE
  2
STYLE
 70
     2
  0
STYLE
 70
     0
  2
SN0
 40
0.000000
 41
0.000440
 50
0.000000
 71
     0
 42
0.000000
  3
ROMAND
  0
STYLE
 70
    68
  2
SV0
 40
0.000000
 41
0.000440
 50
0.000000
 71
     0
 42
0.000000
  3
ROMAND
  0
ENDTAB
  0
TABLE
  2
LAYER
 70
     3
  0
LAYER
  2
FOREGROUND
 70
    64
 62
     7
  6
CONTINUOUS
  0
LAYER
  2
BACKGROUND
 70
    65
 62
    -7
  6
CONTINUOUS
  0
LAYER
  2
0
 70
    64
 62
     7
  6
CONTINUOUS
  0
ENDTAB
  0
ENDSEC
  0
SECTION
  2
ENTITIES
  0
POLYLINE
  8
FOREGROUND
  6
CONTINUOUS
 66
     1
 40
0.000000
 41
0.000000
  0
VERTEX
  8
FOREGROUND
  6
CONTINUOUS
 10
0.000000
 20
9.016480
  0
VERTEX
  8
FOREGROUND
  6
CONTINUOUS
 10
8.499920
 20
9.016480
  0
VERTEX
  8
FOREGROUND
  6
CONTINUOUS
 10
8.499920
 20
-1.983520
  0
VERTEX
  8
FOREGROUND
  6
CONTINUOUS
 10
0.000000
 20
-1.983520
  0
VERTEX
  8
FOREGROUND
  6
CONTINUOUS
 10
0.000000
 20
9.016480
  0
SEQEND
  8
0
  0
POLYLINE
  8
FOREGROUND
  6
CONTINUOUS
 66
     1
 40
0.000000
 41
0.000000
  0
VERTEX
  8
FOREGROUND
  6
CONTINUOUS
 10
0.000000
 20
9.016480
  0
VERTEX
  8
FOREGROUND
  6
CONTINUOUS
 10
8.499920
 20
9.016480
  0
VERTEX
  8
FOREGROUND
  6
CONTINUOUS
 10
8.499920
 20
-1.983520
  0
VERTEX
  8
FOREGROUND
  6
CONTINUOUS
 10
0.000000
 20
-1.983520
  0
VERTEX
  8
FOREGROUND
  6
CONTINUOUS
 10
0.000000
 20
9.016480
  0
SEQEND
  8
0
  0
POLYLINE
  8
0
  6
CONTINUOUS
 66
     1
 40
0.014080
 41
0.014080
  0
VERTEX
  8
0
  6
CONTINUOUS
 10
4.596680
 20
5.069680
  0
VERTEX
  8
0
  6
CONTINUOUS
 10
4.595800
 20
5.108400
  0
VERTEX
  8
0
  6
CONTINUOUS
 10
4.592720
 20
5.146240
  0
VERTEX
  8
0
  6
CONTINUOUS
 10
4.587880
 20
5.183640
  0
VERTEX
  8
0
  6
CONTINUOUS
 10
4.581280
 20
5.220600
  0
VERTEX
  8
0
  6
CONTINUOUS
 10
4.572920
 20
5.256680
  0
VERTEX
  8
0
  6
CONTINUOUS
 10
4.562800
 20
5.292320
  0
VERTEX
  8
0
  6
CONTINUOUS
 10
4.550920
 20
5.327080
  0
VERTEX
  8
0
  6
CONTINUOUS
 10
4.537280
 20
5.361400
  0
VERTEX
  8
0
  6
CONTINUOUS
 10
4.522320
 20
5.394400
  0
VERTEX
  8
0
  6
CONTINUOUS
 10
4.505600
 20
5.426960
  0
VERTEX
  8
0
  6
CONTINUOUS
 10
4.487560
 20
5.458200
  0
VERTEX
  8
0
  6
CONTINUOUS
 10
4.468200
 20
5.488560
  0
VERTEX
  8
0
  6
CONTINUOUS
 10
4.447080
 20
5.518040
  0
VERTEX
  8
0
  6
CONTINUOUS
 10
4.424640
 20
5.546640
  0
VERTEX
  8
0
  6
CONTINUOUS
 10
4.401320
 20
5.573920
  0
VERTEX
  8
0
  6
CONTINUOUS
 10
4.376240
 20
5.599880
  0
VERTEX
  8
0
  6
CONTINUOUS
 10
4.350280
 20
5.624960
  0
VERTEX
  8
0
  6
CONTINUOUS
 10
4.323000
 20
5.648280
  0
VERTEX
  8
0
  6
CONTINUOUS
 10
4.294400
 20
5.670720
  0
VERTEX
  8
0
  6
CONTINUOUS
 10
4.264920
 20
5.691840
  0
VERTEX
  8
0
  6
CONTINUOUS
 10
4.234560
 20
5.711200
  0
VERTEX
  8
0
  6
CONTINUOUS
 10
4.203320
 20
5.729240
  0
VERTEX
  8
0
  6
CONTINUOUS
 10
4.170760
 20
5.745960
  0
VERTEX
  8
0
  6
CONTINUOUS
 10
4.137760
 20
5.760920
  0
VERTEX
  8
0
  6
CONTINUOUS
 10
4.103440
 20
5.774560
  0
VERTEX
  8
0
  6
CONTINUOUS
 10
4.068680
 20
5.786440
  0
VERTEX
  8
0
  6
CONTINUOUS
 10
4.033040
 20
5.796560
  0
VERTEX
  8
0
  6
CONTINUOUS
 10
3.996960
 20
5.804920
  0
VERTEX
  8
0
  6
CONTINUOUS
 10
3.960000
 20
5.811520
  0
VERTEX
  8
0
  6
CONTINUOUS
 10
3.922600
 20
5.816360
  0
VERTEX
  8
0
  6
CONTINUOUS
 10
3.884760
 20
5.819440
  0
VERTEX
  8
0
  6
CONTINUOUS
 10
3.846040
 20
5.820320
  0
VERTEX
  8
0
  6
CONTINUOUS
 10
3.846040
 20
5.065280
  0
VERTEX
  8
0
  6
CONTINUOUS
 10
4.595360
 20
5.065280
  0
VERTEX
  8
0
  6
CONTINUOUS
 10
4.596680
 20
5.069680
  0
SEQEND
  8
0
  0
SOLID
  8
0
 62
     7
 10
4.058560
 20
4.179120
 11
4.693480
 21
4.557080
 12
4.107400
 22
4.125880
 13
4.742320
 23
4.503840
  0
POLYLINE
  8
0
  6
CONTINUOUS
 66
     1
 40
0.000000
 41
0.000000
  0
VERTEX
  8
0
  6
CONTINUOUS
 10
4.058560
 20
4.179120
  0
VERTEX
  8
0
  6
CONTINUOUS
 10
4.693480
 20
4.557080
  0
VERTEX
  8
0
  6
CONTINUOUS
 10
4.742320
 20
4.503840
  0
VERTEX
  8
0
  6
CONTINUOUS
 10
4.107400
 20
4.125880
  0
VERTEX
  8
0
  6
CONTINUOUS
 10
4.058560
 20
4.179120
  0
SEQEND
  8
0
  0
SOLID
  8
0
 62
    15
 10
3.604920
 20
4.395600
 11
4.239840
 21
4.773560
 12
3.679280
 22
4.384160
 13
4.314200
 23
4.762120
  0
POLYLINE
  8
0
  6
CONTINUOUS
 66
     1
 40
0.000000
 41
0.000000
  0
VERTEX
  8
0
  6
CONTINUOUS
 10
3.604920
 20
4.395600
  0
VERTEX
  8
0
  6
CONTINUOUS
 10
4.239840
 20
4.773560
  0
VERTEX
  8
0
  6
CONTINUOUS
 10
4.314200
 20
4.762120
  0
VERTEX
  8
0
  6
CONTINUOUS
 10
3.679280
 20
4.384160
  0
VERTEX
  8
0
  6
CONTINUOUS
 10
3.604920
 20
4.395600
  0
SEQEND
  8
0
  0
SOLID
  8
0
 62
    15
 10
3.679280
 20
4.384160
 11
4.314200
 21
4.762120
 12
3.751000
 22
4.365680
 13
4.385920
 23
4.743640
  0
POLYLINE
  8
0
  6
CONTINUOUS
 66
     1
 40
0.000000
 41
0.000000
  0
VERTEX
  8
0
  6
CONTINUOUS
 10
3.679280
 20
4.384160
  0
VERTEX
  8
0
  6
CONTINUOUS
 10
4.314200
 20
4.762120
  0
VERTEX
  8
0
  6
CONTINUOUS
 10
4.385920
 20
4.743640
  0
VERTEX
  8
0
  6
CONTINUOUS
 10
3.751000
 20
4.365680
  0
VERTEX
  8
0
  6
CONTINUOUS
 10
3.679280
 20
4.384160
  0
SEQEND
  8
0
  0
SOLID
  8
0
 62
    15
 10
3.751000
 20
4.365680
 11
4.385920
 21
4.743640
 12
3.820080
 22
4.340160
 13
4.455000
 23
4.718120
  0
POLYLINE
  8
0
  6
CONTINUOUS
 66
     1
 40
0.000000
 41
0.000000
  0
VERTEX
  8
0
  6
CONTINUOUS
 10
3.751000
 20
4.365680
  0
VERTEX
  8
0
  6
CONTINUOUS
 10
4.385920
 20
4.743640
  0
VERTEX
  8
0
  6
CONTINUOUS
 10
4.455000
 20
4.718120
  0
VERTEX
  8
0
  6
CONTINUOUS
 10
3.820080
 20
4.340160
  0
VERTEX
  8
0
  6
CONTINUOUS
 10
3.751000
 20
4.365680
  0
SEQEND
  8
0
  0
SOLID
  8
0
 62
    15
 10
3.820080
 20
4.340160
 11
4.455000
 21
4.718120
 12
3.885640
 22
4.308480
 13
4.520560
 23
4.686440
  0
POLYLINE
  8
0
  6
CONTINUOUS
 66
     1
 40
0.000000
 41
0.000000
  0
VERTEX
  8
0
  6
CONTINUOUS
 10
3.820080
 20
4.340160
  0
VERTEX
  8
0
  6
CONTINUOUS
 10
4.455000
 20
4.718120
  0
VERTEX
  8
0
  6
CONTINUOUS
 10
4.520560
 20
4.686440
  0
VERTEX
  8
0
  6
CONTINUOUS
 10
3.885640
 20
4.308480
  0
VERTEX
  8
0
  6
CONTINUOUS
 10
3.820080
 20
4.340160
  0
SEQEND
  8
0
  0
SOLID
  8
0
 62
     7
 10
3.885640
 20
4.308480
 11
4.520560
 21
4.686440
 12
3.947680
 22
4.270640
 13
4.582600
 23
4.649040
  0
POLYLINE
  8
0
  6
CONTINUOUS
 66
     1
 40
0.000000
 41
0.000000
  0
VERTEX
  8
0
  6
CONTINUOUS
 10
3.885640
 20
4.308480
  0
VERTEX
  8
0
  6
CONTINUOUS
 10
4.520560
 20
4.686440
  0
VERTEX
  8
0
  6
CONTINUOUS
 10
4.582600
 20
4.649040
  0
VERTEX
  8
0
  6
CONTINUOUS
 10
3.947680
 20
4.270640
  0
VERTEX
  8
0
  6
CONTINUOUS
 10
3.885640
 20
4.308480
  0
SEQEND
  8
0
  0
SOLID
  8
0
 62
     7
 10
3.947680
 20
4.270640
 11
4.582600
 21
4.649040
 12
4.005320
 22
4.227520
 13
4.640240
 23
4.605480
  0
POLYLINE
  8
0
  6
CONTINUOUS
 66
     1
 40
0.000000
 41
0.000000
  0
VERTEX
  8
0
  6
CONTINUOUS
 10
3.947680
 20
4.270640
  0
VERTEX
  8
0
  6
CONTINUOUS
 10
4.582600
 20
4.649040
  0
VERTEX
  8
0
  6
CONTINUOUS
 10
4.640240
 20
4.605480
  0
VERTEX
  8
0
  6
CONTINUOUS
 10
4.005320
 20
4.227520
  0
VERTEX
  8
0
  6
CONTINUOUS
 10
3.947680
 20
4.270640
  0
SEQEND
  8
0
  0
SOLID
  8
0
 62
     7
 10
4.005320
 20
4.227520
 11
4.640240
 21
4.605480
 12
4.058560
 22
4.179120
 13
4.693480
 23
4.557080
  0
POLYLINE
  8
0
  6
CONTINUOUS
 66
     1
 40
0.000000
 41
0.000000
  0
VERTEX
  8
0
  6
CONTINUOUS
 10
4.005320
 20
4.227520
  0
VERTEX
  8
0
  6
CONTINUOUS
 10
4.640240
 20
4.605480
  0
VERTEX
  8
0
  6
CONTINUOUS
 10
4.693480
 20
4.557080
  0
VERTEX
  8
0
  6
CONTINUOUS
 10
4.058560
 20
4.179120
  0
VERTEX
  8
0
  6
CONTINUOUS
 10
4.005320
 20
4.227520
  0
SEQEND
  8
0
  0
SOLID
  8
0
 62
    15
 10
3.528360
 20
4.399560
 11
4.163280
 21
4.777520
 12
3.604920
 22
4.395600
 13
4.239840
 23
4.773560
  0
POLYLINE
  8
0
  6
CONTINUOUS
 66
     1
 40
0.000000
 41
0.000000
  0
VERTEX
  8
0
  6
CONTINUOUS
 10
3.528360
 20
4.399560
  0
VERTEX
  8
0
  6
CONTINUOUS
 10
4.163280
 20
4.777520
  0
VERTEX
  8
0
  6
CONTINUOUS
 10
4.239840
 20
4.773560
  0
VERTEX
  8
0
  6
CONTINUOUS
 10
3.604920
 20
4.395600
  0
VERTEX
  8
0
  6
CONTINUOUS
 10
3.528360
 20
4.399560
  0
SEQEND
  8
0
  0
SOLID
  8
0
 62
     7
 10
4.107400
 20
4.125880
 11
4.742320
 21
4.503840
 12
4.150520
 22
4.067800
 13
4.785440
 23
4.445760
  0
POLYLINE
  8
0
  6
CONTINUOUS
 66
     1
 40
0.000000
 41
0.000000
  0
VERTEX
  8
0
  6
CONTINUOUS
 10
4.107400
 20
4.125880
  0
VERTEX
  8
0
  6
CONTINUOUS
 10
4.742320
 20
4.503840
  0
VERTEX
  8
0
  6
CONTINUOUS
 10
4.785440
 20
4.445760
  0
VERTEX
  8
0
  6
CONTINUOUS
 10
4.150520
 20
4.067800
  0
VERTEX
  8
0
  6
CONTINUOUS
 10
4.107400
 20
4.125880
  0
SEQEND
  8
0
  0
SOLID
  8
0
 62
     7
 10
4.150520
 20
4.067800
 11
4.785440
 21
4.445760
 12
4.188360
 22
4.006200
 13
4.823280
 23
4.384160
  0
POLYLINE
  8
0
  6
CONTINUOUS
 66
     1
 40
0.000000
 41
0.000000
  0
VERTEX
  8
0
  6
CONTINUOUS
 10
4.150520
 20
4.067800
  0
VERTEX
  8
0
  6
CONTINUOUS
 10
4.785440
 20
4.445760
  0
VERTEX
  8
0
  6
CONTINUOUS
 10
4.823280
 20
4.384160
  0
VERTEX
  8
0
  6
CONTINUOUS
 10
4.188360
 20
4.006200
  0
VERTEX
  8
0
  6
CONTINUOUS
 10
4.150520
 20
4.067800
  0
SEQEND
  8
0
  0
SOLID
  8
0
 62
     7
 10
4.188360
 20
4.006200
 11
4.823280
 21
4.384160
 12
4.220040
 22
3.940200
 13
4.854960
 23
4.318600
  0
POLYLINE
  8
0
  6
CONTINUOUS
 66
     1
 40
0.000000
 41
0.000000
  0
VERTEX
  8
0
  6
CONTINUOUS
 10
4.188360
 20
4.006200
  0
VERTEX
  8
0
  6
CONTINUOUS
 10
4.823280
 20
4.384160
  0
VERTEX
  8
0
  6
CONTINUOUS
 10
4.854960
 20
4.318600
  0
VERTEX
  8
0
  6
CONTINUOUS
 10
4.220040
 20
3.940200
  0
VERTEX
  8
0
  6
CONTINUOUS
 10
4.188360
 20
4.006200
  0
SEQEND
  8
0
  0
SOLID
  8
0
 62
     7
 10
4.220040
 20
3.940200
 11
4.854960
 21
4.318600
 12
4.245120
 22
3.871560
 13
4.880040
 23
4.249520
  0
POLYLINE
  8
0
  6
CONTINUOUS
 66
     1
 40
0.000000
 41
0.000000
  0
VERTEX
  8
0
  6
CONTINUOUS
 10
4.220040
 20
3.940200
  0
VERTEX
  8
0
  6
CONTINUOUS
 10
4.854960
 20
4.318600
  0
VERTEX
  8
0
  6
CONTINUOUS
 10
4.880040
 20
4.249520
  0
VERTEX
  8
0
  6
CONTINUOUS
 10
4.245120
 20
3.871560
  0
VERTEX
  8
0
  6
CONTINUOUS
 10
4.220040
 20
3.940200
  0
SEQEND
  8
0
  0
SOLID
  8
0
 62
     7
 10
4.245120
 20
3.871560
 11
4.880040
 21
4.249520
 12
4.263600
 22
3.799840
 13
4.898520
 23
4.177800
  0
POLYLINE
  8
0
  6
CONTINUOUS
 66
     1
 40
0.000000
 41
0.000000
  0
VERTEX
  8
0
  6
CONTINUOUS
 10
4.245120
 20
3.871560
  0
VERTEX
  8
0
  6
CONTINUOUS
 10
4.880040
 20
4.249520
  0
VERTEX
  8
0
  6
CONTINUOUS
 10
4.898520
 20
4.177800
  0
VERTEX
  8
0
  6
CONTINUOUS
 10
4.263600
 20
3.799840
  0
VERTEX
  8
0
  6
CONTINUOUS
 10
4.245120
 20
3.871560
  0
SEQEND
  8
0
  0
SOLID
  8
0
 62
    15
 10
4.263600
 20
3.799840
 11
4.898520
 21
4.177800
 12
4.275040
 22
3.725480
 13
4.909960
 23
4.103440
  0
POLYLINE
  8
0
  6
CONTINUOUS
 66
     1
 40
0.000000
 41
0.000000
  0
VERTEX
  8
0
  6
CONTINUOUS
 10
4.263600
 20
3.799840
  0
VERTEX
  8
0
  6
CONTINUOUS
 10
4.898520
 20
4.177800
  0
VERTEX
  8
0
  6
CONTINUOUS
 10
4.909960
 20
4.103440
  0
VERTEX
  8
0
  6
CONTINUOUS
 10
4.275040
 20
3.725480
  0
VERTEX
  8
0
  6
CONTINUOUS
 10
4.263600
 20
3.799840
  0
SEQEND
  8
0
  0
SOLID
  8
0
 62
    15
 10
4.275040
 20
3.725480
 11
4.909960
 21
4.103440
 12
4.279000
 22
3.648920
 13
4.913920
 23
4.026880
  0
POLYLINE
  8
0
  6
CONTINUOUS
 66
     1
 40
0.000000
 41
0.000000
  0
VERTEX
  8
0
  6
CONTINUOUS
 10
4.275040
 20
3.725480
  0
VERTEX
  8
0
  6
CONTINUOUS
 10
4.909960
 20
4.103440
  0
VERTEX
  8
0
  6
CONTINUOUS
 10
4.913920
 20
4.026880
  0
VERTEX
  8
0
  6
CONTINUOUS
 10
4.279000
 20
3.648920
  0
VERTEX
  8
0
  6
CONTINUOUS
 10
4.275040
 20
3.725480
  0
SEQEND
  8
0
  0
SOLID
  8
0
 62
    15
 10
4.279000
 20
3.648920
 11
4.913920
 21
4.026880
 12
4.277680
 22
3.644520
 13
4.912600
 23
4.022920
  0
POLYLINE
  8
0
  6
CONTINUOUS
 66
     1
 40
0.000000
 41
0.000000
  0
VERTEX
  8
0
  6
CONTINUOUS
 10
4.279000
 20
3.648920
  0
VERTEX
  8
0
  6
CONTINUOUS
 10
4.913920
 20
4.026880
  0
VERTEX
  8
0
  6
CONTINUOUS
 10
4.912600
 20
4.022920
  0
VERTEX
  8
0
  6
CONTINUOUS
 10
4.277680
 20
3.644520
  0
VERTEX
  8
0
  6
CONTINUOUS
 10
4.279000
 20
3.648920
  0
SEQEND
  8
0
  0
POLYLINE
  8
0
  6
CONTINUOUS
 66
     1
 40
0.000000
 41
0.000000
  0
VERTEX
  8
0
  6
CONTINUOUS
 10
4.277680
 20
3.644520
  0
VERTEX
  8
0
  6
CONTINUOUS
 10
3.528360
 20
3.644520
  0
VERTEX
  8
0
  6
CONTINUOUS
 10
3.528360
 20
4.399560
  0
VERTEX
  8
0
  6
CONTINUOUS
 10
3.604920
 20
4.395600
  0
VERTEX
  8
0
  6
CONTINUOUS
 10
3.679280
 20
4.384160
  0
VERTEX
  8
0
  6
CONTINUOUS
 10
3.751000
 20
4.365680
  0
VERTEX
  8
0
  6
CONTINUOUS
 10
3.820080
 20
4.340160
  0
VERTEX
  8
0
  6
CONTINUOUS
 10
3.885640
 20
4.308480
  0
VERTEX
  8
0
  6
CONTINUOUS
 10
3.947680
 20
4.270640
  0
VERTEX
  8
0
  6
CONTINUOUS
 10
4.005320
 20
4.227520
  0
VERTEX
  8
0
  6
CONTINUOUS
 10
4.058560
 20
4.179120
  0
VERTEX
  8
0
  6
CONTINUOUS
 10
4.107400
 20
4.125880
  0
VERTEX
  8
0
  6
CONTINUOUS
 10
4.150520
 20
4.067800
  0
VERTEX
  8
0
  6
CONTINUOUS
 10
4.188360
 20
4.006200
  0
VERTEX
  8
0
  6
CONTINUOUS
 10
4.220040
 20
3.940200
  0
VERTEX
  8
0
  6
CONTINUOUS
 10
4.245120
 20
3.871560
  0
VERTEX
  8
0
  6
CONTINUOUS
 10
4.263600
 20
3.799840
  0
VERTEX
  8
0
  6
CONTINUOUS
 10
4.275040
 20
3.725480
  0
VERTEX
  8
0
  6
CONTINUOUS
 10
4.279000
 20
3.648920
  0
VERTEX
  8
0
  6
CONTINUOUS
 10
4.277680
 20
3.644520
  0
SEQEND
  8
0
  0
TEXT
  8
0
 10
3.971440
 20
3.423640
 40
0.138141
  1
BA  60
 41
1.000000
  7
SN0
 71
     0
 72
     5
 11
4.468782
 21
3.423640
  0
TEXT
  8
0
 10
4.075720
 20
3.232240
 40
0.138141
  1
3/4"
 41
1.000000
  7
SN0
 71
     0
 72
     5
 11
4.364836
 21
3.232240
  0
ENDSEC
  0
EOF
