  0
SECTION
  2
HEADER
  9
$ACADVER
  1
AC1006
  9
$EXTMIN
 10
2.768040
 20
2.966480
  9
$EXTMAX
 10
4.658280
 20
5.430040
  9
$LTSCALE
 40
0.044000
  9
$PDMODE
 70
    35
  9
$PDSIZE
 40
0.035200
  0
ENDSEC
  0
SECTION
  2
TABLES
  0
TABLE
  2
LTYPE
 70
     9
  0
LTYPE
  2
CONTINUOUS
 70
    64
  3
Solid line
 72
    65
 73
     0
 40
0.000000
  0
LTYPE
  2
DASHED
 70
    64
  3
__ __ __ __ __ __ __ __ __ __ __ __ __ __ __
 72
    65
 73
     2
 40
0.000330
 49
0.000220
 49
-0.000110
  0
LTYPE
  2
HIDDEN
 70
    64
  3
 _ _ _ _ _ _ _ _ _ _ _ _ _ _ _ _ _ _ _ _ _ _
 72
    65
 73
     2
 40
0.000165
 49
0.000110
 49
-0.000055
  0
LTYPE
  2
CENTER
 70
    64
  3
____ _ ____ _ ____ _ ____ _ ____ _ ____ _ ____
 72
    65
 73
     4
 40
0.000880
 49
0.000550
 49
-0.000110
 49
0.000110
 49
-0.000110
  0
LTYPE
  2
PHANTOM
 70
    64
  3
_____ _ _ _____ _ _ _____ _ _ _____ _ _ ____
 72
    65
 73
     6
 40
0.001100
 49
0.000550
 49
-0.000110
 49
0.000110
 49
-0.000110
 49
0.000110
 49
-0.000110
  0
LTYPE
  2
DOT
 70
    64
  3
...............................................
 72
    65
 73
     2
 40
0.000110
 49
0.000000
 49
-0.000110
  0
LTYPE
  2
DASHDOT
 70
    64
  3
__ . __ . __ . __ . __ . __ . __ . __ . __ . __
 72
    65
 73
     4
 40
0.000440
 49
0.000220
 49
-0.000110
 49
0.000000
 49
-0.000110
  0
LTYPE
  2
BORDER
 70
    64
  3
__ __ . __ __ . __ __ . __ __ . __ __ . __ __
 72
    65
 73
     6
 40
0.000770
 49
0.000220
 49
-0.000110
 49
0.000220
 49
-0.000110
 49
0.000000
 49
-0.000110
  0
LTYPE
  2
DIVIDE
 70
    64
  3
__ . . __ . . __ . . __ . . __ . . __ . . __
 72
    65
 73
     6
 40
0.000550
 49
0.000220
 49
-0.000110
 49
0.000000
 49
-0.000110
 49
0.000000
 49
-0.000110
  0
LTYPE
  2
DOTDOT
 70
    64
  3
 . .  . .  . .  . .  . .  . . 
 72
    65
 73
     5
 40
0.000242
 49
-0.000110
 49
0.000000
 49
-0.000110
 49
0.000000
 49
-0.000110
  0
ENDTAB
  0
TABLE
  2
STYLE
 70
     2
  0
STYLE
 70
     0
  2
SN0
 40
0.000000
 41
0.000440
 50
0.000000
 71
     0
 42
0.000000
  3
ROMAND
  0
STYLE
 70
    68
  2
SV0
 40
0.000000
 41
0.000440
 50
0.000000
 71
     0
 42
0.000000
  3
ROMAND
  0
ENDTAB
  0
TABLE
  2
LAYER
 70
     3
  0
LAYER
  2
FOREGROUND
 70
    64
 62
     7
  6
CONTINUOUS
  0
LAYER
  2
BACKGROUND
 70
    65
 62
    -7
  6
CONTINUOUS
  0
LAYER
  2
0
 70
    64
 62
     7
  6
CONTINUOUS
  0
ENDTAB
  0
ENDSEC
  0
SECTION
  2
ENTITIES
  0
POLYLINE
  8
FOREGROUND
  6
CONTINUOUS
 66
     1
 40
0.000000
 41
0.000000
  0
VERTEX
  8
FOREGROUND
  6
CONTINUOUS
 10
0.000000
 20
8.396520
  0
VERTEX
  8
FOREGROUND
  6
CONTINUOUS
 10
8.499920
 20
8.396520
  0
VERTEX
  8
FOREGROUND
  6
CONTINUOUS
 10
8.499920
 20
-2.603480
  0
VERTEX
  8
FOREGROUND
  6
CONTINUOUS
 10
0.000000
 20
-2.603480
  0
VERTEX
  8
FOREGROUND
  6
CONTINUOUS
 10
0.000000
 20
8.396520
  0
SEQEND
  8
0
  0
POLYLINE
  8
FOREGROUND
  6
CONTINUOUS
 66
     1
 40
0.000000
 41
0.000000
  0
VERTEX
  8
FOREGROUND
  6
CONTINUOUS
 10
0.000000
 20
8.396520
  0
VERTEX
  8
FOREGROUND
  6
CONTINUOUS
 10
8.499920
 20
8.396520
  0
VERTEX
  8
FOREGROUND
  6
CONTINUOUS
 10
8.499920
 20
-2.603480
  0
VERTEX
  8
FOREGROUND
  6
CONTINUOUS
 10
0.000000
 20
-2.603480
  0
VERTEX
  8
FOREGROUND
  6
CONTINUOUS
 10
0.000000
 20
8.396520
  0
SEQEND
  8
0
  0
POLYLINE
  8
0
  6
CONTINUOUS
 66
     1
 40
0.014080
 41
0.014080
  0
VERTEX
  8
0
  6
CONTINUOUS
 10
3.319360
 20
4.794240
  0
VERTEX
  8
0
  6
CONTINUOUS
 10
4.569840
 20
4.794240
  0
VERTEX
  8
0
  6
CONTINUOUS
 10
3.319360
 20
4.794240
  0
SEQEND
  8
0
  0
POLYLINE
  8
0
  6
CONTINUOUS
 66
     1
 40
0.014080
 41
0.014080
  0
VERTEX
  8
0
  6
CONTINUOUS
 10
4.569840
 20
4.796880
  0
VERTEX
  8
0
  6
CONTINUOUS
 10
4.569658
 20
4.812018
  0
VERTEX
  8
0
  6
CONTINUOUS
 10
4.569116
 20
4.827071
  0
VERTEX
  8
0
  6
CONTINUOUS
 10
4.568217
 20
4.842034
  0
VERTEX
  8
0
  6
CONTINUOUS
 10
4.566966
 20
4.856902
  0
VERTEX
  8
0
  6
CONTINUOUS
 10
4.565366
 20
4.871673
  0
VERTEX
  8
0
  6
CONTINUOUS
 10
4.563423
 20
4.886340
  0
VERTEX
  8
0
  6
CONTINUOUS
 10
4.561140
 20
4.900902
  0
VERTEX
  8
0
  6
CONTINUOUS
 10
4.558521
 20
4.915352
  0
VERTEX
  8
0
  6
CONTINUOUS
 10
4.555570
 20
4.929687
  0
VERTEX
  8
0
  6
CONTINUOUS
 10
4.552293
 20
4.943904
  0
VERTEX
  8
0
  6
CONTINUOUS
 10
4.548692
 20
4.957997
  0
VERTEX
  8
0
  6
CONTINUOUS
 10
4.544772
 20
4.971962
  0
VERTEX
  8
0
  6
CONTINUOUS
 10
4.540537
 20
4.985796
  0
VERTEX
  8
0
  6
CONTINUOUS
 10
4.535992
 20
4.999494
  0
VERTEX
  8
0
  6
CONTINUOUS
 10
4.531139
 20
5.013053
  0
VERTEX
  8
0
  6
CONTINUOUS
 10
4.525985
 20
5.026467
  0
VERTEX
  8
0
  6
CONTINUOUS
 10
4.520532
 20
5.039732
  0
VERTEX
  8
0
  6
CONTINUOUS
 10
4.514786
 20
5.052846
  0
VERTEX
  8
0
  6
CONTINUOUS
 10
4.508749
 20
5.065803
  0
VERTEX
  8
0
  6
CONTINUOUS
 10
4.502427
 20
5.078599
  0
VERTEX
  8
0
  6
CONTINUOUS
 10
4.495823
 20
5.091230
  0
VERTEX
  8
0
  6
CONTINUOUS
 10
4.488942
 20
5.103692
  0
VERTEX
  8
0
  6
CONTINUOUS
 10
4.481788
 20
5.115980
  0
VERTEX
  8
0
  6
CONTINUOUS
 10
4.474365
 20
5.128092
  0
VERTEX
  8
0
  6
CONTINUOUS
 10
4.466677
 20
5.140021
  0
VERTEX
  8
0
  6
CONTINUOUS
 10
4.458728
 20
5.151765
  0
VERTEX
  8
0
  6
CONTINUOUS
 10
4.450522
 20
5.163319
  0
VERTEX
  8
0
  6
CONTINUOUS
 10
4.442064
 20
5.174679
  0
VERTEX
  8
0
  6
CONTINUOUS
 10
4.433358
 20
5.185841
  0
VERTEX
  8
0
  6
CONTINUOUS
 10
4.424408
 20
5.196800
  0
VERTEX
  8
0
  6
CONTINUOUS
 10
4.415218
 20
5.207553
  0
VERTEX
  8
0
  6
CONTINUOUS
 10
4.405792
 20
5.218095
  0
VERTEX
  8
0
  6
CONTINUOUS
 10
4.396135
 20
5.228422
  0
VERTEX
  8
0
  6
CONTINUOUS
 10
4.386250
 20
5.238530
  0
VERTEX
  8
0
  6
CONTINUOUS
 10
4.376142
 20
5.248415
  0
VERTEX
  8
0
  6
CONTINUOUS
 10
4.365815
 20
5.258072
  0
VERTEX
  8
0
  6
CONTINUOUS
 10
4.355273
 20
5.267498
  0
VERTEX
  8
0
  6
CONTINUOUS
 10
4.344520
 20
5.276688
  0
VERTEX
  8
0
  6
CONTINUOUS
 10
4.333561
 20
5.285638
  0
VERTEX
  8
0
  6
CONTINUOUS
 10
4.322399
 20
5.294344
  0
VERTEX
  8
0
  6
CONTINUOUS
 10
4.311039
 20
5.302802
  0
VERTEX
  8
0
  6
CONTINUOUS
 10
4.299485
 20
5.311008
  0
VERTEX
  8
0
  6
CONTINUOUS
 10
4.287741
 20
5.318957
  0
VERTEX
  8
0
  6
CONTINUOUS
 10
4.275812
 20
5.326645
  0
VERTEX
  8
0
  6
CONTINUOUS
 10
4.263700
 20
5.334068
  0
VERTEX
  8
0
  6
CONTINUOUS
 10
4.251412
 20
5.341222
  0
VERTEX
  8
0
  6
CONTINUOUS
 10
4.238950
 20
5.348103
  0
VERTEX
  8
0
  6
CONTINUOUS
 10
4.226319
 20
5.354707
  0
VERTEX
  8
0
  6
CONTINUOUS
 10
4.213523
 20
5.361029
  0
VERTEX
  8
0
  6
CONTINUOUS
 10
4.200566
 20
5.367066
  0
VERTEX
  8
0
  6
CONTINUOUS
 10
4.187453
 20
5.372812
  0
VERTEX
  8
0
  6
CONTINUOUS
 10
4.174187
 20
5.378265
  0
VERTEX
  8
0
  6
CONTINUOUS
 10
4.160773
 20
5.383419
  0
VERTEX
  8
0
  6
CONTINUOUS
 10
4.147214
 20
5.388272
  0
VERTEX
  8
0
  6
CONTINUOUS
 10
4.133516
 20
5.392817
  0
VERTEX
  8
0
  6
CONTINUOUS
 10
4.119682
 20
5.397052
  0
VERTEX
  8
0
  6
CONTINUOUS
 10
4.105717
 20
5.400972
  0
VERTEX
  8
0
  6
CONTINUOUS
 10
4.091624
 20
5.404573
  0
VERTEX
  8
0
  6
CONTINUOUS
 10
4.077407
 20
5.407850
  0
VERTEX
  8
0
  6
CONTINUOUS
 10
4.063072
 20
5.410801
  0
VERTEX
  8
0
  6
CONTINUOUS
 10
4.048622
 20
5.413420
  0
VERTEX
  8
0
  6
CONTINUOUS
 10
4.034060
 20
5.415703
  0
VERTEX
  8
0
  6
CONTINUOUS
 10
4.019393
 20
5.417646
  0
VERTEX
  8
0
  6
CONTINUOUS
 10
4.004622
 20
5.419246
  0
VERTEX
  8
0
  6
CONTINUOUS
 10
3.989754
 20
5.420497
  0
VERTEX
  8
0
  6
CONTINUOUS
 10
3.974791
 20
5.421396
  0
VERTEX
  8
0
  6
CONTINUOUS
 10
3.959738
 20
5.421938
  0
VERTEX
  8
0
  6
CONTINUOUS
 10
3.944600
 20
5.422120
  0
VERTEX
  8
0
  6
CONTINUOUS
 10
3.944600
 20
5.422120
  0
VERTEX
  8
0
  6
CONTINUOUS
 10
3.929462
 20
5.421938
  0
VERTEX
  8
0
  6
CONTINUOUS
 10
3.914409
 20
5.421396
  0
VERTEX
  8
0
  6
CONTINUOUS
 10
3.899446
 20
5.420497
  0
VERTEX
  8
0
  6
CONTINUOUS
 10
3.884578
 20
5.419246
  0
VERTEX
  8
0
  6
CONTINUOUS
 10
3.869807
 20
5.417646
  0
VERTEX
  8
0
  6
CONTINUOUS
 10
3.855140
 20
5.415703
  0
VERTEX
  8
0
  6
CONTINUOUS
 10
3.840578
 20
5.413420
  0
VERTEX
  8
0
  6
CONTINUOUS
 10
3.826128
 20
5.410801
  0
VERTEX
  8
0
  6
CONTINUOUS
 10
3.811793
 20
5.407850
  0
VERTEX
  8
0
  6
CONTINUOUS
 10
3.797576
 20
5.404573
  0
VERTEX
  8
0
  6
CONTINUOUS
 10
3.783483
 20
5.400972
  0
VERTEX
  8
0
  6
CONTINUOUS
 10
3.769518
 20
5.397052
  0
VERTEX
  8
0
  6
CONTINUOUS
 10
3.755684
 20
5.392817
  0
VERTEX
  8
0
  6
CONTINUOUS
 10
3.741986
 20
5.388272
  0
VERTEX
  8
0
  6
CONTINUOUS
 10
3.728427
 20
5.383419
  0
VERTEX
  8
0
  6
CONTINUOUS
 10
3.715013
 20
5.378265
  0
VERTEX
  8
0
  6
CONTINUOUS
 10
3.701747
 20
5.372812
  0
VERTEX
  8
0
  6
CONTINUOUS
 10
3.688634
 20
5.367066
  0
VERTEX
  8
0
  6
CONTINUOUS
 10
3.675677
 20
5.361029
  0
VERTEX
  8
0
  6
CONTINUOUS
 10
3.662881
 20
5.354707
  0
VERTEX
  8
0
  6
CONTINUOUS
 10
3.650250
 20
5.348103
  0
VERTEX
  8
0
  6
CONTINUOUS
 10
3.637788
 20
5.341222
  0
VERTEX
  8
0
  6
CONTINUOUS
 10
3.625500
 20
5.334068
  0
VERTEX
  8
0
  6
CONTINUOUS
 10
3.613388
 20
5.326645
  0
VERTEX
  8
0
  6
CONTINUOUS
 10
3.601459
 20
5.318957
  0
VERTEX
  8
0
  6
CONTINUOUS
 10
3.589715
 20
5.311008
  0
VERTEX
  8
0
  6
CONTINUOUS
 10
3.578161
 20
5.302802
  0
VERTEX
  8
0
  6
CONTINUOUS
 10
3.566801
 20
5.294344
  0
VERTEX
  8
0
  6
CONTINUOUS
 10
3.555639
 20
5.285638
  0
VERTEX
  8
0
  6
CONTINUOUS
 10
3.544680
 20
5.276688
  0
VERTEX
  8
0
  6
CONTINUOUS
 10
3.533927
 20
5.267498
  0
VERTEX
  8
0
  6
CONTINUOUS
 10
3.523385
 20
5.258072
  0
VERTEX
  8
0
  6
CONTINUOUS
 10
3.513058
 20
5.248415
  0
VERTEX
  8
0
  6
CONTINUOUS
 10
3.502950
 20
5.238530
  0
VERTEX
  8
0
  6
CONTINUOUS
 10
3.493065
 20
5.228422
  0
VERTEX
  8
0
  6
CONTINUOUS
 10
3.483408
 20
5.218095
  0
VERTEX
  8
0
  6
CONTINUOUS
 10
3.473982
 20
5.207553
  0
VERTEX
  8
0
  6
CONTINUOUS
 10
3.464792
 20
5.196800
  0
VERTEX
  8
0
  6
CONTINUOUS
 10
3.455842
 20
5.185841
  0
VERTEX
  8
0
  6
CONTINUOUS
 10
3.447136
 20
5.174679
  0
VERTEX
  8
0
  6
CONTINUOUS
 10
3.438678
 20
5.163319
  0
VERTEX
  8
0
  6
CONTINUOUS
 10
3.430472
 20
5.151765
  0
VERTEX
  8
0
  6
CONTINUOUS
 10
3.422523
 20
5.140021
  0
VERTEX
  8
0
  6
CONTINUOUS
 10
3.414835
 20
5.128092
  0
VERTEX
  8
0
  6
CONTINUOUS
 10
3.407412
 20
5.115980
  0
VERTEX
  8
0
  6
CONTINUOUS
 10
3.400258
 20
5.103692
  0
VERTEX
  8
0
  6
CONTINUOUS
 10
3.393377
 20
5.091230
  0
VERTEX
  8
0
  6
CONTINUOUS
 10
3.386773
 20
5.078599
  0
VERTEX
  8
0
  6
CONTINUOUS
 10
3.380451
 20
5.065803
  0
VERTEX
  8
0
  6
CONTINUOUS
 10
3.374414
 20
5.052846
  0
VERTEX
  8
0
  6
CONTINUOUS
 10
3.368667
 20
5.039733
  0
VERTEX
  8
0
  6
CONTINUOUS
 10
3.363215
 20
5.026467
  0
VERTEX
  8
0
  6
CONTINUOUS
 10
3.358061
 20
5.013053
  0
VERTEX
  8
0
  6
CONTINUOUS
 10
3.353208
 20
4.999494
  0
VERTEX
  8
0
  6
CONTINUOUS
 10
3.348663
 20
4.985796
  0
VERTEX
  8
0
  6
CONTINUOUS
 10
3.344428
 20
4.971962
  0
VERTEX
  8
0
  6
CONTINUOUS
 10
3.340508
 20
4.957997
  0
VERTEX
  8
0
  6
CONTINUOUS
 10
3.336907
 20
4.943904
  0
VERTEX
  8
0
  6
CONTINUOUS
 10
3.333630
 20
4.929687
  0
VERTEX
  8
0
  6
CONTINUOUS
 10
3.330679
 20
4.915352
  0
VERTEX
  8
0
  6
CONTINUOUS
 10
3.328060
 20
4.900902
  0
VERTEX
  8
0
  6
CONTINUOUS
 10
3.325777
 20
4.886340
  0
VERTEX
  8
0
  6
CONTINUOUS
 10
3.323834
 20
4.871673
  0
VERTEX
  8
0
  6
CONTINUOUS
 10
3.322234
 20
4.856902
  0
VERTEX
  8
0
  6
CONTINUOUS
 10
3.320983
 20
4.842034
  0
VERTEX
  8
0
  6
CONTINUOUS
 10
3.320084
 20
4.827071
  0
VERTEX
  8
0
  6
CONTINUOUS
 10
3.319542
 20
4.812018
  0
VERTEX
  8
0
  6
CONTINUOUS
 10
3.319360
 20
4.796880
  0
VERTEX
  8
0
  6
CONTINUOUS
 10
3.319360
 20
4.796880
  0
VERTEX
  8
0
  6
CONTINUOUS
 10
3.319956
 20
4.796880
  0
VERTEX
  8
0
  6
CONTINUOUS
 10
3.321724
 20
4.796880
  0
VERTEX
  8
0
  6
CONTINUOUS
 10
3.324633
 20
4.796880
  0
VERTEX
  8
0
  6
CONTINUOUS
 10
3.328653
 20
4.796880
  0
VERTEX
  8
0
  6
CONTINUOUS
 10
3.333753
 20
4.796880
  0
VERTEX
  8
0
  6
CONTINUOUS
 10
3.339904
 20
4.796880
  0
VERTEX
  8
0
  6
CONTINUOUS
 10
3.347074
 20
4.796880
  0
VERTEX
  8
0
  6
CONTINUOUS
 10
3.355233
 20
4.796880
  0
VERTEX
  8
0
  6
CONTINUOUS
 10
3.364351
 20
4.796880
  0
VERTEX
  8
0
  6
CONTINUOUS
 10
3.374397
 20
4.796880
  0
VERTEX
  8
0
  6
CONTINUOUS
 10
3.385341
 20
4.796880
  0
VERTEX
  8
0
  6
CONTINUOUS
 10
3.397152
 20
4.796880
  0
VERTEX
  8
0
  6
CONTINUOUS
 10
3.409801
 20
4.796880
  0
VERTEX
  8
0
  6
CONTINUOUS
 10
3.423256
 20
4.796880
  0
VERTEX
  8
0
  6
CONTINUOUS
 10
3.437487
 20
4.796880
  0
VERTEX
  8
0
  6
CONTINUOUS
 10
3.452463
 20
4.796880
  0
VERTEX
  8
0
  6
CONTINUOUS
 10
3.468155
 20
4.796880
  0
VERTEX
  8
0
  6
CONTINUOUS
 10
3.484532
 20
4.796880
  0
VERTEX
  8
0
  6
CONTINUOUS
 10
3.501563
 20
4.796880
  0
VERTEX
  8
0
  6
CONTINUOUS
 10
3.519218
 20
4.796880
  0
VERTEX
  8
0
  6
CONTINUOUS
 10
3.537467
 20
4.796880
  0
VERTEX
  8
0
  6
CONTINUOUS
 10
3.556278
 20
4.796880
  0
VERTEX
  8
0
  6
CONTINUOUS
 10
3.575622
 20
4.796880
  0
VERTEX
  8
0
  6
CONTINUOUS
 10
3.595468
 20
4.796880
  0
VERTEX
  8
0
  6
CONTINUOUS
 10
3.615787
 20
4.796880
  0
VERTEX
  8
0
  6
CONTINUOUS
 10
3.636546
 20
4.796880
  0
VERTEX
  8
0
  6
CONTINUOUS
 10
3.657716
 20
4.796880
  0
VERTEX
  8
0
  6
CONTINUOUS
 10
3.679267
 20
4.796880
  0
VERTEX
  8
0
  6
CONTINUOUS
 10
3.701168
 20
4.796880
  0
VERTEX
  8
0
  6
CONTINUOUS
 10
3.723388
 20
4.796880
  0
VERTEX
  8
0
  6
CONTINUOUS
 10
3.745897
 20
4.796880
  0
VERTEX
  8
0
  6
CONTINUOUS
 10
3.768665
 20
4.796880
  0
VERTEX
  8
0
  6
CONTINUOUS
 10
3.791662
 20
4.796880
  0
VERTEX
  8
0
  6
CONTINUOUS
 10
3.814856
 20
4.796880
  0
VERTEX
  8
0
  6
CONTINUOUS
 10
3.838217
 20
4.796880
  0
VERTEX
  8
0
  6
CONTINUOUS
 10
3.861716
 20
4.796880
  0
VERTEX
  8
0
  6
CONTINUOUS
 10
3.885321
 20
4.796880
  0
VERTEX
  8
0
  6
CONTINUOUS
 10
3.909002
 20
4.796880
  0
VERTEX
  8
0
  6
CONTINUOUS
 10
3.932729
 20
4.796880
  0
VERTEX
  8
0
  6
CONTINUOUS
 10
3.956471
 20
4.796880
  0
VERTEX
  8
0
  6
CONTINUOUS
 10
3.980198
 20
4.796880
  0
VERTEX
  8
0
  6
CONTINUOUS
 10
4.003879
 20
4.796880
  0
VERTEX
  8
0
  6
CONTINUOUS
 10
4.027484
 20
4.796880
  0
VERTEX
  8
0
  6
CONTINUOUS
 10
4.050983
 20
4.796880
  0
VERTEX
  8
0
  6
CONTINUOUS
 10
4.074344
 20
4.796880
  0
VERTEX
  8
0
  6
CONTINUOUS
 10
4.097538
 20
4.796880
  0
VERTEX
  8
0
  6
CONTINUOUS
 10
4.120535
 20
4.796880
  0
VERTEX
  8
0
  6
CONTINUOUS
 10
4.143303
 20
4.796880
  0
VERTEX
  8
0
  6
CONTINUOUS
 10
4.165812
 20
4.796880
  0
VERTEX
  8
0
  6
CONTINUOUS
 10
4.188032
 20
4.796880
  0
VERTEX
  8
0
  6
CONTINUOUS
 10
4.209933
 20
4.796880
  0
VERTEX
  8
0
  6
CONTINUOUS
 10
4.231484
 20
4.796880
  0
VERTEX
  8
0
  6
CONTINUOUS
 10
4.252654
 20
4.796880
  0
VERTEX
  8
0
  6
CONTINUOUS
 10
4.273413
 20
4.796880
  0
VERTEX
  8
0
  6
CONTINUOUS
 10
4.293732
 20
4.796880
  0
VERTEX
  8
0
  6
CONTINUOUS
 10
4.313578
 20
4.796880
  0
VERTEX
  8
0
  6
CONTINUOUS
 10
4.332922
 20
4.796880
  0
VERTEX
  8
0
  6
CONTINUOUS
 10
4.351733
 20
4.796880
  0
VERTEX
  8
0
  6
CONTINUOUS
 10
4.369982
 20
4.796880
  0
VERTEX
  8
0
  6
CONTINUOUS
 10
4.387637
 20
4.796880
  0
VERTEX
  8
0
  6
CONTINUOUS
 10
4.404668
 20
4.796880
  0
VERTEX
  8
0
  6
CONTINUOUS
 10
4.421045
 20
4.796880
  0
VERTEX
  8
0
  6
CONTINUOUS
 10
4.436737
 20
4.796880
  0
VERTEX
  8
0
  6
CONTINUOUS
 10
4.451713
 20
4.796880
  0
VERTEX
  8
0
  6
CONTINUOUS
 10
4.465944
 20
4.796880
  0
VERTEX
  8
0
  6
CONTINUOUS
 10
4.479399
 20
4.796880
  0
VERTEX
  8
0
  6
CONTINUOUS
 10
4.492048
 20
4.796880
  0
VERTEX
  8
0
  6
CONTINUOUS
 10
4.503859
 20
4.796880
  0
VERTEX
  8
0
  6
CONTINUOUS
 10
4.514803
 20
4.796880
  0
VERTEX
  8
0
  6
CONTINUOUS
 10
4.524849
 20
4.796880
  0
VERTEX
  8
0
  6
CONTINUOUS
 10
4.533967
 20
4.796880
  0
VERTEX
  8
0
  6
CONTINUOUS
 10
4.542126
 20
4.796880
  0
VERTEX
  8
0
  6
CONTINUOUS
 10
4.549296
 20
4.796880
  0
VERTEX
  8
0
  6
CONTINUOUS
 10
4.555447
 20
4.796880
  0
VERTEX
  8
0
  6
CONTINUOUS
 10
4.560547
 20
4.796880
  0
VERTEX
  8
0
  6
CONTINUOUS
 10
4.564567
 20
4.796880
  0
VERTEX
  8
0
  6
CONTINUOUS
 10
4.567476
 20
4.796880
  0
VERTEX
  8
0
  6
CONTINUOUS
 10
4.569244
 20
4.796880
  0
VERTEX
  8
0
  6
CONTINUOUS
 10
4.569840
 20
4.796880
  0
SEQEND
  8
0
  0
SOLID
  8
0
 62
    15
 10
3.691600
 20
3.974960
 11
4.330480
 21
4.348080
 12
3.743080
 22
3.943720
 13
4.381960
 23
4.316400
  0
POLYLINE
  8
0
  6
CONTINUOUS
 66
     1
 40
0.000000
 41
0.000000
  0
VERTEX
  8
0
  6
CONTINUOUS
 10
3.691600
 20
3.974960
  0
VERTEX
  8
0
  6
CONTINUOUS
 10
4.330480
 20
4.348080
  0
VERTEX
  8
0
  6
CONTINUOUS
 10
4.381960
 20
4.316400
  0
VERTEX
  8
0
  6
CONTINUOUS
 10
3.743080
 20
3.943720
  0
VERTEX
  8
0
  6
CONTINUOUS
 10
3.691600
 20
3.974960
  0
SEQEND
  8
0
  0
SOLID
  8
0
 62
    15
 10
3.096720
 20
3.974960
 11
3.735600
 21
4.348080
 12
3.151280
 22
4.001360
 13
3.790160
 23
4.374480
  0
POLYLINE
  8
0
  6
CONTINUOUS
 66
     1
 40
0.000000
 41
0.000000
  0
VERTEX
  8
0
  6
CONTINUOUS
 10
3.096720
 20
3.974960
  0
VERTEX
  8
0
  6
CONTINUOUS
 10
3.735600
 20
4.348080
  0
VERTEX
  8
0
  6
CONTINUOUS
 10
3.790160
 20
4.374480
  0
VERTEX
  8
0
  6
CONTINUOUS
 10
3.151280
 20
4.001360
  0
VERTEX
  8
0
  6
CONTINUOUS
 10
3.096720
 20
3.974960
  0
SEQEND
  8
0
  0
SOLID
  8
0
 62
    15
 10
3.151280
 20
4.001360
 11
3.790160
 21
4.374480
 12
3.208480
 22
4.022480
 13
3.847360
 23
4.395600
  0
POLYLINE
  8
0
  6
CONTINUOUS
 66
     1
 40
0.000000
 41
0.000000
  0
VERTEX
  8
0
  6
CONTINUOUS
 10
3.151280
 20
4.001360
  0
VERTEX
  8
0
  6
CONTINUOUS
 10
3.790160
 20
4.374480
  0
VERTEX
  8
0
  6
CONTINUOUS
 10
3.847360
 20
4.395600
  0
VERTEX
  8
0
  6
CONTINUOUS
 10
3.208480
 20
4.022480
  0
VERTEX
  8
0
  6
CONTINUOUS
 10
3.151280
 20
4.001360
  0
SEQEND
  8
0
  0
SOLID
  8
0
 62
    15
 10
3.208480
 20
4.022480
 11
3.847360
 21
4.395600
 12
3.268320
 22
4.037880
 13
3.907200
 23
4.411000
  0
POLYLINE
  8
0
  6
CONTINUOUS
 66
     1
 40
0.000000
 41
0.000000
  0
VERTEX
  8
0
  6
CONTINUOUS
 10
3.208480
 20
4.022480
  0
VERTEX
  8
0
  6
CONTINUOUS
 10
3.847360
 20
4.395600
  0
VERTEX
  8
0
  6
CONTINUOUS
 10
3.907200
 20
4.411000
  0
VERTEX
  8
0
  6
CONTINUOUS
 10
3.268320
 20
4.037880
  0
VERTEX
  8
0
  6
CONTINUOUS
 10
3.208480
 20
4.022480
  0
SEQEND
  8
0
  0
SOLID
  8
0
 62
    15
 10
3.268320
 20
4.037880
 11
3.907200
 21
4.411000
 12
3.330360
 22
4.047560
 13
3.969240
 23
4.420680
  0
POLYLINE
  8
0
  6
CONTINUOUS
 66
     1
 40
0.000000
 41
0.000000
  0
VERTEX
  8
0
  6
CONTINUOUS
 10
3.268320
 20
4.037880
  0
VERTEX
  8
0
  6
CONTINUOUS
 10
3.907200
 20
4.411000
  0
VERTEX
  8
0
  6
CONTINUOUS
 10
3.969240
 20
4.420680
  0
VERTEX
  8
0
  6
CONTINUOUS
 10
3.330360
 20
4.047560
  0
VERTEX
  8
0
  6
CONTINUOUS
 10
3.268320
 20
4.037880
  0
SEQEND
  8
0
  0
SOLID
  8
0
 62
    15
 10
3.330360
 20
4.047560
 11
3.969240
 21
4.420680
 12
3.394160
 22
4.050640
 13
4.033040
 23
4.423760
  0
POLYLINE
  8
0
  6
CONTINUOUS
 66
     1
 40
0.000000
 41
0.000000
  0
VERTEX
  8
0
  6
CONTINUOUS
 10
3.330360
 20
4.047560
  0
VERTEX
  8
0
  6
CONTINUOUS
 10
3.969240
 20
4.420680
  0
VERTEX
  8
0
  6
CONTINUOUS
 10
4.033040
 20
4.423760
  0
VERTEX
  8
0
  6
CONTINUOUS
 10
3.394160
 20
4.050640
  0
VERTEX
  8
0
  6
CONTINUOUS
 10
3.330360
 20
4.047560
  0
SEQEND
  8
0
  0
SOLID
  8
0
 62
    15
 10
3.394160
 20
4.050640
 11
4.033040
 21
4.423760
 12
3.457960
 22
4.047560
 13
4.096400
 23
4.420680
  0
POLYLINE
  8
0
  6
CONTINUOUS
 66
     1
 40
0.000000
 41
0.000000
  0
VERTEX
  8
0
  6
CONTINUOUS
 10
3.394160
 20
4.050640
  0
VERTEX
  8
0
  6
CONTINUOUS
 10
4.033040
 20
4.423760
  0
VERTEX
  8
0
  6
CONTINUOUS
 10
4.096400
 20
4.420680
  0
VERTEX
  8
0
  6
CONTINUOUS
 10
3.457960
 20
4.047560
  0
VERTEX
  8
0
  6
CONTINUOUS
 10
3.394160
 20
4.050640
  0
SEQEND
  8
0
  0
SOLID
  8
0
 62
    15
 10
3.457960
 20
4.047560
 11
4.096400
 21
4.420680
 12
3.519560
 22
4.037880
 13
4.158440
 23
4.411000
  0
POLYLINE
  8
0
  6
CONTINUOUS
 66
     1
 40
0.000000
 41
0.000000
  0
VERTEX
  8
0
  6
CONTINUOUS
 10
3.457960
 20
4.047560
  0
VERTEX
  8
0
  6
CONTINUOUS
 10
4.096400
 20
4.420680
  0
VERTEX
  8
0
  6
CONTINUOUS
 10
4.158440
 20
4.411000
  0
VERTEX
  8
0
  6
CONTINUOUS
 10
3.519560
 20
4.037880
  0
VERTEX
  8
0
  6
CONTINUOUS
 10
3.457960
 20
4.047560
  0
SEQEND
  8
0
  0
SOLID
  8
0
 62
    15
 10
3.519560
 20
4.037880
 11
4.158440
 21
4.411000
 12
3.579400
 22
4.022480
 13
4.218280
 23
4.395600
  0
POLYLINE
  8
0
  6
CONTINUOUS
 66
     1
 40
0.000000
 41
0.000000
  0
VERTEX
  8
0
  6
CONTINUOUS
 10
3.519560
 20
4.037880
  0
VERTEX
  8
0
  6
CONTINUOUS
 10
4.158440
 20
4.411000
  0
VERTEX
  8
0
  6
CONTINUOUS
 10
4.218280
 20
4.395600
  0
VERTEX
  8
0
  6
CONTINUOUS
 10
3.579400
 20
4.022480
  0
VERTEX
  8
0
  6
CONTINUOUS
 10
3.519560
 20
4.037880
  0
SEQEND
  8
0
  0
SOLID
  8
0
 62
    15
 10
3.579400
 20
4.022480
 11
4.218280
 21
4.395600
 12
3.637040
 22
4.001360
 13
4.275920
 23
4.374480
  0
POLYLINE
  8
0
  6
CONTINUOUS
 66
     1
 40
0.000000
 41
0.000000
  0
VERTEX
  8
0
  6
CONTINUOUS
 10
3.579400
 20
4.022480
  0
VERTEX
  8
0
  6
CONTINUOUS
 10
4.218280
 20
4.395600
  0
VERTEX
  8
0
  6
CONTINUOUS
 10
4.275920
 20
4.374480
  0
VERTEX
  8
0
  6
CONTINUOUS
 10
3.637040
 20
4.001360
  0
VERTEX
  8
0
  6
CONTINUOUS
 10
3.579400
 20
4.022480
  0
SEQEND
  8
0
  0
SOLID
  8
0
 62
    15
 10
3.637040
 20
4.001360
 11
4.275920
 21
4.374480
 12
3.691600
 22
3.974960
 13
4.330480
 23
4.348080
  0
POLYLINE
  8
0
  6
CONTINUOUS
 66
     1
 40
0.000000
 41
0.000000
  0
VERTEX
  8
0
  6
CONTINUOUS
 10
3.637040
 20
4.001360
  0
VERTEX
  8
0
  6
CONTINUOUS
 10
4.275920
 20
4.374480
  0
VERTEX
  8
0
  6
CONTINUOUS
 10
4.330480
 20
4.348080
  0
VERTEX
  8
0
  6
CONTINUOUS
 10
3.691600
 20
3.974960
  0
VERTEX
  8
0
  6
CONTINUOUS
 10
3.637040
 20
4.001360
  0
SEQEND
  8
0
  0
SOLID
  8
0
 62
    15
 10
2.768920
 20
3.422760
 11
3.407800
 21
3.795880
 12
4.019400
 22
3.422760
 13
4.658280
 23
3.795880
  0
POLYLINE
  8
0
  6
CONTINUOUS
 66
     1
 40
0.000000
 41
0.000000
  0
VERTEX
  8
0
  6
CONTINUOUS
 10
2.768920
 20
3.422760
  0
VERTEX
  8
0
  6
CONTINUOUS
 10
3.407800
 20
3.795880
  0
VERTEX
  8
0
  6
CONTINUOUS
 10
4.658280
 20
3.795880
  0
VERTEX
  8
0
  6
CONTINUOUS
 10
4.019400
 20
3.422760
  0
VERTEX
  8
0
  6
CONTINUOUS
 10
2.768920
 20
3.422760
  0
SEQEND
  8
0
  0
SOLID
  8
0
 62
    15
 10
3.743080
 20
3.943720
 11
4.381960
 21
4.316400
 12
3.791480
 22
3.907640
 13
4.429920
 23
4.280320
  0
POLYLINE
  8
0
  6
CONTINUOUS
 66
     1
 40
0.000000
 41
0.000000
  0
VERTEX
  8
0
  6
CONTINUOUS
 10
3.743080
 20
3.943720
  0
VERTEX
  8
0
  6
CONTINUOUS
 10
4.381960
 20
4.316400
  0
VERTEX
  8
0
  6
CONTINUOUS
 10
4.429920
 20
4.280320
  0
VERTEX
  8
0
  6
CONTINUOUS
 10
3.791480
 20
3.907640
  0
VERTEX
  8
0
  6
CONTINUOUS
 10
3.743080
 20
3.943720
  0
SEQEND
  8
0
  0
SOLID
  8
0
 62
    15
 10
3.791480
 20
3.907640
 11
4.429920
 21
4.280320
 12
3.835920
 22
3.867160
 13
4.474360
 23
4.240280
  0
POLYLINE
  8
0
  6
CONTINUOUS
 66
     1
 40
0.000000
 41
0.000000
  0
VERTEX
  8
0
  6
CONTINUOUS
 10
3.791480
 20
3.907640
  0
VERTEX
  8
0
  6
CONTINUOUS
 10
4.429920
 20
4.280320
  0
VERTEX
  8
0
  6
CONTINUOUS
 10
4.474360
 20
4.240280
  0
VERTEX
  8
0
  6
CONTINUOUS
 10
3.835920
 20
3.867160
  0
VERTEX
  8
0
  6
CONTINUOUS
 10
3.791480
 20
3.907640
  0
SEQEND
  8
0
  0
SOLID
  8
0
 62
    15
 10
3.835920
 20
3.867160
 11
4.474360
 21
4.240280
 12
3.876400
 22
3.822720
 13
4.514840
 23
4.195840
  0
POLYLINE
  8
0
  6
CONTINUOUS
 66
     1
 40
0.000000
 41
0.000000
  0
VERTEX
  8
0
  6
CONTINUOUS
 10
3.835920
 20
3.867160
  0
VERTEX
  8
0
  6
CONTINUOUS
 10
4.474360
 20
4.240280
  0
VERTEX
  8
0
  6
CONTINUOUS
 10
4.514840
 20
4.195840
  0
VERTEX
  8
0
  6
CONTINUOUS
 10
3.876400
 20
3.822720
  0
VERTEX
  8
0
  6
CONTINUOUS
 10
3.835920
 20
3.867160
  0
SEQEND
  8
0
  0
SOLID
  8
0
 62
    15
 10
3.876400
 20
3.822720
 11
4.514840
 21
4.195840
 12
3.912480
 22
3.774320
 13
4.550920
 23
4.147440
  0
POLYLINE
  8
0
  6
CONTINUOUS
 66
     1
 40
0.000000
 41
0.000000
  0
VERTEX
  8
0
  6
CONTINUOUS
 10
3.876400
 20
3.822720
  0
VERTEX
  8
0
  6
CONTINUOUS
 10
4.514840
 20
4.195840
  0
VERTEX
  8
0
  6
CONTINUOUS
 10
4.550920
 20
4.147440
  0
VERTEX
  8
0
  6
CONTINUOUS
 10
3.912480
 20
3.774320
  0
VERTEX
  8
0
  6
CONTINUOUS
 10
3.876400
 20
3.822720
  0
SEQEND
  8
0
  0
SOLID
  8
0
 62
    15
 10
3.912480
 20
3.774320
 11
4.550920
 21
4.147440
 12
3.943720
 22
3.722840
 13
4.582600
 23
4.095960
  0
POLYLINE
  8
0
  6
CONTINUOUS
 66
     1
 40
0.000000
 41
0.000000
  0
VERTEX
  8
0
  6
CONTINUOUS
 10
3.912480
 20
3.774320
  0
VERTEX
  8
0
  6
CONTINUOUS
 10
4.550920
 20
4.147440
  0
VERTEX
  8
0
  6
CONTINUOUS
 10
4.582600
 20
4.095960
  0
VERTEX
  8
0
  6
CONTINUOUS
 10
3.943720
 20
3.722840
  0
VERTEX
  8
0
  6
CONTINUOUS
 10
3.912480
 20
3.774320
  0
SEQEND
  8
0
  0
SOLID
  8
0
 62
    15
 10
3.943720
 20
3.722840
 11
4.582600
 21
4.095960
 12
3.970120
 22
3.668280
 13
4.609000
 23
4.041400
  0
POLYLINE
  8
0
  6
CONTINUOUS
 66
     1
 40
0.000000
 41
0.000000
  0
VERTEX
  8
0
  6
CONTINUOUS
 10
3.943720
 20
3.722840
  0
VERTEX
  8
0
  6
CONTINUOUS
 10
4.582600
 20
4.095960
  0
VERTEX
  8
0
  6
CONTINUOUS
 10
4.609000
 20
4.041400
  0
VERTEX
  8
0
  6
CONTINUOUS
 10
3.970120
 20
3.668280
  0
VERTEX
  8
0
  6
CONTINUOUS
 10
3.943720
 20
3.722840
  0
SEQEND
  8
0
  0
SOLID
  8
0
 62
    15
 10
3.970120
 20
3.668280
 11
4.609000
 21
4.041400
 12
3.991240
 22
3.611080
 13
4.630120
 23
3.983760
  0
POLYLINE
  8
0
  6
CONTINUOUS
 66
     1
 40
0.000000
 41
0.000000
  0
VERTEX
  8
0
  6
CONTINUOUS
 10
3.970120
 20
3.668280
  0
VERTEX
  8
0
  6
CONTINUOUS
 10
4.609000
 20
4.041400
  0
VERTEX
  8
0
  6
CONTINUOUS
 10
4.630120
 20
3.983760
  0
VERTEX
  8
0
  6
CONTINUOUS
 10
3.991240
 20
3.611080
  0
VERTEX
  8
0
  6
CONTINUOUS
 10
3.970120
 20
3.668280
  0
SEQEND
  8
0
  0
SOLID
  8
0
 62
    15
 10
3.991240
 20
3.611080
 11
4.630120
 21
3.983760
 12
4.006640
 22
3.551240
 13
4.645520
 23
3.923920
  0
POLYLINE
  8
0
  6
CONTINUOUS
 66
     1
 40
0.000000
 41
0.000000
  0
VERTEX
  8
0
  6
CONTINUOUS
 10
3.991240
 20
3.611080
  0
VERTEX
  8
0
  6
CONTINUOUS
 10
4.630120
 20
3.983760
  0
VERTEX
  8
0
  6
CONTINUOUS
 10
4.645520
 20
3.923920
  0
VERTEX
  8
0
  6
CONTINUOUS
 10
4.006640
 20
3.551240
  0
VERTEX
  8
0
  6
CONTINUOUS
 10
3.991240
 20
3.611080
  0
SEQEND
  8
0
  0
SOLID
  8
0
 62
    15
 10
4.006640
 20
3.551240
 11
4.645520
 21
3.923920
 12
4.016320
 22
3.489200
 13
4.655200
 23
3.862320
  0
POLYLINE
  8
0
  6
CONTINUOUS
 66
     1
 40
0.000000
 41
0.000000
  0
VERTEX
  8
0
  6
CONTINUOUS
 10
4.006640
 20
3.551240
  0
VERTEX
  8
0
  6
CONTINUOUS
 10
4.645520
 20
3.923920
  0
VERTEX
  8
0
  6
CONTINUOUS
 10
4.655200
 20
3.862320
  0
VERTEX
  8
0
  6
CONTINUOUS
 10
4.016320
 20
3.489200
  0
VERTEX
  8
0
  6
CONTINUOUS
 10
4.006640
 20
3.551240
  0
SEQEND
  8
0
  0
SOLID
  8
0
 62
    15
 10
4.016320
 20
3.489200
 11
4.655200
 21
3.862320
 12
4.019400
 22
3.425400
 13
4.658280
 23
3.798520
  0
POLYLINE
  8
0
  6
CONTINUOUS
 66
     1
 40
0.000000
 41
0.000000
  0
VERTEX
  8
0
  6
CONTINUOUS
 10
4.016320
 20
3.489200
  0
VERTEX
  8
0
  6
CONTINUOUS
 10
4.655200
 20
3.862320
  0
VERTEX
  8
0
  6
CONTINUOUS
 10
4.658280
 20
3.798520
  0
VERTEX
  8
0
  6
CONTINUOUS
 10
4.019400
 20
3.425400
  0
VERTEX
  8
0
  6
CONTINUOUS
 10
4.016320
 20
3.489200
  0
SEQEND
  8
0
  0
POLYLINE
  8
0
  6
CONTINUOUS
 66
     1
 40
0.000000
 41
0.000000
  0
VERTEX
  8
0
  6
CONTINUOUS
 10
2.768920
 20
3.425400
  0
VERTEX
  8
0
  6
CONTINUOUS
 10
2.772000
 20
3.489200
  0
VERTEX
  8
0
  6
CONTINUOUS
 10
2.781680
 20
3.551240
  0
VERTEX
  8
0
  6
CONTINUOUS
 10
2.797080
 20
3.611080
  0
VERTEX
  8
0
  6
CONTINUOUS
 10
2.818200
 20
3.668280
  0
VERTEX
  8
0
  6
CONTINUOUS
 10
2.844600
 20
3.722840
  0
VERTEX
  8
0
  6
CONTINUOUS
 10
2.875840
 20
3.774320
  0
VERTEX
  8
0
  6
CONTINUOUS
 10
2.911920
 20
3.822720
  0
VERTEX
  8
0
  6
CONTINUOUS
 10
2.952400
 20
3.867160
  0
VERTEX
  8
0
  6
CONTINUOUS
 10
2.996840
 20
3.907640
  0
VERTEX
  8
0
  6
CONTINUOUS
 10
3.045240
 20
3.943720
  0
VERTEX
  8
0
  6
CONTINUOUS
 10
3.096720
 20
3.974960
  0
VERTEX
  8
0
  6
CONTINUOUS
 10
3.151280
 20
4.001360
  0
VERTEX
  8
0
  6
CONTINUOUS
 10
3.208480
 20
4.022480
  0
VERTEX
  8
0
  6
CONTINUOUS
 10
3.268320
 20
4.037880
  0
VERTEX
  8
0
  6
CONTINUOUS
 10
3.330360
 20
4.047560
  0
VERTEX
  8
0
  6
CONTINUOUS
 10
3.394160
 20
4.050640
  0
VERTEX
  8
0
  6
CONTINUOUS
 10
3.457960
 20
4.047560
  0
VERTEX
  8
0
  6
CONTINUOUS
 10
3.519560
 20
4.037880
  0
VERTEX
  8
0
  6
CONTINUOUS
 10
3.579400
 20
4.022480
  0
VERTEX
  8
0
  6
CONTINUOUS
 10
3.637040
 20
4.001360
  0
VERTEX
  8
0
  6
CONTINUOUS
 10
3.691600
 20
3.974960
  0
VERTEX
  8
0
  6
CONTINUOUS
 10
3.743080
 20
3.943720
  0
VERTEX
  8
0
  6
CONTINUOUS
 10
3.791480
 20
3.907640
  0
VERTEX
  8
0
  6
CONTINUOUS
 10
3.835920
 20
3.867160
  0
VERTEX
  8
0
  6
CONTINUOUS
 10
3.876400
 20
3.822720
  0
VERTEX
  8
0
  6
CONTINUOUS
 10
3.912480
 20
3.774320
  0
VERTEX
  8
0
  6
CONTINUOUS
 10
3.943720
 20
3.722840
  0
VERTEX
  8
0
  6
CONTINUOUS
 10
3.970120
 20
3.668280
  0
VERTEX
  8
0
  6
CONTINUOUS
 10
3.991240
 20
3.611080
  0
VERTEX
  8
0
  6
CONTINUOUS
 10
4.006640
 20
3.551240
  0
VERTEX
  8
0
  6
CONTINUOUS
 10
4.016320
 20
3.489200
  0
VERTEX
  8
0
  6
CONTINUOUS
 10
4.019400
 20
3.425400
  0
VERTEX
  8
0
  6
CONTINUOUS
 10
2.768920
 20
3.425400
  0
SEQEND
  8
0
  0
TEXT
  8
0
 10
3.465000
 20
3.201440
 40
0.138098
  1
BA  59
 41
1.000000
  7
SN0
 71
     0
 72
     5
 11
3.962516
 21
3.201440
  0
TEXT
  8
0
 10
3.495360
 20
3.010040
 40
0.138098
  1
1-1/4"
 41
1.000000
  7
SN0
 71
     0
 72
     5
 11
3.931780
 21
3.010040
  0
ENDSEC
  0
EOF
