  0
SECTION
  2
HEADER
  9
$ACADVER
  1
AC1006
  9
$EXTMIN
 10
2.722280
 20
2.995520
  9
$EXTMAX
 10
5.826480
 20
7.579880
  9
$LTSCALE
 40
0.044000
  9
$PDMODE
 70
    35
  9
$PDSIZE
 40
0.035200
  0
ENDSEC
  0
SECTION
  2
TABLES
  0
TABLE
  2
LTYPE
 70
     9
  0
LTYPE
  2
CONTINUOUS
 70
    64
  3
Solid line
 72
    65
 73
     0
 40
0.000000
  0
LTYPE
  2
DASHED
 70
    64
  3
__ __ __ __ __ __ __ __ __ __ __ __ __ __ __
 72
    65
 73
     2
 40
0.000330
 49
0.000220
 49
-0.000110
  0
LTYPE
  2
HIDDEN
 70
    64
  3
 _ _ _ _ _ _ _ _ _ _ _ _ _ _ _ _ _ _ _ _ _ _
 72
    65
 73
     2
 40
0.000165
 49
0.000110
 49
-0.000055
  0
LTYPE
  2
CENTER
 70
    64
  3
____ _ ____ _ ____ _ ____ _ ____ _ ____ _ ____
 72
    65
 73
     4
 40
0.000880
 49
0.000550
 49
-0.000110
 49
0.000110
 49
-0.000110
  0
LTYPE
  2
PHANTOM
 70
    64
  3
_____ _ _ _____ _ _ _____ _ _ _____ _ _ ____
 72
    65
 73
     6
 40
0.001100
 49
0.000550
 49
-0.000110
 49
0.000110
 49
-0.000110
 49
0.000110
 49
-0.000110
  0
LTYPE
  2
DOT
 70
    64
  3
...............................................
 72
    65
 73
     2
 40
0.000110
 49
0.000000
 49
-0.000110
  0
LTYPE
  2
DASHDOT
 70
    64
  3
__ . __ . __ . __ . __ . __ . __ . __ . __ . __
 72
    65
 73
     4
 40
0.000440
 49
0.000220
 49
-0.000110
 49
0.000000
 49
-0.000110
  0
LTYPE
  2
BORDER
 70
    64
  3
__ __ . __ __ . __ __ . __ __ . __ __ . __ __
 72
    65
 73
     6
 40
0.000770
 49
0.000220
 49
-0.000110
 49
0.000220
 49
-0.000110
 49
0.000000
 49
-0.000110
  0
LTYPE
  2
DIVIDE
 70
    64
  3
__ . . __ . . __ . . __ . . __ . . __ . . __
 72
    65
 73
     6
 40
0.000550
 49
0.000220
 49
-0.000110
 49
0.000000
 49
-0.000110
 49
0.000000
 49
-0.000110
  0
LTYPE
  2
DOTDOT
 70
    64
  3
 . .  . .  . .  . .  . .  . . 
 72
    65
 73
     5
 40
0.000242
 49
-0.000110
 49
0.000000
 49
-0.000110
 49
0.000000
 49
-0.000110
  0
ENDTAB
  0
TABLE
  2
STYLE
 70
     2
  0
STYLE
 70
     0
  2
SN0
 40
0.000000
 41
0.000440
 50
0.000000
 71
     0
 42
0.000000
  3
ROMAND
  0
STYLE
 70
    68
  2
SV0
 40
0.000000
 41
0.000440
 50
0.000000
 71
     0
 42
0.000000
  3
ROMAND
  0
ENDTAB
  0
TABLE
  2
LAYER
 70
     3
  0
LAYER
  2
FOREGROUND
 70
    64
 62
     7
  6
CONTINUOUS
  0
LAYER
  2
BACKGROUND
 70
    65
 62
    -7
  6
CONTINUOUS
  0
LAYER
  2
0
 70
    64
 62
     7
  6
CONTINUOUS
  0
ENDTAB
  0
ENDSEC
  0
SECTION
  2
ENTITIES
  0
POLYLINE
  8
FOREGROUND
  6
CONTINUOUS
 66
     1
 40
0.000000
 41
0.000000
  0
VERTEX
  8
FOREGROUND
  6
CONTINUOUS
 10
0.000000
 20
10.575400
  0
VERTEX
  8
FOREGROUND
  6
CONTINUOUS
 10
8.499920
 20
10.575400
  0
VERTEX
  8
FOREGROUND
  6
CONTINUOUS
 10
8.499920
 20
-0.424600
  0
VERTEX
  8
FOREGROUND
  6
CONTINUOUS
 10
0.000000
 20
-0.424600
  0
VERTEX
  8
FOREGROUND
  6
CONTINUOUS
 10
0.000000
 20
10.575400
  0
SEQEND
  8
0
  0
POLYLINE
  8
FOREGROUND
  6
CONTINUOUS
 66
     1
 40
0.000000
 41
0.000000
  0
VERTEX
  8
FOREGROUND
  6
CONTINUOUS
 10
0.000000
 20
10.575400
  0
VERTEX
  8
FOREGROUND
  6
CONTINUOUS
 10
8.499920
 20
10.575400
  0
VERTEX
  8
FOREGROUND
  6
CONTINUOUS
 10
8.499920
 20
-0.424600
  0
VERTEX
  8
FOREGROUND
  6
CONTINUOUS
 10
0.000000
 20
-0.424600
  0
VERTEX
  8
FOREGROUND
  6
CONTINUOUS
 10
0.000000
 20
10.575400
  0
SEQEND
  8
0
  0
POLYLINE
  8
0
  6
CONTINUOUS
 66
     1
 40
0.014080
 41
0.014080
  0
VERTEX
  8
0
  6
CONTINUOUS
 10
4.600640
 20
5.815040
  0
VERTEX
  8
0
  6
CONTINUOUS
 10
3.336520
 20
5.815040
  0
VERTEX
  8
0
  6
CONTINUOUS
 10
3.336960
 20
6.615840
  0
VERTEX
  8
0
  6
CONTINUOUS
 10
3.339160
 20
6.672160
  0
VERTEX
  8
0
  6
CONTINUOUS
 10
3.347080
 20
6.754000
  0
VERTEX
  8
0
  6
CONTINUOUS
 10
3.360280
 20
6.832320
  0
VERTEX
  8
0
  6
CONTINUOUS
 10
3.372160
 20
6.882920
  0
VERTEX
  8
0
  6
CONTINUOUS
 10
3.394600
 20
6.955520
  0
VERTEX
  8
0
  6
CONTINUOUS
 10
3.422320
 20
7.024600
  0
VERTEX
  8
0
  6
CONTINUOUS
 10
3.443880
 20
7.068600
  0
VERTEX
  8
0
  6
CONTINUOUS
 10
3.480840
 20
7.131080
  0
VERTEX
  8
0
  6
CONTINUOUS
 10
3.523520
 20
7.190480
  0
VERTEX
  8
0
  6
CONTINUOUS
 10
3.571480
 20
7.245480
  0
VERTEX
  8
0
  6
CONTINUOUS
 10
3.606680
 20
7.280240
  0
VERTEX
  8
0
  6
CONTINUOUS
 10
3.664320
 20
7.328640
  0
VERTEX
  8
0
  6
CONTINUOUS
 10
3.727240
 20
7.372640
  0
VERTEX
  8
0
  6
CONTINUOUS
 10
3.796320
 20
7.413120
  0
VERTEX
  8
0
  6
CONTINUOUS
 10
3.871120
 20
7.448760
  0
VERTEX
  8
0
  6
CONTINUOUS
 10
3.951640
 20
7.480440
  0
VERTEX
  8
0
  6
CONTINUOUS
 10
4.037880
 20
7.507280
  0
VERTEX
  8
0
  6
CONTINUOUS
 10
4.130280
 20
7.529720
  0
VERTEX
  8
0
  6
CONTINUOUS
 10
4.228400
 20
7.547760
  0
VERTEX
  8
0
  6
CONTINUOUS
 10
4.297480
 20
7.557000
  0
VERTEX
  8
0
  6
CONTINUOUS
 10
4.405720
 20
7.566680
  0
VERTEX
  8
0
  6
CONTINUOUS
 10
4.519680
 20
7.571960
  0
VERTEX
  8
0
  6
CONTINUOUS
 10
4.599320
 20
7.572400
  0
VERTEX
  8
0
  6
CONTINUOUS
 10
4.536400
 20
7.572400
  0
VERTEX
  8
0
  6
CONTINUOUS
 10
4.616040
 20
7.571960
  0
VERTEX
  8
0
  6
CONTINUOUS
 10
4.730000
 20
7.566680
  0
VERTEX
  8
0
  6
CONTINUOUS
 10
4.838240
 20
7.557000
  0
VERTEX
  8
0
  6
CONTINUOUS
 10
4.907320
 20
7.547760
  0
VERTEX
  8
0
  6
CONTINUOUS
 10
5.005440
 20
7.529720
  0
VERTEX
  8
0
  6
CONTINUOUS
 10
5.097840
 20
7.507280
  0
VERTEX
  8
0
  6
CONTINUOUS
 10
5.184080
 20
7.480440
  0
VERTEX
  8
0
  6
CONTINUOUS
 10
5.264600
 20
7.448760
  0
VERTEX
  8
0
  6
CONTINUOUS
 10
5.339400
 20
7.413120
  0
VERTEX
  8
0
  6
CONTINUOUS
 10
5.408480
 20
7.372640
  0
VERTEX
  8
0
  6
CONTINUOUS
 10
5.471400
 20
7.328640
  0
VERTEX
  8
0
  6
CONTINUOUS
 10
5.529040
 20
7.280240
  0
VERTEX
  8
0
  6
CONTINUOUS
 10
5.580960
 20
7.227440
  0
VERTEX
  8
0
  6
CONTINUOUS
 10
5.627160
 20
7.171120
  0
VERTEX
  8
0
  6
CONTINUOUS
 10
5.667640
 20
7.110840
  0
VERTEX
  8
0
  6
CONTINUOUS
 10
5.691840
 20
7.068600
  0
VERTEX
  8
0
  6
CONTINUOUS
 10
5.713400
 20
7.024600
  0
VERTEX
  8
0
  6
CONTINUOUS
 10
5.741120
 20
6.955520
  0
VERTEX
  8
0
  6
CONTINUOUS
 10
5.763560
 20
6.882920
  0
VERTEX
  8
0
  6
CONTINUOUS
 10
5.780280
 20
6.806800
  0
VERTEX
  8
0
  6
CONTINUOUS
 10
5.788640
 20
6.754000
  0
VERTEX
  8
0
  6
CONTINUOUS
 10
5.796560
 20
6.672160
  0
VERTEX
  8
0
  6
CONTINUOUS
 10
5.799200
 20
6.584160
  0
VERTEX
  8
0
  6
CONTINUOUS
 10
5.799200
 20
5.815040
  0
VERTEX
  8
0
  6
CONTINUOUS
 10
4.535080
 20
5.815040
  0
VERTEX
  8
0
  6
CONTINUOUS
 10
4.600640
 20
5.815040
  0
SEQEND
  8
0
  0
SOLID
  8
0
 62
    15
 10
4.598000
 20
5.107080
 11
5.238640
 21
5.481080
 12
4.701400
 22
5.062200
 13
5.342040
 23
5.436200
  0
POLYLINE
  8
0
  6
CONTINUOUS
 66
     1
 40
0.000000
 41
0.000000
  0
VERTEX
  8
0
  6
CONTINUOUS
 10
4.598000
 20
5.107080
  0
VERTEX
  8
0
  6
CONTINUOUS
 10
5.238640
 20
5.481080
  0
VERTEX
  8
0
  6
CONTINUOUS
 10
5.342040
 20
5.436200
  0
VERTEX
  8
0
  6
CONTINUOUS
 10
4.701400
 20
5.062200
  0
VERTEX
  8
0
  6
CONTINUOUS
 10
4.598000
 20
5.107080
  0
SEQEND
  8
0
  0
SOLID
  8
0
 62
    15
 10
3.113880
 20
5.009840
 11
3.754520
 21
5.383400
 12
3.206720
 22
5.062200
 13
3.847800
 23
5.436200
  0
POLYLINE
  8
0
  6
CONTINUOUS
 66
     1
 40
0.000000
 41
0.000000
  0
VERTEX
  8
0
  6
CONTINUOUS
 10
3.113880
 20
5.009840
  0
VERTEX
  8
0
  6
CONTINUOUS
 10
3.754520
 20
5.383400
  0
VERTEX
  8
0
  6
CONTINUOUS
 10
3.847800
 20
5.436200
  0
VERTEX
  8
0
  6
CONTINUOUS
 10
3.206720
 20
5.062200
  0
VERTEX
  8
0
  6
CONTINUOUS
 10
3.113880
 20
5.009840
  0
SEQEND
  8
0
  0
SOLID
  8
0
 62
    15
 10
3.310560
 20
5.107080
 11
3.951200
 21
5.481080
 12
3.424080
 22
5.144040
 13
4.065160
 23
5.518040
  0
POLYLINE
  8
0
  6
CONTINUOUS
 66
     1
 40
0.000000
 41
0.000000
  0
VERTEX
  8
0
  6
CONTINUOUS
 10
3.310560
 20
5.107080
  0
VERTEX
  8
0
  6
CONTINUOUS
 10
3.951200
 20
5.481080
  0
VERTEX
  8
0
  6
CONTINUOUS
 10
4.065160
 20
5.518040
  0
VERTEX
  8
0
  6
CONTINUOUS
 10
3.424080
 20
5.144040
  0
VERTEX
  8
0
  6
CONTINUOUS
 10
3.310560
 20
5.107080
  0
SEQEND
  8
0
  0
SOLID
  8
0
 62
    15
 10
3.424080
 20
5.144040
 11
4.065160
 21
5.518040
 12
3.548600
 22
5.173080
 13
4.189240
 23
5.547080
  0
POLYLINE
  8
0
  6
CONTINUOUS
 66
     1
 40
0.000000
 41
0.000000
  0
VERTEX
  8
0
  6
CONTINUOUS
 10
3.424080
 20
5.144040
  0
VERTEX
  8
0
  6
CONTINUOUS
 10
4.065160
 20
5.518040
  0
VERTEX
  8
0
  6
CONTINUOUS
 10
4.189240
 20
5.547080
  0
VERTEX
  8
0
  6
CONTINUOUS
 10
3.548600
 20
5.173080
  0
VERTEX
  8
0
  6
CONTINUOUS
 10
3.424080
 20
5.144040
  0
SEQEND
  8
0
  0
SOLID
  8
0
 62
    15
 10
3.548600
 20
5.173080
 11
4.189240
 21
5.547080
 12
3.683680
 22
5.193760
 13
4.324320
 23
5.567760
  0
POLYLINE
  8
0
  6
CONTINUOUS
 66
     1
 40
0.000000
 41
0.000000
  0
VERTEX
  8
0
  6
CONTINUOUS
 10
3.548600
 20
5.173080
  0
VERTEX
  8
0
  6
CONTINUOUS
 10
4.189240
 20
5.547080
  0
VERTEX
  8
0
  6
CONTINUOUS
 10
4.324320
 20
5.567760
  0
VERTEX
  8
0
  6
CONTINUOUS
 10
3.683680
 20
5.193760
  0
VERTEX
  8
0
  6
CONTINUOUS
 10
3.548600
 20
5.173080
  0
SEQEND
  8
0
  0
SOLID
  8
0
 62
    15
 10
3.683680
 20
5.193760
 11
4.324320
 21
5.567760
 12
3.829320
 22
5.206080
 13
4.469960
 23
5.579640
  0
POLYLINE
  8
0
  6
CONTINUOUS
 66
     1
 40
0.000000
 41
0.000000
  0
VERTEX
  8
0
  6
CONTINUOUS
 10
3.683680
 20
5.193760
  0
VERTEX
  8
0
  6
CONTINUOUS
 10
4.324320
 20
5.567760
  0
VERTEX
  8
0
  6
CONTINUOUS
 10
4.469960
 20
5.579640
  0
VERTEX
  8
0
  6
CONTINUOUS
 10
3.829320
 20
5.206080
  0
VERTEX
  8
0
  6
CONTINUOUS
 10
3.683680
 20
5.193760
  0
SEQEND
  8
0
  0
SOLID
  8
0
 62
    15
 10
3.829320
 20
5.206080
 11
4.469960
 21
5.579640
 12
3.954280
 22
5.208720
 13
4.594920
 23
5.582280
  0
POLYLINE
  8
0
  6
CONTINUOUS
 66
     1
 40
0.000000
 41
0.000000
  0
VERTEX
  8
0
  6
CONTINUOUS
 10
3.829320
 20
5.206080
  0
VERTEX
  8
0
  6
CONTINUOUS
 10
4.469960
 20
5.579640
  0
VERTEX
  8
0
  6
CONTINUOUS
 10
4.594920
 20
5.582280
  0
VERTEX
  8
0
  6
CONTINUOUS
 10
3.954280
 20
5.208720
  0
VERTEX
  8
0
  6
CONTINUOUS
 10
3.829320
 20
5.206080
  0
SEQEND
  8
0
  0
SOLID
  8
0
 62
    15
 10
3.922600
 20
5.209160
 11
4.563680
 21
5.583160
 12
4.079240
 22
5.206080
 13
4.719880
 23
5.579640
  0
POLYLINE
  8
0
  6
CONTINUOUS
 66
     1
 40
0.000000
 41
0.000000
  0
VERTEX
  8
0
  6
CONTINUOUS
 10
3.922600
 20
5.209160
  0
VERTEX
  8
0
  6
CONTINUOUS
 10
4.563680
 20
5.583160
  0
VERTEX
  8
0
  6
CONTINUOUS
 10
4.719880
 20
5.579640
  0
VERTEX
  8
0
  6
CONTINUOUS
 10
4.079240
 20
5.206080
  0
VERTEX
  8
0
  6
CONTINUOUS
 10
3.922600
 20
5.209160
  0
SEQEND
  8
0
  0
SOLID
  8
0
 62
    15
 10
4.594920
 20
5.582280
 11
4.626160
 21
5.583160
 12
3.954280
 22
5.208720
 13
3.985520
 23
5.209160
  0
POLYLINE
  8
0
  6
CONTINUOUS
 66
     1
 40
0.000000
 41
0.000000
  0
VERTEX
  8
0
  6
CONTINUOUS
 10
4.594920
 20
5.582280
  0
VERTEX
  8
0
  6
CONTINUOUS
 10
4.626160
 20
5.583160
  0
VERTEX
  8
0
  6
CONTINUOUS
 10
3.985520
 20
5.209160
  0
VERTEX
  8
0
  6
CONTINUOUS
 10
3.954280
 20
5.208720
  0
VERTEX
  8
0
  6
CONTINUOUS
 10
4.594920
 20
5.582280
  0
SEQEND
  8
0
  0
SOLID
  8
0
 62
    15
 10
4.079240
 20
5.206080
 11
4.719880
 21
5.579640
 12
4.224880
 22
5.193760
 13
4.865520
 23
5.567760
  0
POLYLINE
  8
0
  6
CONTINUOUS
 66
     1
 40
0.000000
 41
0.000000
  0
VERTEX
  8
0
  6
CONTINUOUS
 10
4.079240
 20
5.206080
  0
VERTEX
  8
0
  6
CONTINUOUS
 10
4.719880
 20
5.579640
  0
VERTEX
  8
0
  6
CONTINUOUS
 10
4.865520
 20
5.567760
  0
VERTEX
  8
0
  6
CONTINUOUS
 10
4.224880
 20
5.193760
  0
VERTEX
  8
0
  6
CONTINUOUS
 10
4.079240
 20
5.206080
  0
SEQEND
  8
0
  0
SOLID
  8
0
 62
    15
 10
4.224880
 20
5.193760
 11
4.865520
 21
5.567760
 12
4.359520
 22
5.173080
 13
5.000160
 23
5.547080
  0
POLYLINE
  8
0
  6
CONTINUOUS
 66
     1
 40
0.000000
 41
0.000000
  0
VERTEX
  8
0
  6
CONTINUOUS
 10
4.224880
 20
5.193760
  0
VERTEX
  8
0
  6
CONTINUOUS
 10
4.865520
 20
5.567760
  0
VERTEX
  8
0
  6
CONTINUOUS
 10
5.000160
 20
5.547080
  0
VERTEX
  8
0
  6
CONTINUOUS
 10
4.359520
 20
5.173080
  0
VERTEX
  8
0
  6
CONTINUOUS
 10
4.224880
 20
5.193760
  0
SEQEND
  8
0
  0
SOLID
  8
0
 62
    15
 10
4.359520
 20
5.173080
 11
5.000160
 21
5.547080
 12
4.484040
 22
5.144040
 13
5.124680
 23
5.518040
  0
POLYLINE
  8
0
  6
CONTINUOUS
 66
     1
 40
0.000000
 41
0.000000
  0
VERTEX
  8
0
  6
CONTINUOUS
 10
4.359520
 20
5.173080
  0
VERTEX
  8
0
  6
CONTINUOUS
 10
5.000160
 20
5.547080
  0
VERTEX
  8
0
  6
CONTINUOUS
 10
5.124680
 20
5.518040
  0
VERTEX
  8
0
  6
CONTINUOUS
 10
4.484040
 20
5.144040
  0
VERTEX
  8
0
  6
CONTINUOUS
 10
4.359520
 20
5.173080
  0
SEQEND
  8
0
  0
SOLID
  8
0
 62
    15
 10
4.484040
 20
5.144040
 11
5.124680
 21
5.518040
 12
4.598000
 22
5.107080
 13
5.238640
 23
5.481080
  0
POLYLINE
  8
0
  6
CONTINUOUS
 66
     1
 40
0.000000
 41
0.000000
  0
VERTEX
  8
0
  6
CONTINUOUS
 10
4.484040
 20
5.144040
  0
VERTEX
  8
0
  6
CONTINUOUS
 10
5.124680
 20
5.518040
  0
VERTEX
  8
0
  6
CONTINUOUS
 10
5.238640
 20
5.481080
  0
VERTEX
  8
0
  6
CONTINUOUS
 10
4.598000
 20
5.107080
  0
VERTEX
  8
0
  6
CONTINUOUS
 10
4.484040
 20
5.144040
  0
SEQEND
  8
0
  0
SOLID
  8
0
 62
    15
 10
3.206720
 20
5.062200
 11
3.847800
 21
5.436200
 12
3.310560
 22
5.107080
 13
3.951200
 23
5.481080
  0
POLYLINE
  8
0
  6
CONTINUOUS
 66
     1
 40
0.000000
 41
0.000000
  0
VERTEX
  8
0
  6
CONTINUOUS
 10
3.206720
 20
5.062200
  0
VERTEX
  8
0
  6
CONTINUOUS
 10
3.847800
 20
5.436200
  0
VERTEX
  8
0
  6
CONTINUOUS
 10
3.951200
 20
5.481080
  0
VERTEX
  8
0
  6
CONTINUOUS
 10
3.310560
 20
5.107080
  0
VERTEX
  8
0
  6
CONTINUOUS
 10
3.206720
 20
5.062200
  0
SEQEND
  8
0
  0
SOLID
  8
0
 62
    15
 10
4.701400
 20
5.062200
 11
5.342040
 21
5.436200
 12
4.794680
 22
5.009840
 13
5.435320
 23
5.383400
  0
POLYLINE
  8
0
  6
CONTINUOUS
 66
     1
 40
0.000000
 41
0.000000
  0
VERTEX
  8
0
  6
CONTINUOUS
 10
4.701400
 20
5.062200
  0
VERTEX
  8
0
  6
CONTINUOUS
 10
5.342040
 20
5.436200
  0
VERTEX
  8
0
  6
CONTINUOUS
 10
5.435320
 20
5.383400
  0
VERTEX
  8
0
  6
CONTINUOUS
 10
4.794680
 20
5.009840
  0
VERTEX
  8
0
  6
CONTINUOUS
 10
4.701400
 20
5.062200
  0
SEQEND
  8
0
  0
SOLID
  8
0
 62
    15
 10
4.794680
 20
5.009840
 11
5.435320
 21
5.383400
 12
4.877400
 22
4.949560
 13
5.518480
 23
5.323560
  0
POLYLINE
  8
0
  6
CONTINUOUS
 66
     1
 40
0.000000
 41
0.000000
  0
VERTEX
  8
0
  6
CONTINUOUS
 10
4.794680
 20
5.009840
  0
VERTEX
  8
0
  6
CONTINUOUS
 10
5.435320
 20
5.383400
  0
VERTEX
  8
0
  6
CONTINUOUS
 10
5.518480
 20
5.323560
  0
VERTEX
  8
0
  6
CONTINUOUS
 10
4.877400
 20
4.949560
  0
VERTEX
  8
0
  6
CONTINUOUS
 10
4.794680
 20
5.009840
  0
SEQEND
  8
0
  0
SOLID
  8
0
 62
    15
 10
4.877400
 20
4.949560
 11
5.518480
 21
5.323560
 12
4.950440
 22
4.882240
 13
5.591080
 23
5.256240
  0
POLYLINE
  8
0
  6
CONTINUOUS
 66
     1
 40
0.000000
 41
0.000000
  0
VERTEX
  8
0
  6
CONTINUOUS
 10
4.877400
 20
4.949560
  0
VERTEX
  8
0
  6
CONTINUOUS
 10
5.518480
 20
5.323560
  0
VERTEX
  8
0
  6
CONTINUOUS
 10
5.591080
 20
5.256240
  0
VERTEX
  8
0
  6
CONTINUOUS
 10
4.950440
 20
4.882240
  0
VERTEX
  8
0
  6
CONTINUOUS
 10
4.877400
 20
4.949560
  0
SEQEND
  8
0
  0
SOLID
  8
0
 62
    15
 10
4.950440
 20
4.882240
 11
5.591080
 21
5.256240
 12
5.013360
 22
4.807880
 13
5.654000
 23
5.181880
  0
POLYLINE
  8
0
  6
CONTINUOUS
 66
     1
 40
0.000000
 41
0.000000
  0
VERTEX
  8
0
  6
CONTINUOUS
 10
4.950440
 20
4.882240
  0
VERTEX
  8
0
  6
CONTINUOUS
 10
5.591080
 20
5.256240
  0
VERTEX
  8
0
  6
CONTINUOUS
 10
5.654000
 20
5.181880
  0
VERTEX
  8
0
  6
CONTINUOUS
 10
5.013360
 20
4.807880
  0
VERTEX
  8
0
  6
CONTINUOUS
 10
4.950440
 20
4.882240
  0
SEQEND
  8
0
  0
SOLID
  8
0
 62
    15
 10
5.013360
 20
4.807880
 11
5.654000
 21
5.181880
 12
5.066160
 22
4.726480
 13
5.707240
 23
5.100480
  0
POLYLINE
  8
0
  6
CONTINUOUS
 66
     1
 40
0.000000
 41
0.000000
  0
VERTEX
  8
0
  6
CONTINUOUS
 10
5.013360
 20
4.807880
  0
VERTEX
  8
0
  6
CONTINUOUS
 10
5.654000
 20
5.181880
  0
VERTEX
  8
0
  6
CONTINUOUS
 10
5.707240
 20
5.100480
  0
VERTEX
  8
0
  6
CONTINUOUS
 10
5.066160
 20
4.726480
  0
VERTEX
  8
0
  6
CONTINUOUS
 10
5.013360
 20
4.807880
  0
SEQEND
  8
0
  0
SOLID
  8
0
 62
    15
 10
5.066160
 20
4.726480
 11
5.707240
 21
5.100480
 12
5.109280
 22
4.638480
 13
5.750360
 23
5.012480
  0
POLYLINE
  8
0
  6
CONTINUOUS
 66
     1
 40
0.000000
 41
0.000000
  0
VERTEX
  8
0
  6
CONTINUOUS
 10
5.066160
 20
4.726480
  0
VERTEX
  8
0
  6
CONTINUOUS
 10
5.707240
 20
5.100480
  0
VERTEX
  8
0
  6
CONTINUOUS
 10
5.750360
 20
5.012480
  0
VERTEX
  8
0
  6
CONTINUOUS
 10
5.109280
 20
4.638480
  0
VERTEX
  8
0
  6
CONTINUOUS
 10
5.066160
 20
4.726480
  0
SEQEND
  8
0
  0
SOLID
  8
0
 62
    15
 10
5.109280
 20
4.638480
 11
5.750360
 21
5.012480
 12
5.142720
 22
4.544320
 13
5.783360
 23
4.917880
  0
POLYLINE
  8
0
  6
CONTINUOUS
 66
     1
 40
0.000000
 41
0.000000
  0
VERTEX
  8
0
  6
CONTINUOUS
 10
5.109280
 20
4.638480
  0
VERTEX
  8
0
  6
CONTINUOUS
 10
5.750360
 20
5.012480
  0
VERTEX
  8
0
  6
CONTINUOUS
 10
5.783360
 20
4.917880
  0
VERTEX
  8
0
  6
CONTINUOUS
 10
5.142720
 20
4.544320
  0
VERTEX
  8
0
  6
CONTINUOUS
 10
5.109280
 20
4.638480
  0
SEQEND
  8
0
  0
SOLID
  8
0
 62
    15
 10
5.142720
 20
4.544320
 11
5.783360
 21
4.917880
 12
5.166480
 22
4.443560
 13
5.807120
 23
4.817120
  0
POLYLINE
  8
0
  6
CONTINUOUS
 66
     1
 40
0.000000
 41
0.000000
  0
VERTEX
  8
0
  6
CONTINUOUS
 10
5.142720
 20
4.544320
  0
VERTEX
  8
0
  6
CONTINUOUS
 10
5.783360
 20
4.917880
  0
VERTEX
  8
0
  6
CONTINUOUS
 10
5.807120
 20
4.817120
  0
VERTEX
  8
0
  6
CONTINUOUS
 10
5.166480
 20
4.443560
  0
VERTEX
  8
0
  6
CONTINUOUS
 10
5.142720
 20
4.544320
  0
SEQEND
  8
0
  0
SOLID
  8
0
 62
    15
 10
5.166480
 20
4.443560
 11
5.807120
 21
4.817120
 12
5.180560
 22
4.336640
 13
5.821640
 23
4.710640
  0
POLYLINE
  8
0
  6
CONTINUOUS
 66
     1
 40
0.000000
 41
0.000000
  0
VERTEX
  8
0
  6
CONTINUOUS
 10
5.166480
 20
4.443560
  0
VERTEX
  8
0
  6
CONTINUOUS
 10
5.807120
 20
4.817120
  0
VERTEX
  8
0
  6
CONTINUOUS
 10
5.821640
 20
4.710640
  0
VERTEX
  8
0
  6
CONTINUOUS
 10
5.180560
 20
4.336640
  0
VERTEX
  8
0
  6
CONTINUOUS
 10
5.166480
 20
4.443560
  0
SEQEND
  8
0
  0
SOLID
  8
0
 62
    15
 10
5.180560
 20
4.336640
 11
5.821640
 21
4.710640
 12
5.185400
 22
4.224000
 13
5.826040
 23
4.598000
  0
POLYLINE
  8
0
  6
CONTINUOUS
 66
     1
 40
0.000000
 41
0.000000
  0
VERTEX
  8
0
  6
CONTINUOUS
 10
5.180560
 20
4.336640
  0
VERTEX
  8
0
  6
CONTINUOUS
 10
5.821640
 20
4.710640
  0
VERTEX
  8
0
  6
CONTINUOUS
 10
5.826040
 20
4.598000
  0
VERTEX
  8
0
  6
CONTINUOUS
 10
5.185400
 20
4.224000
  0
VERTEX
  8
0
  6
CONTINUOUS
 10
5.180560
 20
4.336640
  0
SEQEND
  8
0
  0
SOLID
  8
0
 62
    15
 10
5.185400
 20
4.224000
 11
5.826040
 21
4.598000
 12
5.185400
 22
3.451800
 13
5.826040
 23
3.825800
  0
POLYLINE
  8
0
  6
CONTINUOUS
 66
     1
 40
0.000000
 41
0.000000
  0
VERTEX
  8
0
  6
CONTINUOUS
 10
5.185400
 20
4.224000
  0
VERTEX
  8
0
  6
CONTINUOUS
 10
5.826040
 20
4.598000
  0
VERTEX
  8
0
  6
CONTINUOUS
 10
5.826040
 20
3.825800
  0
VERTEX
  8
0
  6
CONTINUOUS
 10
5.185400
 20
3.451800
  0
VERTEX
  8
0
  6
CONTINUOUS
 10
5.185400
 20
4.224000
  0
SEQEND
  8
0
  0
SOLID
  8
0
 62
    15
 10
3.921280
 20
3.451800
 11
4.562360
 21
3.825800
 12
3.986840
 22
3.451800
 13
4.627480
 23
3.825800
  0
POLYLINE
  8
0
  6
CONTINUOUS
 66
     1
 40
0.000000
 41
0.000000
  0
VERTEX
  8
0
  6
CONTINUOUS
 10
3.921280
 20
3.451800
  0
VERTEX
  8
0
  6
CONTINUOUS
 10
4.562360
 20
3.825800
  0
VERTEX
  8
0
  6
CONTINUOUS
 10
4.627480
 20
3.825800
  0
VERTEX
  8
0
  6
CONTINUOUS
 10
3.986840
 20
3.451800
  0
VERTEX
  8
0
  6
CONTINUOUS
 10
3.921280
 20
3.451800
  0
SEQEND
  8
0
  0
POLYLINE
  8
0
  6
CONTINUOUS
 66
     1
 40
0.000000
 41
0.000000
  0
VERTEX
  8
0
  6
CONTINUOUS
 10
3.986840
 20
3.451800
  0
VERTEX
  8
0
  6
CONTINUOUS
 10
2.722720
 20
3.451800
  0
VERTEX
  8
0
  6
CONTINUOUS
 10
2.722720
 20
4.224000
  0
VERTEX
  8
0
  6
CONTINUOUS
 10
2.727560
 20
4.336640
  0
VERTEX
  8
0
  6
CONTINUOUS
 10
2.741640
 20
4.443560
  0
VERTEX
  8
0
  6
CONTINUOUS
 10
2.765400
 20
4.544320
  0
VERTEX
  8
0
  6
CONTINUOUS
 10
2.798840
 20
4.638480
  0
VERTEX
  8
0
  6
CONTINUOUS
 10
2.841960
 20
4.726480
  0
VERTEX
  8
0
  6
CONTINUOUS
 10
2.894760
 20
4.807880
  0
VERTEX
  8
0
  6
CONTINUOUS
 10
2.957680
 20
4.882240
  0
VERTEX
  8
0
  6
CONTINUOUS
 10
3.030720
 20
4.949560
  0
VERTEX
  8
0
  6
CONTINUOUS
 10
3.113880
 20
5.009840
  0
VERTEX
  8
0
  6
CONTINUOUS
 10
3.206720
 20
5.062200
  0
VERTEX
  8
0
  6
CONTINUOUS
 10
3.310560
 20
5.107080
  0
VERTEX
  8
0
  6
CONTINUOUS
 10
3.424080
 20
5.144040
  0
VERTEX
  8
0
  6
CONTINUOUS
 10
3.548600
 20
5.173080
  0
VERTEX
  8
0
  6
CONTINUOUS
 10
3.683680
 20
5.193760
  0
VERTEX
  8
0
  6
CONTINUOUS
 10
3.829320
 20
5.206080
  0
VERTEX
  8
0
  6
CONTINUOUS
 10
3.985520
 20
5.209160
  0
VERTEX
  8
0
  6
CONTINUOUS
 10
3.922600
 20
5.209160
  0
VERTEX
  8
0
  6
CONTINUOUS
 10
4.079240
 20
5.206080
  0
VERTEX
  8
0
  6
CONTINUOUS
 10
4.224880
 20
5.193760
  0
VERTEX
  8
0
  6
CONTINUOUS
 10
4.359520
 20
5.173080
  0
VERTEX
  8
0
  6
CONTINUOUS
 10
4.484040
 20
5.144040
  0
VERTEX
  8
0
  6
CONTINUOUS
 10
4.598000
 20
5.107080
  0
VERTEX
  8
0
  6
CONTINUOUS
 10
4.701400
 20
5.062200
  0
VERTEX
  8
0
  6
CONTINUOUS
 10
4.794680
 20
5.009840
  0
VERTEX
  8
0
  6
CONTINUOUS
 10
4.877400
 20
4.949560
  0
VERTEX
  8
0
  6
CONTINUOUS
 10
4.950440
 20
4.882240
  0
VERTEX
  8
0
  6
CONTINUOUS
 10
5.013360
 20
4.807880
  0
VERTEX
  8
0
  6
CONTINUOUS
 10
5.066160
 20
4.726480
  0
VERTEX
  8
0
  6
CONTINUOUS
 10
5.109280
 20
4.638480
  0
VERTEX
  8
0
  6
CONTINUOUS
 10
5.142720
 20
4.544320
  0
VERTEX
  8
0
  6
CONTINUOUS
 10
5.166480
 20
4.443560
  0
VERTEX
  8
0
  6
CONTINUOUS
 10
5.180560
 20
4.336640
  0
VERTEX
  8
0
  6
CONTINUOUS
 10
5.185400
 20
4.224000
  0
VERTEX
  8
0
  6
CONTINUOUS
 10
5.185400
 20
3.451800
  0
VERTEX
  8
0
  6
CONTINUOUS
 10
3.921280
 20
3.451800
  0
VERTEX
  8
0
  6
CONTINUOUS
 10
3.986840
 20
3.451800
  0
SEQEND
  8
0
  0
TEXT
  8
0
 10
4.025560
 20
3.230040
 40
0.138052
  1
BA  58
 41
1.000000
  7
SN0
 71
     0
 72
     5
 11
4.524109
 21
3.230040
  0
TEXT
  8
0
 10
3.749680
 20
3.038640
 40
0.138052
  1
1-3/4" x 2-1/2"
 41
1.000000
  7
SN0
 71
     0
 72
     5
 11
4.799728
 21
3.038640
  0
ENDSEC
  0
EOF
