  0
SECTION
  2
HEADER
  9
$ACADVER
  1
AC1006
  9
$EXTMIN
 10
0.924440
 20
4.003560
  9
$EXTMAX
 10
6.208400
 20
8.347680
  9
$LTSCALE
 40
0.044000
  9
$PDMODE
 70
    35
  9
$PDSIZE
 40
0.035200
  0
ENDSEC
  0
SECTION
  2
TABLES
  0
TABLE
  2
LTYPE
 70
     9
  0
LTYPE
  2
CONTINUOUS
 70
    64
  3
Solid line
 72
    65
 73
     0
 40
0.000000
  0
LTYPE
  2
DASHED
 70
    64
  3
__ __ __ __ __ __ __ __ __ __ __ __ __ __ __
 72
    65
 73
     2
 40
0.000330
 49
0.000220
 49
-0.000110
  0
LTYPE
  2
HIDDEN
 70
    64
  3
 _ _ _ _ _ _ _ _ _ _ _ _ _ _ _ _ _ _ _ _ _ _
 72
    65
 73
     2
 40
0.000165
 49
0.000110
 49
-0.000055
  0
LTYPE
  2
CENTER
 70
    64
  3
____ _ ____ _ ____ _ ____ _ ____ _ ____ _ ____
 72
    65
 73
     4
 40
0.000880
 49
0.000550
 49
-0.000110
 49
0.000110
 49
-0.000110
  0
LTYPE
  2
PHANTOM
 70
    64
  3
_____ _ _ _____ _ _ _____ _ _ _____ _ _ ____
 72
    65
 73
     6
 40
0.001100
 49
0.000550
 49
-0.000110
 49
0.000110
 49
-0.000110
 49
0.000110
 49
-0.000110
  0
LTYPE
  2
DOT
 70
    64
  3
...............................................
 72
    65
 73
     2
 40
0.000110
 49
0.000000
 49
-0.000110
  0
LTYPE
  2
DASHDOT
 70
    64
  3
__ . __ . __ . __ . __ . __ . __ . __ . __ . __
 72
    65
 73
     4
 40
0.000440
 49
0.000220
 49
-0.000110
 49
0.000000
 49
-0.000110
  0
LTYPE
  2
BORDER
 70
    64
  3
__ __ . __ __ . __ __ . __ __ . __ __ . __ __
 72
    65
 73
     6
 40
0.000770
 49
0.000220
 49
-0.000110
 49
0.000220
 49
-0.000110
 49
0.000000
 49
-0.000110
  0
LTYPE
  2
DIVIDE
 70
    64
  3
__ . . __ . . __ . . __ . . __ . . __ . . __
 72
    65
 73
     6
 40
0.000550
 49
0.000220
 49
-0.000110
 49
0.000000
 49
-0.000110
 49
0.000000
 49
-0.000110
  0
LTYPE
  2
DOTDOT
 70
    64
  3
 . .  . .  . .  . .  . .  . . 
 72
    65
 73
     5
 40
0.000242
 49
-0.000110
 49
0.000000
 49
-0.000110
 49
0.000000
 49
-0.000110
  0
ENDTAB
  0
TABLE
  2
STYLE
 70
     2
  0
STYLE
 70
     0
  2
SN0
 40
0.000000
 41
0.000440
 50
0.000000
 71
     0
 42
0.000000
  3
ROMAND
  0
STYLE
 70
    68
  2
SV0
 40
0.000000
 41
0.000440
 50
0.000000
 71
     0
 42
0.000000
  3
ROMAND
  0
ENDTAB
  0
TABLE
  2
LAYER
 70
     3
  0
LAYER
  2
FOREGROUND
 70
    64
 62
     7
  6
CONTINUOUS
  0
LAYER
  2
BACKGROUND
 70
    65
 62
    -7
  6
CONTINUOUS
  0
LAYER
  2
0
 70
    64
 62
     7
  6
CONTINUOUS
  0
ENDTAB
  0
ENDSEC
  0
SECTION
  2
ENTITIES
  0
POLYLINE
  8
FOREGROUND
  6
CONTINUOUS
 66
     1
 40
0.000000
 41
0.000000
  0
VERTEX
  8
FOREGROUND
  6
CONTINUOUS
 10
0.000000
 20
12.351240
  0
VERTEX
  8
FOREGROUND
  6
CONTINUOUS
 10
8.499920
 20
12.351240
  0
VERTEX
  8
FOREGROUND
  6
CONTINUOUS
 10
8.499920
 20
1.351240
  0
VERTEX
  8
FOREGROUND
  6
CONTINUOUS
 10
0.000000
 20
1.351240
  0
VERTEX
  8
FOREGROUND
  6
CONTINUOUS
 10
0.000000
 20
12.351240
  0
SEQEND
  8
0
  0
POLYLINE
  8
FOREGROUND
  6
CONTINUOUS
 66
     1
 40
0.000000
 41
0.000000
  0
VERTEX
  8
FOREGROUND
  6
CONTINUOUS
 10
0.000000
 20
12.351240
  0
VERTEX
  8
FOREGROUND
  6
CONTINUOUS
 10
8.499920
 20
12.351240
  0
VERTEX
  8
FOREGROUND
  6
CONTINUOUS
 10
8.499920
 20
1.351240
  0
VERTEX
  8
FOREGROUND
  6
CONTINUOUS
 10
0.000000
 20
1.351240
  0
VERTEX
  8
FOREGROUND
  6
CONTINUOUS
 10
0.000000
 20
12.351240
  0
SEQEND
  8
0
  0
POLYLINE
  8
0
  6
CONTINUOUS
 66
     1
 40
0.014080
 41
0.014080
  0
VERTEX
  8
0
  6
CONTINUOUS
 10
0.929720
 20
7.831560
  0
VERTEX
  8
0
  6
CONTINUOUS
 10
1.388200
 20
8.275960
  0
SEQEND
  8
0
  0
POLYLINE
  8
0
  6
CONTINUOUS
 66
     1
 40
0.014080
 41
0.014080
  0
VERTEX
  8
0
  6
CONTINUOUS
 10
1.388200
 20
8.275960
  0
VERTEX
  8
0
  6
CONTINUOUS
 10
1.392160
 20
8.277280
  0
SEQEND
  8
0
  0
POLYLINE
  8
0
  6
CONTINUOUS
 66
     1
 40
0.014080
 41
0.014080
  0
VERTEX
  8
0
  6
CONTINUOUS
 10
1.392160
 20
8.277280
  0
VERTEX
  8
0
  6
CONTINUOUS
 10
1.470920
 20
8.210400
  0
SEQEND
  8
0
  0
POLYLINE
  8
0
  6
CONTINUOUS
 66
     1
 40
0.014080
 41
0.014080
  0
VERTEX
  8
0
  6
CONTINUOUS
 10
1.470920
 20
8.210400
  0
VERTEX
  8
0
  6
CONTINUOUS
 10
1.547480
 20
8.155400
  0
SEQEND
  8
0
  0
POLYLINE
  8
0
  6
CONTINUOUS
 66
     1
 40
0.014080
 41
0.014080
  0
VERTEX
  8
0
  6
CONTINUOUS
 10
1.547480
 20
8.155400
  0
VERTEX
  8
0
  6
CONTINUOUS
 10
1.622280
 20
8.110960
  0
SEQEND
  8
0
  0
POLYLINE
  8
0
  6
CONTINUOUS
 66
     1
 40
0.014080
 41
0.014080
  0
VERTEX
  8
0
  6
CONTINUOUS
 10
1.622280
 20
8.110960
  0
VERTEX
  8
0
  6
CONTINUOUS
 10
1.695760
 20
8.076200
  0
SEQEND
  8
0
  0
POLYLINE
  8
0
  6
CONTINUOUS
 66
     1
 40
0.014080
 41
0.014080
  0
VERTEX
  8
0
  6
CONTINUOUS
 10
1.695760
 20
8.076200
  0
VERTEX
  8
0
  6
CONTINUOUS
 10
1.767480
 20
8.051560
  0
SEQEND
  8
0
  0
POLYLINE
  8
0
  6
CONTINUOUS
 66
     1
 40
0.014080
 41
0.014080
  0
VERTEX
  8
0
  6
CONTINUOUS
 10
1.767480
 20
8.051560
  0
VERTEX
  8
0
  6
CONTINUOUS
 10
1.837440
 20
8.034840
  0
SEQEND
  8
0
  0
POLYLINE
  8
0
  6
CONTINUOUS
 66
     1
 40
0.014080
 41
0.014080
  0
VERTEX
  8
0
  6
CONTINUOUS
 10
1.837440
 20
8.034840
  0
VERTEX
  8
0
  6
CONTINUOUS
 10
1.906080
 20
8.026480
  0
SEQEND
  8
0
  0
POLYLINE
  8
0
  6
CONTINUOUS
 66
     1
 40
0.014080
 41
0.014080
  0
VERTEX
  8
0
  6
CONTINUOUS
 10
1.906080
 20
8.026480
  0
VERTEX
  8
0
  6
CONTINUOUS
 10
1.973400
 20
8.024720
  0
SEQEND
  8
0
  0
POLYLINE
  8
0
  6
CONTINUOUS
 66
     1
 40
0.014080
 41
0.014080
  0
VERTEX
  8
0
  6
CONTINUOUS
 10
1.973400
 20
8.024720
  0
VERTEX
  8
0
  6
CONTINUOUS
 10
2.039400
 20
8.029560
  0
SEQEND
  8
0
  0
POLYLINE
  8
0
  6
CONTINUOUS
 66
     1
 40
0.014080
 41
0.014080
  0
VERTEX
  8
0
  6
CONTINUOUS
 10
2.039400
 20
8.029560
  0
VERTEX
  8
0
  6
CONTINUOUS
 10
2.104080
 20
8.039680
  0
SEQEND
  8
0
  0
POLYLINE
  8
0
  6
CONTINUOUS
 66
     1
 40
0.014080
 41
0.014080
  0
VERTEX
  8
0
  6
CONTINUOUS
 10
2.104080
 20
8.039680
  0
VERTEX
  8
0
  6
CONTINUOUS
 10
2.230800
 20
8.074000
  0
SEQEND
  8
0
  0
POLYLINE
  8
0
  6
CONTINUOUS
 66
     1
 40
0.014080
 41
0.014080
  0
VERTEX
  8
0
  6
CONTINUOUS
 10
2.230800
 20
8.074000
  0
VERTEX
  8
0
  6
CONTINUOUS
 10
2.353560
 20
8.121080
  0
SEQEND
  8
0
  0
POLYLINE
  8
0
  6
CONTINUOUS
 66
     1
 40
0.014080
 41
0.014080
  0
VERTEX
  8
0
  6
CONTINUOUS
 10
2.353560
 20
8.121080
  0
VERTEX
  8
0
  6
CONTINUOUS
 10
2.474120
 20
8.174760
  0
SEQEND
  8
0
  0
POLYLINE
  8
0
  6
CONTINUOUS
 66
     1
 40
0.014080
 41
0.014080
  0
VERTEX
  8
0
  6
CONTINUOUS
 10
2.474120
 20
8.174760
  0
VERTEX
  8
0
  6
CONTINUOUS
 10
2.592480
 20
8.229760
  0
SEQEND
  8
0
  0
POLYLINE
  8
0
  6
CONTINUOUS
 66
     1
 40
0.014080
 41
0.014080
  0
VERTEX
  8
0
  6
CONTINUOUS
 10
2.592480
 20
8.229760
  0
VERTEX
  8
0
  6
CONTINUOUS
 10
2.709520
 20
8.279480
  0
SEQEND
  8
0
  0
POLYLINE
  8
0
  6
CONTINUOUS
 66
     1
 40
0.014080
 41
0.014080
  0
VERTEX
  8
0
  6
CONTINUOUS
 10
2.709520
 20
8.279480
  0
VERTEX
  8
0
  6
CONTINUOUS
 10
2.826120
 20
8.317320
  0
SEQEND
  8
0
  0
POLYLINE
  8
0
  6
CONTINUOUS
 66
     1
 40
0.014080
 41
0.014080
  0
VERTEX
  8
0
  6
CONTINUOUS
 10
2.826120
 20
8.317320
  0
VERTEX
  8
0
  6
CONTINUOUS
 10
2.943600
 20
8.338000
  0
SEQEND
  8
0
  0
POLYLINE
  8
0
  6
CONTINUOUS
 66
     1
 40
0.014080
 41
0.014080
  0
VERTEX
  8
0
  6
CONTINUOUS
 10
2.943600
 20
8.338000
  0
VERTEX
  8
0
  6
CONTINUOUS
 10
3.002120
 20
8.340200
  0
SEQEND
  8
0
  0
POLYLINE
  8
0
  6
CONTINUOUS
 66
     1
 40
0.014080
 41
0.014080
  0
VERTEX
  8
0
  6
CONTINUOUS
 10
3.002120
 20
8.340200
  0
VERTEX
  8
0
  6
CONTINUOUS
 10
3.061520
 20
8.335360
  0
SEQEND
  8
0
  0
POLYLINE
  8
0
  6
CONTINUOUS
 66
     1
 40
0.014080
 41
0.014080
  0
VERTEX
  8
0
  6
CONTINUOUS
 10
3.061520
 20
8.335360
  0
VERTEX
  8
0
  6
CONTINUOUS
 10
3.121360
 20
8.323040
  0
SEQEND
  8
0
  0
POLYLINE
  8
0
  6
CONTINUOUS
 66
     1
 40
0.014080
 41
0.014080
  0
VERTEX
  8
0
  6
CONTINUOUS
 10
3.121360
 20
8.323040
  0
VERTEX
  8
0
  6
CONTINUOUS
 10
3.181640
 20
8.302800
  0
SEQEND
  8
0
  0
POLYLINE
  8
0
  6
CONTINUOUS
 66
     1
 40
0.014080
 41
0.014080
  0
VERTEX
  8
0
  6
CONTINUOUS
 10
3.181640
 20
8.302800
  0
VERTEX
  8
0
  6
CONTINUOUS
 10
3.242360
 20
8.273760
  0
SEQEND
  8
0
  0
POLYLINE
  8
0
  6
CONTINUOUS
 66
     1
 40
0.014080
 41
0.014080
  0
VERTEX
  8
0
  6
CONTINUOUS
 10
3.242360
 20
8.273760
  0
VERTEX
  8
0
  6
CONTINUOUS
 10
3.304400
 20
8.234600
  0
SEQEND
  8
0
  0
POLYLINE
  8
0
  6
CONTINUOUS
 66
     1
 40
0.014080
 41
0.014080
  0
VERTEX
  8
0
  6
CONTINUOUS
 10
3.304400
 20
8.234600
  0
VERTEX
  8
0
  6
CONTINUOUS
 10
3.366880
 20
8.185320
  0
SEQEND
  8
0
  0
POLYLINE
  8
0
  6
CONTINUOUS
 66
     1
 40
0.014080
 41
0.014080
  0
VERTEX
  8
0
  6
CONTINUOUS
 10
3.366880
 20
8.185320
  0
VERTEX
  8
0
  6
CONTINUOUS
 10
3.430240
 20
8.124600
  0
SEQEND
  8
0
  0
POLYLINE
  8
0
  6
CONTINUOUS
 66
     1
 40
0.014080
 41
0.014080
  0
VERTEX
  8
0
  6
CONTINUOUS
 10
3.430240
 20
8.124600
  0
VERTEX
  8
0
  6
CONTINUOUS
 10
3.582920
 20
8.311160
  0
SEQEND
  8
0
  0
POLYLINE
  8
0
  6
CONTINUOUS
 66
     1
 40
0.014080
 41
0.014080
  0
VERTEX
  8
0
  6
CONTINUOUS
 10
3.582920
 20
8.311160
  0
VERTEX
  8
0
  6
CONTINUOUS
 10
3.783560
 20
8.169480
  0
SEQEND
  8
0
  0
POLYLINE
  8
0
  6
CONTINUOUS
 66
     1
 40
0.014080
 41
0.014080
  0
VERTEX
  8
0
  6
CONTINUOUS
 10
3.783560
 20
8.169480
  0
VERTEX
  8
0
  6
CONTINUOUS
 10
3.791920
 20
8.172120
  0
SEQEND
  8
0
  0
POLYLINE
  8
0
  6
CONTINUOUS
 66
     1
 40
0.014080
 41
0.014080
  0
VERTEX
  8
0
  6
CONTINUOUS
 10
3.791920
 20
8.172120
  0
VERTEX
  8
0
  6
CONTINUOUS
 10
3.821840
 20
8.201160
  0
SEQEND
  8
0
  0
POLYLINE
  8
0
  6
CONTINUOUS
 66
     1
 40
0.014080
 41
0.014080
  0
VERTEX
  8
0
  6
CONTINUOUS
 10
3.821840
 20
8.201160
  0
VERTEX
  8
0
  6
CONTINUOUS
 10
3.851760
 20
8.224480
  0
SEQEND
  8
0
  0
POLYLINE
  8
0
  6
CONTINUOUS
 66
     1
 40
0.014080
 41
0.014080
  0
VERTEX
  8
0
  6
CONTINUOUS
 10
3.851760
 20
8.224480
  0
VERTEX
  8
0
  6
CONTINUOUS
 10
3.909840
 20
8.254400
  0
SEQEND
  8
0
  0
POLYLINE
  8
0
  6
CONTINUOUS
 66
     1
 40
0.014080
 41
0.014080
  0
VERTEX
  8
0
  6
CONTINUOUS
 10
3.909840
 20
8.254400
  0
VERTEX
  8
0
  6
CONTINUOUS
 10
3.966600
 20
8.265400
  0
SEQEND
  8
0
  0
POLYLINE
  8
0
  6
CONTINUOUS
 66
     1
 40
0.014080
 41
0.014080
  0
VERTEX
  8
0
  6
CONTINUOUS
 10
3.966600
 20
8.265400
  0
VERTEX
  8
0
  6
CONTINUOUS
 10
4.022920
 20
8.261000
  0
SEQEND
  8
0
  0
POLYLINE
  8
0
  6
CONTINUOUS
 66
     1
 40
0.014080
 41
0.014080
  0
VERTEX
  8
0
  6
CONTINUOUS
 10
4.022920
 20
8.261000
  0
VERTEX
  8
0
  6
CONTINUOUS
 10
4.079240
 20
8.244720
  0
SEQEND
  8
0
  0
POLYLINE
  8
0
  6
CONTINUOUS
 66
     1
 40
0.014080
 41
0.014080
  0
VERTEX
  8
0
  6
CONTINUOUS
 10
4.079240
 20
8.244720
  0
VERTEX
  8
0
  6
CONTINUOUS
 10
4.136000
 20
8.219200
  0
SEQEND
  8
0
  0
POLYLINE
  8
0
  6
CONTINUOUS
 66
     1
 40
0.014080
 41
0.014080
  0
VERTEX
  8
0
  6
CONTINUOUS
 10
4.136000
 20
8.219200
  0
VERTEX
  8
0
  6
CONTINUOUS
 10
4.252600
 20
8.155400
  0
SEQEND
  8
0
  0
POLYLINE
  8
0
  6
CONTINUOUS
 66
     1
 40
0.014080
 41
0.014080
  0
VERTEX
  8
0
  6
CONTINUOUS
 10
4.252600
 20
8.155400
  0
VERTEX
  8
0
  6
CONTINUOUS
 10
4.313760
 20
8.124160
  0
SEQEND
  8
0
  0
POLYLINE
  8
0
  6
CONTINUOUS
 66
     1
 40
0.014080
 41
0.014080
  0
VERTEX
  8
0
  6
CONTINUOUS
 10
4.313760
 20
8.124160
  0
VERTEX
  8
0
  6
CONTINUOUS
 10
4.377120
 20
8.097320
  0
SEQEND
  8
0
  0
POLYLINE
  8
0
  6
CONTINUOUS
 66
     1
 40
0.014080
 41
0.014080
  0
VERTEX
  8
0
  6
CONTINUOUS
 10
4.377120
 20
8.097320
  0
VERTEX
  8
0
  6
CONTINUOUS
 10
4.444000
 20
8.078400
  0
SEQEND
  8
0
  0
POLYLINE
  8
0
  6
CONTINUOUS
 66
     1
 40
0.014080
 41
0.014080
  0
VERTEX
  8
0
  6
CONTINUOUS
 10
4.444000
 20
8.078400
  0
VERTEX
  8
0
  6
CONTINUOUS
 10
4.514400
 20
8.070920
  0
SEQEND
  8
0
  0
POLYLINE
  8
0
  6
CONTINUOUS
 66
     1
 40
0.014080
 41
0.014080
  0
VERTEX
  8
0
  6
CONTINUOUS
 10
4.514400
 20
8.070920
  0
VERTEX
  8
0
  6
CONTINUOUS
 10
4.588760
 20
8.077960
  0
SEQEND
  8
0
  0
POLYLINE
  8
0
  6
CONTINUOUS
 66
     1
 40
0.014080
 41
0.014080
  0
VERTEX
  8
0
  6
CONTINUOUS
 10
4.588760
 20
8.077960
  0
VERTEX
  8
0
  6
CONTINUOUS
 10
4.627920
 20
8.088080
  0
SEQEND
  8
0
  0
POLYLINE
  8
0
  6
CONTINUOUS
 66
     1
 40
0.014080
 41
0.014080
  0
VERTEX
  8
0
  6
CONTINUOUS
 10
4.627920
 20
8.088080
  0
VERTEX
  8
0
  6
CONTINUOUS
 10
4.667960
 20
8.103480
  0
SEQEND
  8
0
  0
POLYLINE
  8
0
  6
CONTINUOUS
 66
     1
 40
0.014080
 41
0.014080
  0
VERTEX
  8
0
  6
CONTINUOUS
 10
4.667960
 20
8.103480
  0
VERTEX
  8
0
  6
CONTINUOUS
 10
4.709320
 20
8.124160
  0
SEQEND
  8
0
  0
POLYLINE
  8
0
  6
CONTINUOUS
 66
     1
 40
0.014080
 41
0.014080
  0
VERTEX
  8
0
  6
CONTINUOUS
 10
4.709320
 20
8.124160
  0
VERTEX
  8
0
  6
CONTINUOUS
 10
4.752440
 20
8.150120
  0
SEQEND
  8
0
  0
POLYLINE
  8
0
  6
CONTINUOUS
 66
     1
 40
0.014080
 41
0.014080
  0
VERTEX
  8
0
  6
CONTINUOUS
 10
4.752440
 20
8.150120
  0
VERTEX
  8
0
  6
CONTINUOUS
 10
4.796880
 20
8.182680
  0
SEQEND
  8
0
  0
POLYLINE
  8
0
  6
CONTINUOUS
 66
     1
 40
0.014080
 41
0.014080
  0
VERTEX
  8
0
  6
CONTINUOUS
 10
4.796880
 20
8.182680
  0
VERTEX
  8
0
  6
CONTINUOUS
 10
4.842640
 20
8.221840
  0
SEQEND
  8
0
  0
POLYLINE
  8
0
  6
CONTINUOUS
 66
     1
 40
0.014080
 41
0.014080
  0
VERTEX
  8
0
  6
CONTINUOUS
 10
4.842640
 20
8.221840
  0
VERTEX
  8
0
  6
CONTINUOUS
 10
5.011600
 20
8.071360
  0
SEQEND
  8
0
  0
POLYLINE
  8
0
  6
CONTINUOUS
 66
     1
 40
0.014080
 41
0.014080
  0
VERTEX
  8
0
  6
CONTINUOUS
 10
5.011600
 20
8.071360
  0
VERTEX
  8
0
  6
CONTINUOUS
 10
4.471720
 20
7.467240
  0
SEQEND
  8
0
  0
POLYLINE
  8
0
  6
CONTINUOUS
 66
     1
 40
0.014080
 41
0.014080
  0
VERTEX
  8
0
  6
CONTINUOUS
 10
4.471720
 20
7.467240
  0
VERTEX
  8
0
  6
CONTINUOUS
 10
1.331440
 20
7.472520
  0
SEQEND
  8
0
  0
POLYLINE
  8
0
  6
CONTINUOUS
 66
     1
 40
0.014080
 41
0.014080
  0
VERTEX
  8
0
  6
CONTINUOUS
 10
0.929720
 20
7.831560
  0
VERTEX
  8
0
  6
CONTINUOUS
 10
1.331440
 20
7.472520
  0
SEQEND
  8
0
  0
POLYLINE
  8
0
  6
CONTINUOUS
 66
     1
 40
0.014080
 41
0.014080
  0
VERTEX
  8
0
  6
CONTINUOUS
 10
0.929720
 20
7.831560
  0
VERTEX
  8
0
  6
CONTINUOUS
 10
1.388200
 20
8.275960
  0
SEQEND
  8
0
  0
POLYLINE
  8
0
  6
CONTINUOUS
 66
     1
 40
0.014080
 41
0.014080
  0
VERTEX
  8
0
  6
CONTINUOUS
 10
1.388200
 20
8.275960
  0
VERTEX
  8
0
  6
CONTINUOUS
 10
1.392160
 20
8.277280
  0
SEQEND
  8
0
  0
POLYLINE
  8
0
  6
CONTINUOUS
 66
     1
 40
0.014080
 41
0.014080
  0
VERTEX
  8
0
  6
CONTINUOUS
 10
1.392160
 20
8.277280
  0
VERTEX
  8
0
  6
CONTINUOUS
 10
1.470920
 20
8.210400
  0
SEQEND
  8
0
  0
POLYLINE
  8
0
  6
CONTINUOUS
 66
     1
 40
0.014080
 41
0.014080
  0
VERTEX
  8
0
  6
CONTINUOUS
 10
1.470920
 20
8.210400
  0
VERTEX
  8
0
  6
CONTINUOUS
 10
1.547480
 20
8.155400
  0
SEQEND
  8
0
  0
POLYLINE
  8
0
  6
CONTINUOUS
 66
     1
 40
0.014080
 41
0.014080
  0
VERTEX
  8
0
  6
CONTINUOUS
 10
1.547480
 20
8.155400
  0
VERTEX
  8
0
  6
CONTINUOUS
 10
1.622280
 20
8.110960
  0
SEQEND
  8
0
  0
POLYLINE
  8
0
  6
CONTINUOUS
 66
     1
 40
0.014080
 41
0.014080
  0
VERTEX
  8
0
  6
CONTINUOUS
 10
1.622280
 20
8.110960
  0
VERTEX
  8
0
  6
CONTINUOUS
 10
1.695760
 20
8.076200
  0
SEQEND
  8
0
  0
POLYLINE
  8
0
  6
CONTINUOUS
 66
     1
 40
0.014080
 41
0.014080
  0
VERTEX
  8
0
  6
CONTINUOUS
 10
1.695760
 20
8.076200
  0
VERTEX
  8
0
  6
CONTINUOUS
 10
1.767480
 20
8.051560
  0
SEQEND
  8
0
  0
POLYLINE
  8
0
  6
CONTINUOUS
 66
     1
 40
0.014080
 41
0.014080
  0
VERTEX
  8
0
  6
CONTINUOUS
 10
1.767480
 20
8.051560
  0
VERTEX
  8
0
  6
CONTINUOUS
 10
1.837440
 20
8.034840
  0
SEQEND
  8
0
  0
POLYLINE
  8
0
  6
CONTINUOUS
 66
     1
 40
0.014080
 41
0.014080
  0
VERTEX
  8
0
  6
CONTINUOUS
 10
1.837440
 20
8.034840
  0
VERTEX
  8
0
  6
CONTINUOUS
 10
1.906080
 20
8.026480
  0
SEQEND
  8
0
  0
POLYLINE
  8
0
  6
CONTINUOUS
 66
     1
 40
0.014080
 41
0.014080
  0
VERTEX
  8
0
  6
CONTINUOUS
 10
1.906080
 20
8.026480
  0
VERTEX
  8
0
  6
CONTINUOUS
 10
1.973400
 20
8.024720
  0
SEQEND
  8
0
  0
POLYLINE
  8
0
  6
CONTINUOUS
 66
     1
 40
0.014080
 41
0.014080
  0
VERTEX
  8
0
  6
CONTINUOUS
 10
1.973400
 20
8.024720
  0
VERTEX
  8
0
  6
CONTINUOUS
 10
2.039400
 20
8.029560
  0
SEQEND
  8
0
  0
POLYLINE
  8
0
  6
CONTINUOUS
 66
     1
 40
0.014080
 41
0.014080
  0
VERTEX
  8
0
  6
CONTINUOUS
 10
2.039400
 20
8.029560
  0
VERTEX
  8
0
  6
CONTINUOUS
 10
2.104080
 20
8.039680
  0
SEQEND
  8
0
  0
POLYLINE
  8
0
  6
CONTINUOUS
 66
     1
 40
0.014080
 41
0.014080
  0
VERTEX
  8
0
  6
CONTINUOUS
 10
2.104080
 20
8.039680
  0
VERTEX
  8
0
  6
CONTINUOUS
 10
2.230800
 20
8.074000
  0
SEQEND
  8
0
  0
POLYLINE
  8
0
  6
CONTINUOUS
 66
     1
 40
0.014080
 41
0.014080
  0
VERTEX
  8
0
  6
CONTINUOUS
 10
2.230800
 20
8.074000
  0
VERTEX
  8
0
  6
CONTINUOUS
 10
2.353560
 20
8.121080
  0
SEQEND
  8
0
  0
POLYLINE
  8
0
  6
CONTINUOUS
 66
     1
 40
0.014080
 41
0.014080
  0
VERTEX
  8
0
  6
CONTINUOUS
 10
2.353560
 20
8.121080
  0
VERTEX
  8
0
  6
CONTINUOUS
 10
2.474120
 20
8.174760
  0
SEQEND
  8
0
  0
POLYLINE
  8
0
  6
CONTINUOUS
 66
     1
 40
0.014080
 41
0.014080
  0
VERTEX
  8
0
  6
CONTINUOUS
 10
2.474120
 20
8.174760
  0
VERTEX
  8
0
  6
CONTINUOUS
 10
2.592480
 20
8.229760
  0
SEQEND
  8
0
  0
POLYLINE
  8
0
  6
CONTINUOUS
 66
     1
 40
0.014080
 41
0.014080
  0
VERTEX
  8
0
  6
CONTINUOUS
 10
2.592480
 20
8.229760
  0
VERTEX
  8
0
  6
CONTINUOUS
 10
2.709520
 20
8.279480
  0
SEQEND
  8
0
  0
POLYLINE
  8
0
  6
CONTINUOUS
 66
     1
 40
0.014080
 41
0.014080
  0
VERTEX
  8
0
  6
CONTINUOUS
 10
2.709520
 20
8.279480
  0
VERTEX
  8
0
  6
CONTINUOUS
 10
2.826120
 20
8.317320
  0
SEQEND
  8
0
  0
POLYLINE
  8
0
  6
CONTINUOUS
 66
     1
 40
0.014080
 41
0.014080
  0
VERTEX
  8
0
  6
CONTINUOUS
 10
2.826120
 20
8.317320
  0
VERTEX
  8
0
  6
CONTINUOUS
 10
2.943600
 20
8.338000
  0
SEQEND
  8
0
  0
POLYLINE
  8
0
  6
CONTINUOUS
 66
     1
 40
0.014080
 41
0.014080
  0
VERTEX
  8
0
  6
CONTINUOUS
 10
2.943600
 20
8.338000
  0
VERTEX
  8
0
  6
CONTINUOUS
 10
3.002120
 20
8.340200
  0
SEQEND
  8
0
  0
POLYLINE
  8
0
  6
CONTINUOUS
 66
     1
 40
0.014080
 41
0.014080
  0
VERTEX
  8
0
  6
CONTINUOUS
 10
3.002120
 20
8.340200
  0
VERTEX
  8
0
  6
CONTINUOUS
 10
3.061520
 20
8.335360
  0
SEQEND
  8
0
  0
POLYLINE
  8
0
  6
CONTINUOUS
 66
     1
 40
0.014080
 41
0.014080
  0
VERTEX
  8
0
  6
CONTINUOUS
 10
3.061520
 20
8.335360
  0
VERTEX
  8
0
  6
CONTINUOUS
 10
3.121360
 20
8.323040
  0
SEQEND
  8
0
  0
POLYLINE
  8
0
  6
CONTINUOUS
 66
     1
 40
0.014080
 41
0.014080
  0
VERTEX
  8
0
  6
CONTINUOUS
 10
3.121360
 20
8.323040
  0
VERTEX
  8
0
  6
CONTINUOUS
 10
3.181640
 20
8.302800
  0
SEQEND
  8
0
  0
POLYLINE
  8
0
  6
CONTINUOUS
 66
     1
 40
0.014080
 41
0.014080
  0
VERTEX
  8
0
  6
CONTINUOUS
 10
3.181640
 20
8.302800
  0
VERTEX
  8
0
  6
CONTINUOUS
 10
3.242360
 20
8.273760
  0
SEQEND
  8
0
  0
POLYLINE
  8
0
  6
CONTINUOUS
 66
     1
 40
0.014080
 41
0.014080
  0
VERTEX
  8
0
  6
CONTINUOUS
 10
3.242360
 20
8.273760
  0
VERTEX
  8
0
  6
CONTINUOUS
 10
3.304400
 20
8.234600
  0
SEQEND
  8
0
  0
POLYLINE
  8
0
  6
CONTINUOUS
 66
     1
 40
0.014080
 41
0.014080
  0
VERTEX
  8
0
  6
CONTINUOUS
 10
3.304400
 20
8.234600
  0
VERTEX
  8
0
  6
CONTINUOUS
 10
3.366880
 20
8.185320
  0
SEQEND
  8
0
  0
POLYLINE
  8
0
  6
CONTINUOUS
 66
     1
 40
0.014080
 41
0.014080
  0
VERTEX
  8
0
  6
CONTINUOUS
 10
3.366880
 20
8.185320
  0
VERTEX
  8
0
  6
CONTINUOUS
 10
3.430240
 20
8.124600
  0
SEQEND
  8
0
  0
POLYLINE
  8
0
  6
CONTINUOUS
 66
     1
 40
0.014080
 41
0.014080
  0
VERTEX
  8
0
  6
CONTINUOUS
 10
3.430240
 20
8.124600
  0
VERTEX
  8
0
  6
CONTINUOUS
 10
3.582920
 20
8.311160
  0
SEQEND
  8
0
  0
POLYLINE
  8
0
  6
CONTINUOUS
 66
     1
 40
0.014080
 41
0.014080
  0
VERTEX
  8
0
  6
CONTINUOUS
 10
3.582920
 20
8.311160
  0
VERTEX
  8
0
  6
CONTINUOUS
 10
3.783560
 20
8.169480
  0
SEQEND
  8
0
  0
POLYLINE
  8
0
  6
CONTINUOUS
 66
     1
 40
0.014080
 41
0.014080
  0
VERTEX
  8
0
  6
CONTINUOUS
 10
3.783560
 20
8.169480
  0
VERTEX
  8
0
  6
CONTINUOUS
 10
3.791920
 20
8.172120
  0
SEQEND
  8
0
  0
POLYLINE
  8
0
  6
CONTINUOUS
 66
     1
 40
0.014080
 41
0.014080
  0
VERTEX
  8
0
  6
CONTINUOUS
 10
3.791920
 20
8.172120
  0
VERTEX
  8
0
  6
CONTINUOUS
 10
3.821840
 20
8.201160
  0
SEQEND
  8
0
  0
POLYLINE
  8
0
  6
CONTINUOUS
 66
     1
 40
0.014080
 41
0.014080
  0
VERTEX
  8
0
  6
CONTINUOUS
 10
3.821840
 20
8.201160
  0
VERTEX
  8
0
  6
CONTINUOUS
 10
3.851760
 20
8.224480
  0
SEQEND
  8
0
  0
POLYLINE
  8
0
  6
CONTINUOUS
 66
     1
 40
0.014080
 41
0.014080
  0
VERTEX
  8
0
  6
CONTINUOUS
 10
3.851760
 20
8.224480
  0
VERTEX
  8
0
  6
CONTINUOUS
 10
3.909840
 20
8.254400
  0
SEQEND
  8
0
  0
POLYLINE
  8
0
  6
CONTINUOUS
 66
     1
 40
0.014080
 41
0.014080
  0
VERTEX
  8
0
  6
CONTINUOUS
 10
3.909840
 20
8.254400
  0
VERTEX
  8
0
  6
CONTINUOUS
 10
3.966600
 20
8.265400
  0
SEQEND
  8
0
  0
POLYLINE
  8
0
  6
CONTINUOUS
 66
     1
 40
0.014080
 41
0.014080
  0
VERTEX
  8
0
  6
CONTINUOUS
 10
3.966600
 20
8.265400
  0
VERTEX
  8
0
  6
CONTINUOUS
 10
4.022920
 20
8.261000
  0
SEQEND
  8
0
  0
POLYLINE
  8
0
  6
CONTINUOUS
 66
     1
 40
0.014080
 41
0.014080
  0
VERTEX
  8
0
  6
CONTINUOUS
 10
4.022920
 20
8.261000
  0
VERTEX
  8
0
  6
CONTINUOUS
 10
4.079240
 20
8.244720
  0
SEQEND
  8
0
  0
POLYLINE
  8
0
  6
CONTINUOUS
 66
     1
 40
0.014080
 41
0.014080
  0
VERTEX
  8
0
  6
CONTINUOUS
 10
4.079240
 20
8.244720
  0
VERTEX
  8
0
  6
CONTINUOUS
 10
4.136000
 20
8.219200
  0
SEQEND
  8
0
  0
POLYLINE
  8
0
  6
CONTINUOUS
 66
     1
 40
0.014080
 41
0.014080
  0
VERTEX
  8
0
  6
CONTINUOUS
 10
4.136000
 20
8.219200
  0
VERTEX
  8
0
  6
CONTINUOUS
 10
4.252600
 20
8.155400
  0
SEQEND
  8
0
  0
POLYLINE
  8
0
  6
CONTINUOUS
 66
     1
 40
0.014080
 41
0.014080
  0
VERTEX
  8
0
  6
CONTINUOUS
 10
4.252600
 20
8.155400
  0
VERTEX
  8
0
  6
CONTINUOUS
 10
4.313760
 20
8.124160
  0
SEQEND
  8
0
  0
POLYLINE
  8
0
  6
CONTINUOUS
 66
     1
 40
0.014080
 41
0.014080
  0
VERTEX
  8
0
  6
CONTINUOUS
 10
4.313760
 20
8.124160
  0
VERTEX
  8
0
  6
CONTINUOUS
 10
4.377120
 20
8.097320
  0
SEQEND
  8
0
  0
POLYLINE
  8
0
  6
CONTINUOUS
 66
     1
 40
0.014080
 41
0.014080
  0
VERTEX
  8
0
  6
CONTINUOUS
 10
4.377120
 20
8.097320
  0
VERTEX
  8
0
  6
CONTINUOUS
 10
4.444000
 20
8.078400
  0
SEQEND
  8
0
  0
POLYLINE
  8
0
  6
CONTINUOUS
 66
     1
 40
0.014080
 41
0.014080
  0
VERTEX
  8
0
  6
CONTINUOUS
 10
4.444000
 20
8.078400
  0
VERTEX
  8
0
  6
CONTINUOUS
 10
4.514400
 20
8.070920
  0
SEQEND
  8
0
  0
POLYLINE
  8
0
  6
CONTINUOUS
 66
     1
 40
0.014080
 41
0.014080
  0
VERTEX
  8
0
  6
CONTINUOUS
 10
4.514400
 20
8.070920
  0
VERTEX
  8
0
  6
CONTINUOUS
 10
4.588760
 20
8.077960
  0
SEQEND
  8
0
  0
POLYLINE
  8
0
  6
CONTINUOUS
 66
     1
 40
0.014080
 41
0.014080
  0
VERTEX
  8
0
  6
CONTINUOUS
 10
4.588760
 20
8.077960
  0
VERTEX
  8
0
  6
CONTINUOUS
 10
4.627920
 20
8.088080
  0
SEQEND
  8
0
  0
POLYLINE
  8
0
  6
CONTINUOUS
 66
     1
 40
0.014080
 41
0.014080
  0
VERTEX
  8
0
  6
CONTINUOUS
 10
4.627920
 20
8.088080
  0
VERTEX
  8
0
  6
CONTINUOUS
 10
4.667960
 20
8.103480
  0
SEQEND
  8
0
  0
POLYLINE
  8
0
  6
CONTINUOUS
 66
     1
 40
0.014080
 41
0.014080
  0
VERTEX
  8
0
  6
CONTINUOUS
 10
4.667960
 20
8.103480
  0
VERTEX
  8
0
  6
CONTINUOUS
 10
4.709320
 20
8.124160
  0
SEQEND
  8
0
  0
POLYLINE
  8
0
  6
CONTINUOUS
 66
     1
 40
0.014080
 41
0.014080
  0
VERTEX
  8
0
  6
CONTINUOUS
 10
4.709320
 20
8.124160
  0
VERTEX
  8
0
  6
CONTINUOUS
 10
4.752440
 20
8.150120
  0
SEQEND
  8
0
  0
POLYLINE
  8
0
  6
CONTINUOUS
 66
     1
 40
0.014080
 41
0.014080
  0
VERTEX
  8
0
  6
CONTINUOUS
 10
4.752440
 20
8.150120
  0
VERTEX
  8
0
  6
CONTINUOUS
 10
4.796880
 20
8.182680
  0
SEQEND
  8
0
  0
POLYLINE
  8
0
  6
CONTINUOUS
 66
     1
 40
0.014080
 41
0.014080
  0
VERTEX
  8
0
  6
CONTINUOUS
 10
4.796880
 20
8.182680
  0
VERTEX
  8
0
  6
CONTINUOUS
 10
4.842640
 20
8.221840
  0
SEQEND
  8
0
  0
POLYLINE
  8
0
  6
CONTINUOUS
 66
     1
 40
0.014080
 41
0.014080
  0
VERTEX
  8
0
  6
CONTINUOUS
 10
4.842640
 20
8.221840
  0
VERTEX
  8
0
  6
CONTINUOUS
 10
5.011600
 20
8.071360
  0
SEQEND
  8
0
  0
POLYLINE
  8
0
  6
CONTINUOUS
 66
     1
 40
0.014080
 41
0.014080
  0
VERTEX
  8
0
  6
CONTINUOUS
 10
5.011600
 20
8.071360
  0
VERTEX
  8
0
  6
CONTINUOUS
 10
4.471720
 20
7.467240
  0
SEQEND
  8
0
  0
POLYLINE
  8
0
  6
CONTINUOUS
 66
     1
 40
0.014080
 41
0.014080
  0
VERTEX
  8
0
  6
CONTINUOUS
 10
4.471720
 20
7.467240
  0
VERTEX
  8
0
  6
CONTINUOUS
 10
1.331440
 20
7.472520
  0
SEQEND
  8
0
  0
POLYLINE
  8
0
  6
CONTINUOUS
 66
     1
 40
0.014080
 41
0.014080
  0
VERTEX
  8
0
  6
CONTINUOUS
 10
1.331440
 20
7.472520
  0
VERTEX
  8
0
  6
CONTINUOUS
 10
0.929720
 20
7.831560
  0
SEQEND
  8
0
  0
SOLID
  8
0
 62
    15
 10
3.895320
 20
5.426960
 11
4.539480
 21
5.064840
 12
3.906320
 22
5.186280
 13
4.550040
 23
4.824600
  0
POLYLINE
  8
0
  6
CONTINUOUS
 66
     1
 40
0.000000
 41
0.000000
  0
VERTEX
  8
0
  6
CONTINUOUS
 10
3.895320
 20
5.426960
  0
VERTEX
  8
0
  6
CONTINUOUS
 10
4.539480
 20
5.064840
  0
VERTEX
  8
0
  6
CONTINUOUS
 10
4.550040
 20
4.824600
  0
VERTEX
  8
0
  6
CONTINUOUS
 10
3.906320
 20
5.186280
  0
VERTEX
  8
0
  6
CONTINUOUS
 10
3.895320
 20
5.426960
  0
SEQEND
  8
0
  0
SOLID
  8
0
 62
    15
 10
5.518920
 20
6.675240
 11
6.163080
 21
6.313120
 12
5.516720
 22
6.671280
 13
6.160880
 23
6.309600
  0
POLYLINE
  8
0
  6
CONTINUOUS
 66
     1
 40
0.000000
 41
0.000000
  0
VERTEX
  8
0
  6
CONTINUOUS
 10
5.518920
 20
6.675240
  0
VERTEX
  8
0
  6
CONTINUOUS
 10
6.163080
 20
6.313120
  0
VERTEX
  8
0
  6
CONTINUOUS
 10
6.160880
 20
6.309600
  0
VERTEX
  8
0
  6
CONTINUOUS
 10
5.516720
 20
6.671280
  0
VERTEX
  8
0
  6
CONTINUOUS
 10
5.518920
 20
6.675240
  0
SEQEND
  8
0
  0
SOLID
  8
0
 62
    15
 10
5.516720
 20
6.671280
 11
6.160880
 21
6.309600
 12
5.319600
 22
6.658960
 13
5.963320
 23
6.297280
  0
POLYLINE
  8
0
  6
CONTINUOUS
 66
     1
 40
0.000000
 41
0.000000
  0
VERTEX
  8
0
  6
CONTINUOUS
 10
5.516720
 20
6.671280
  0
VERTEX
  8
0
  6
CONTINUOUS
 10
6.160880
 20
6.309600
  0
VERTEX
  8
0
  6
CONTINUOUS
 10
5.963320
 20
6.297280
  0
VERTEX
  8
0
  6
CONTINUOUS
 10
5.319600
 20
6.658960
  0
VERTEX
  8
0
  6
CONTINUOUS
 10
5.516720
 20
6.671280
  0
SEQEND
  8
0
  0
SOLID
  8
0
 62
    15
 10
5.319600
 20
6.658960
 11
5.963320
 21
6.297280
 12
5.156360
 22
6.618920
 13
5.800520
 23
6.257240
  0
POLYLINE
  8
0
  6
CONTINUOUS
 66
     1
 40
0.000000
 41
0.000000
  0
VERTEX
  8
0
  6
CONTINUOUS
 10
5.319600
 20
6.658960
  0
VERTEX
  8
0
  6
CONTINUOUS
 10
5.963320
 20
6.297280
  0
VERTEX
  8
0
  6
CONTINUOUS
 10
5.800520
 20
6.257240
  0
VERTEX
  8
0
  6
CONTINUOUS
 10
5.156360
 20
6.618920
  0
VERTEX
  8
0
  6
CONTINUOUS
 10
5.319600
 20
6.658960
  0
SEQEND
  8
0
  0
SOLID
  8
0
 62
    15
 10
5.156360
 20
6.618920
 11
5.800520
 21
6.257240
 12
5.023040
 22
6.555560
 13
5.667200
 23
6.193440
  0
POLYLINE
  8
0
  6
CONTINUOUS
 66
     1
 40
0.000000
 41
0.000000
  0
VERTEX
  8
0
  6
CONTINUOUS
 10
5.156360
 20
6.618920
  0
VERTEX
  8
0
  6
CONTINUOUS
 10
5.800520
 20
6.257240
  0
VERTEX
  8
0
  6
CONTINUOUS
 10
5.667200
 20
6.193440
  0
VERTEX
  8
0
  6
CONTINUOUS
 10
5.023040
 20
6.555560
  0
VERTEX
  8
0
  6
CONTINUOUS
 10
5.156360
 20
6.618920
  0
SEQEND
  8
0
  0
SOLID
  8
0
 62
    15
 10
5.023040
 20
6.555560
 11
5.667200
 21
6.193440
 12
4.915240
 22
6.472400
 13
5.558960
 23
6.110720
  0
POLYLINE
  8
0
  6
CONTINUOUS
 66
     1
 40
0.000000
 41
0.000000
  0
VERTEX
  8
0
  6
CONTINUOUS
 10
5.023040
 20
6.555560
  0
VERTEX
  8
0
  6
CONTINUOUS
 10
5.667200
 20
6.193440
  0
VERTEX
  8
0
  6
CONTINUOUS
 10
5.558960
 20
6.110720
  0
VERTEX
  8
0
  6
CONTINUOUS
 10
4.915240
 20
6.472400
  0
VERTEX
  8
0
  6
CONTINUOUS
 10
5.023040
 20
6.555560
  0
SEQEND
  8
0
  0
SOLID
  8
0
 62
    15
 10
4.915240
 20
6.472400
 11
5.558960
 21
6.110720
 12
4.827680
 22
6.374280
 13
5.471400
 23
6.012160
  0
POLYLINE
  8
0
  6
CONTINUOUS
 66
     1
 40
0.000000
 41
0.000000
  0
VERTEX
  8
0
  6
CONTINUOUS
 10
4.915240
 20
6.472400
  0
VERTEX
  8
0
  6
CONTINUOUS
 10
5.558960
 20
6.110720
  0
VERTEX
  8
0
  6
CONTINUOUS
 10
5.471400
 20
6.012160
  0
VERTEX
  8
0
  6
CONTINUOUS
 10
4.827680
 20
6.374280
  0
VERTEX
  8
0
  6
CONTINUOUS
 10
4.915240
 20
6.472400
  0
SEQEND
  8
0
  0
SOLID
  8
0
 62
    15
 10
4.827680
 20
6.374280
 11
5.471400
 21
6.012160
 12
4.755960
 22
6.264280
 13
5.399680
 23
5.902600
  0
POLYLINE
  8
0
  6
CONTINUOUS
 66
     1
 40
0.000000
 41
0.000000
  0
VERTEX
  8
0
  6
CONTINUOUS
 10
4.827680
 20
6.374280
  0
VERTEX
  8
0
  6
CONTINUOUS
 10
5.471400
 20
6.012160
  0
VERTEX
  8
0
  6
CONTINUOUS
 10
5.399680
 20
5.902600
  0
VERTEX
  8
0
  6
CONTINUOUS
 10
4.755960
 20
6.264280
  0
VERTEX
  8
0
  6
CONTINUOUS
 10
4.827680
 20
6.374280
  0
SEQEND
  8
0
  0
SOLID
  8
0
 62
    15
 10
4.755960
 20
6.264280
 11
5.399680
 21
5.902600
 12
4.642000
 22
6.026680
 13
5.285720
 23
5.665000
  0
POLYLINE
  8
0
  6
CONTINUOUS
 66
     1
 40
0.000000
 41
0.000000
  0
VERTEX
  8
0
  6
CONTINUOUS
 10
4.755960
 20
6.264280
  0
VERTEX
  8
0
  6
CONTINUOUS
 10
5.399680
 20
5.902600
  0
VERTEX
  8
0
  6
CONTINUOUS
 10
5.285720
 20
5.665000
  0
VERTEX
  8
0
  6
CONTINUOUS
 10
4.642000
 20
6.026680
  0
VERTEX
  8
0
  6
CONTINUOUS
 10
4.755960
 20
6.264280
  0
SEQEND
  8
0
  0
SOLID
  8
0
 62
    15
 10
4.642000
 20
6.026680
 11
5.285720
 21
5.665000
 12
4.535960
 22
5.792160
 13
5.179680
 23
5.430040
  0
POLYLINE
  8
0
  6
CONTINUOUS
 66
     1
 40
0.000000
 41
0.000000
  0
VERTEX
  8
0
  6
CONTINUOUS
 10
4.642000
 20
6.026680
  0
VERTEX
  8
0
  6
CONTINUOUS
 10
5.285720
 20
5.665000
  0
VERTEX
  8
0
  6
CONTINUOUS
 10
5.179680
 20
5.430040
  0
VERTEX
  8
0
  6
CONTINUOUS
 10
4.535960
 20
5.792160
  0
VERTEX
  8
0
  6
CONTINUOUS
 10
4.642000
 20
6.026680
  0
SEQEND
  8
0
  0
SOLID
  8
0
 62
    15
 10
4.535960
 20
5.792160
 11
5.179680
 21
5.430040
 12
4.474360
 22
5.685680
 13
5.118080
 23
5.324000
  0
POLYLINE
  8
0
  6
CONTINUOUS
 66
     1
 40
0.000000
 41
0.000000
  0
VERTEX
  8
0
  6
CONTINUOUS
 10
4.535960
 20
5.792160
  0
VERTEX
  8
0
  6
CONTINUOUS
 10
5.179680
 20
5.430040
  0
VERTEX
  8
0
  6
CONTINUOUS
 10
5.118080
 20
5.324000
  0
VERTEX
  8
0
  6
CONTINUOUS
 10
4.474360
 20
5.685680
  0
VERTEX
  8
0
  6
CONTINUOUS
 10
4.535960
 20
5.792160
  0
SEQEND
  8
0
  0
SOLID
  8
0
 62
    15
 10
4.474360
 20
5.685680
 11
5.118080
 21
5.324000
 12
4.400880
 22
5.592400
 13
5.044600
 23
5.230280
  0
POLYLINE
  8
0
  6
CONTINUOUS
 66
     1
 40
0.000000
 41
0.000000
  0
VERTEX
  8
0
  6
CONTINUOUS
 10
4.474360
 20
5.685680
  0
VERTEX
  8
0
  6
CONTINUOUS
 10
5.118080
 20
5.324000
  0
VERTEX
  8
0
  6
CONTINUOUS
 10
5.044600
 20
5.230280
  0
VERTEX
  8
0
  6
CONTINUOUS
 10
4.400880
 20
5.592400
  0
VERTEX
  8
0
  6
CONTINUOUS
 10
4.474360
 20
5.685680
  0
SEQEND
  8
0
  0
SOLID
  8
0
 62
    15
 10
4.400880
 20
5.592400
 11
5.044600
 21
5.230280
 12
4.310680
 22
5.515400
 13
4.954840
 23
5.153720
  0
POLYLINE
  8
0
  6
CONTINUOUS
 66
     1
 40
0.000000
 41
0.000000
  0
VERTEX
  8
0
  6
CONTINUOUS
 10
4.400880
 20
5.592400
  0
VERTEX
  8
0
  6
CONTINUOUS
 10
5.044600
 20
5.230280
  0
VERTEX
  8
0
  6
CONTINUOUS
 10
4.954840
 20
5.153720
  0
VERTEX
  8
0
  6
CONTINUOUS
 10
4.310680
 20
5.515400
  0
VERTEX
  8
0
  6
CONTINUOUS
 10
4.400880
 20
5.592400
  0
SEQEND
  8
0
  0
SOLID
  8
0
 62
    15
 10
4.310680
 20
5.515400
 11
4.954840
 21
5.153720
 12
4.199800
 22
5.459960
 13
4.843520
 23
5.097840
  0
POLYLINE
  8
0
  6
CONTINUOUS
 66
     1
 40
0.000000
 41
0.000000
  0
VERTEX
  8
0
  6
CONTINUOUS
 10
4.310680
 20
5.515400
  0
VERTEX
  8
0
  6
CONTINUOUS
 10
4.954840
 20
5.153720
  0
VERTEX
  8
0
  6
CONTINUOUS
 10
4.843520
 20
5.097840
  0
VERTEX
  8
0
  6
CONTINUOUS
 10
4.199800
 20
5.459960
  0
VERTEX
  8
0
  6
CONTINUOUS
 10
4.310680
 20
5.515400
  0
SEQEND
  8
0
  0
SOLID
  8
0
 62
    15
 10
4.199800
 20
5.459960
 11
4.843520
 21
5.097840
 12
4.062520
 22
5.428720
 13
4.706680
 23
5.067040
  0
POLYLINE
  8
0
  6
CONTINUOUS
 66
     1
 40
0.000000
 41
0.000000
  0
VERTEX
  8
0
  6
CONTINUOUS
 10
4.199800
 20
5.459960
  0
VERTEX
  8
0
  6
CONTINUOUS
 10
4.843520
 20
5.097840
  0
VERTEX
  8
0
  6
CONTINUOUS
 10
4.706680
 20
5.067040
  0
VERTEX
  8
0
  6
CONTINUOUS
 10
4.062520
 20
5.428720
  0
VERTEX
  8
0
  6
CONTINUOUS
 10
4.199800
 20
5.459960
  0
SEQEND
  8
0
  0
SOLID
  8
0
 62
    15
 10
4.062520
 20
5.428720
 11
4.706680
 21
5.067040
 12
3.895320
 22
5.426960
 13
4.539480
 23
5.064840
  0
POLYLINE
  8
0
  6
CONTINUOUS
 66
     1
 40
0.000000
 41
0.000000
  0
VERTEX
  8
0
  6
CONTINUOUS
 10
4.062520
 20
5.428720
  0
VERTEX
  8
0
  6
CONTINUOUS
 10
4.706680
 20
5.067040
  0
VERTEX
  8
0
  6
CONTINUOUS
 10
4.539480
 20
5.064840
  0
VERTEX
  8
0
  6
CONTINUOUS
 10
3.895320
 20
5.426960
  0
VERTEX
  8
0
  6
CONTINUOUS
 10
4.062520
 20
5.428720
  0
SEQEND
  8
0
  0
SOLID
  8
0
 62
    15
 10
5.564240
 20
7.311920
 11
6.208400
 21
6.950240
 12
5.518920
 22
6.675240
 13
6.163080
 23
6.313120
  0
POLYLINE
  8
0
  6
CONTINUOUS
 66
     1
 40
0.000000
 41
0.000000
  0
VERTEX
  8
0
  6
CONTINUOUS
 10
5.564240
 20
7.311920
  0
VERTEX
  8
0
  6
CONTINUOUS
 10
6.208400
 20
6.950240
  0
VERTEX
  8
0
  6
CONTINUOUS
 10
6.163080
 20
6.313120
  0
VERTEX
  8
0
  6
CONTINUOUS
 10
5.518920
 20
6.675240
  0
VERTEX
  8
0
  6
CONTINUOUS
 10
5.564240
 20
7.311920
  0
SEQEND
  8
0
  0
SOLID
  8
0
 62
    15
 10
3.906320
 20
5.186280
 11
4.550040
 21
4.824600
 12
3.661680
 22
5.157680
 13
4.305840
 23
4.796000
  0
POLYLINE
  8
0
  6
CONTINUOUS
 66
     1
 40
0.000000
 41
0.000000
  0
VERTEX
  8
0
  6
CONTINUOUS
 10
3.906320
 20
5.186280
  0
VERTEX
  8
0
  6
CONTINUOUS
 10
4.550040
 20
4.824600
  0
VERTEX
  8
0
  6
CONTINUOUS
 10
4.305840
 20
4.796000
  0
VERTEX
  8
0
  6
CONTINUOUS
 10
3.661680
 20
5.157680
  0
VERTEX
  8
0
  6
CONTINUOUS
 10
3.906320
 20
5.186280
  0
SEQEND
  8
0
  0
SOLID
  8
0
 62
    15
 10
3.661680
 20
5.157680
 11
4.305840
 21
4.796000
 12
3.657720
 22
5.150640
 13
4.301440
 23
4.788960
  0
POLYLINE
  8
0
  6
CONTINUOUS
 66
     1
 40
0.000000
 41
0.000000
  0
VERTEX
  8
0
  6
CONTINUOUS
 10
3.661680
 20
5.157680
  0
VERTEX
  8
0
  6
CONTINUOUS
 10
4.305840
 20
4.796000
  0
VERTEX
  8
0
  6
CONTINUOUS
 10
4.301440
 20
4.788960
  0
VERTEX
  8
0
  6
CONTINUOUS
 10
3.657720
 20
5.150640
  0
VERTEX
  8
0
  6
CONTINUOUS
 10
3.661680
 20
5.157680
  0
SEQEND
  8
0
  0
SOLID
  8
0
 62
    15
 10
3.657720
 20
5.150640
 11
4.301440
 21
4.788960
 12
3.648040
 22
5.071880
 13
4.291760
 23
4.709760
  0
POLYLINE
  8
0
  6
CONTINUOUS
 66
     1
 40
0.000000
 41
0.000000
  0
VERTEX
  8
0
  6
CONTINUOUS
 10
3.657720
 20
5.150640
  0
VERTEX
  8
0
  6
CONTINUOUS
 10
4.301440
 20
4.788960
  0
VERTEX
  8
0
  6
CONTINUOUS
 10
4.291760
 20
4.709760
  0
VERTEX
  8
0
  6
CONTINUOUS
 10
3.648040
 20
5.071880
  0
VERTEX
  8
0
  6
CONTINUOUS
 10
3.657720
 20
5.150640
  0
SEQEND
  8
0
  0
SOLID
  8
0
 62
    15
 10
3.648040
 20
5.071880
 11
4.291760
 21
4.709760
 12
3.624720
 22
5.010720
 13
4.268440
 23
4.648600
  0
POLYLINE
  8
0
  6
CONTINUOUS
 66
     1
 40
0.000000
 41
0.000000
  0
VERTEX
  8
0
  6
CONTINUOUS
 10
3.648040
 20
5.071880
  0
VERTEX
  8
0
  6
CONTINUOUS
 10
4.291760
 20
4.709760
  0
VERTEX
  8
0
  6
CONTINUOUS
 10
4.268440
 20
4.648600
  0
VERTEX
  8
0
  6
CONTINUOUS
 10
3.624720
 20
5.010720
  0
VERTEX
  8
0
  6
CONTINUOUS
 10
3.648040
 20
5.071880
  0
SEQEND
  8
0
  0
SOLID
  8
0
 62
    15
 10
3.624720
 20
5.010720
 11
4.268440
 21
4.648600
 12
3.589520
 22
4.964080
 13
4.233680
 23
4.602400
  0
POLYLINE
  8
0
  6
CONTINUOUS
 66
     1
 40
0.000000
 41
0.000000
  0
VERTEX
  8
0
  6
CONTINUOUS
 10
3.624720
 20
5.010720
  0
VERTEX
  8
0
  6
CONTINUOUS
 10
4.268440
 20
4.648600
  0
VERTEX
  8
0
  6
CONTINUOUS
 10
4.233680
 20
4.602400
  0
VERTEX
  8
0
  6
CONTINUOUS
 10
3.589520
 20
4.964080
  0
VERTEX
  8
0
  6
CONTINUOUS
 10
3.624720
 20
5.010720
  0
SEQEND
  8
0
  0
SOLID
  8
0
 62
    15
 10
3.589520
 20
4.964080
 11
4.233680
 21
4.602400
 12
3.544640
 22
4.930200
 13
4.188800
 23
4.568080
  0
POLYLINE
  8
0
  6
CONTINUOUS
 66
     1
 40
0.000000
 41
0.000000
  0
VERTEX
  8
0
  6
CONTINUOUS
 10
3.589520
 20
4.964080
  0
VERTEX
  8
0
  6
CONTINUOUS
 10
4.233680
 20
4.602400
  0
VERTEX
  8
0
  6
CONTINUOUS
 10
4.188800
 20
4.568080
  0
VERTEX
  8
0
  6
CONTINUOUS
 10
3.544640
 20
4.930200
  0
VERTEX
  8
0
  6
CONTINUOUS
 10
3.589520
 20
4.964080
  0
SEQEND
  8
0
  0
SOLID
  8
0
 62
    15
 10
3.544640
 20
4.930200
 11
4.188800
 21
4.568080
 12
3.432440
 22
4.886200
 13
4.076600
 23
4.524080
  0
POLYLINE
  8
0
  6
CONTINUOUS
 66
     1
 40
0.000000
 41
0.000000
  0
VERTEX
  8
0
  6
CONTINUOUS
 10
3.544640
 20
4.930200
  0
VERTEX
  8
0
  6
CONTINUOUS
 10
4.188800
 20
4.568080
  0
VERTEX
  8
0
  6
CONTINUOUS
 10
4.076600
 20
4.524080
  0
VERTEX
  8
0
  6
CONTINUOUS
 10
3.432440
 20
4.886200
  0
VERTEX
  8
0
  6
CONTINUOUS
 10
3.544640
 20
4.930200
  0
SEQEND
  8
0
  0
SOLID
  8
0
 62
    15
 10
3.432440
 20
4.886200
 11
4.076600
 21
4.524080
 12
3.303080
 22
4.855840
 13
3.947240
 23
4.493720
  0
POLYLINE
  8
0
  6
CONTINUOUS
 66
     1
 40
0.000000
 41
0.000000
  0
VERTEX
  8
0
  6
CONTINUOUS
 10
3.432440
 20
4.886200
  0
VERTEX
  8
0
  6
CONTINUOUS
 10
4.076600
 20
4.524080
  0
VERTEX
  8
0
  6
CONTINUOUS
 10
3.947240
 20
4.493720
  0
VERTEX
  8
0
  6
CONTINUOUS
 10
3.303080
 20
4.855840
  0
VERTEX
  8
0
  6
CONTINUOUS
 10
3.432440
 20
4.886200
  0
SEQEND
  8
0
  0
SOLID
  8
0
 62
    15
 10
3.303080
 20
4.855840
 11
3.947240
 21
4.493720
 12
3.171080
 22
4.816240
 13
3.815240
 23
4.454560
  0
POLYLINE
  8
0
  6
CONTINUOUS
 66
     1
 40
0.000000
 41
0.000000
  0
VERTEX
  8
0
  6
CONTINUOUS
 10
3.303080
 20
4.855840
  0
VERTEX
  8
0
  6
CONTINUOUS
 10
3.947240
 20
4.493720
  0
VERTEX
  8
0
  6
CONTINUOUS
 10
3.815240
 20
4.454560
  0
VERTEX
  8
0
  6
CONTINUOUS
 10
3.171080
 20
4.816240
  0
VERTEX
  8
0
  6
CONTINUOUS
 10
3.303080
 20
4.855840
  0
SEQEND
  8
0
  0
SOLID
  8
0
 62
    15
 10
3.171080
 20
4.816240
 11
3.815240
 21
4.454560
 12
3.051400
 22
4.744520
 13
3.695120
 23
4.382400
  0
POLYLINE
  8
0
  6
CONTINUOUS
 66
     1
 40
0.000000
 41
0.000000
  0
VERTEX
  8
0
  6
CONTINUOUS
 10
3.171080
 20
4.816240
  0
VERTEX
  8
0
  6
CONTINUOUS
 10
3.815240
 20
4.454560
  0
VERTEX
  8
0
  6
CONTINUOUS
 10
3.695120
 20
4.382400
  0
VERTEX
  8
0
  6
CONTINUOUS
 10
3.051400
 20
4.744520
  0
VERTEX
  8
0
  6
CONTINUOUS
 10
3.171080
 20
4.816240
  0
SEQEND
  8
0
  0
SOLID
  8
0
 62
    15
 10
3.051400
 20
4.744520
 11
3.695120
 21
4.382400
 12
3.000800
 22
4.689520
 13
3.644520
 23
4.327400
  0
POLYLINE
  8
0
  6
CONTINUOUS
 66
     1
 40
0.000000
 41
0.000000
  0
VERTEX
  8
0
  6
CONTINUOUS
 10
3.051400
 20
4.744520
  0
VERTEX
  8
0
  6
CONTINUOUS
 10
3.695120
 20
4.382400
  0
VERTEX
  8
0
  6
CONTINUOUS
 10
3.644520
 20
4.327400
  0
VERTEX
  8
0
  6
CONTINUOUS
 10
3.000800
 20
4.689520
  0
VERTEX
  8
0
  6
CONTINUOUS
 10
3.051400
 20
4.744520
  0
SEQEND
  8
0
  0
SOLID
  8
0
 62
    15
 10
3.000800
 20
4.689520
 11
3.644520
 21
4.327400
 12
2.958560
 22
4.617800
 13
3.602720
 23
4.255680
  0
POLYLINE
  8
0
  6
CONTINUOUS
 66
     1
 40
0.000000
 41
0.000000
  0
VERTEX
  8
0
  6
CONTINUOUS
 10
3.000800
 20
4.689520
  0
VERTEX
  8
0
  6
CONTINUOUS
 10
3.644520
 20
4.327400
  0
VERTEX
  8
0
  6
CONTINUOUS
 10
3.602720
 20
4.255680
  0
VERTEX
  8
0
  6
CONTINUOUS
 10
2.958560
 20
4.617800
  0
VERTEX
  8
0
  6
CONTINUOUS
 10
3.000800
 20
4.689520
  0
SEQEND
  8
0
  0
SOLID
  8
0
 62
    15
 10
2.958560
 20
4.617800
 11
3.602720
 21
4.255680
 12
2.926880
 22
4.526280
 13
3.571040
 23
4.164600
  0
POLYLINE
  8
0
  6
CONTINUOUS
 66
     1
 40
0.000000
 41
0.000000
  0
VERTEX
  8
0
  6
CONTINUOUS
 10
2.958560
 20
4.617800
  0
VERTEX
  8
0
  6
CONTINUOUS
 10
3.602720
 20
4.255680
  0
VERTEX
  8
0
  6
CONTINUOUS
 10
3.571040
 20
4.164600
  0
VERTEX
  8
0
  6
CONTINUOUS
 10
2.926880
 20
4.526280
  0
VERTEX
  8
0
  6
CONTINUOUS
 10
2.958560
 20
4.617800
  0
SEQEND
  8
0
  0
SOLID
  8
0
 62
    15
 10
2.926880
 20
4.526280
 11
3.571040
 21
4.164600
 12
2.907520
 22
4.412760
 13
3.551680
 23
4.051080
  0
POLYLINE
  8
0
  6
CONTINUOUS
 66
     1
 40
0.000000
 41
0.000000
  0
VERTEX
  8
0
  6
CONTINUOUS
 10
2.926880
 20
4.526280
  0
VERTEX
  8
0
  6
CONTINUOUS
 10
3.571040
 20
4.164600
  0
VERTEX
  8
0
  6
CONTINUOUS
 10
3.551680
 20
4.051080
  0
VERTEX
  8
0
  6
CONTINUOUS
 10
2.907520
 20
4.412760
  0
VERTEX
  8
0
  6
CONTINUOUS
 10
2.926880
 20
4.526280
  0
SEQEND
  8
0
  0
SOLID
  8
0
 62
    15
 10
2.907520
 20
4.412760
 11
3.551680
 21
4.051080
 12
2.680920
 22
4.412760
 13
3.325080
 23
4.050640
  0
POLYLINE
  8
0
  6
CONTINUOUS
 66
     1
 40
0.000000
 41
0.000000
  0
VERTEX
  8
0
  6
CONTINUOUS
 10
2.907520
 20
4.412760
  0
VERTEX
  8
0
  6
CONTINUOUS
 10
3.551680
 20
4.051080
  0
VERTEX
  8
0
  6
CONTINUOUS
 10
3.325080
 20
4.050640
  0
VERTEX
  8
0
  6
CONTINUOUS
 10
2.680920
 20
4.412760
  0
VERTEX
  8
0
  6
CONTINUOUS
 10
2.907520
 20
4.412760
  0
SEQEND
  8
0
  0
POLYLINE
  8
0
  6
CONTINUOUS
 66
     1
 40
0.000000
 41
0.000000
  0
VERTEX
  8
0
  6
CONTINUOUS
 10
5.564240
 20
7.311920
  0
VERTEX
  8
0
  6
CONTINUOUS
 10
5.518920
 20
6.675240
  0
VERTEX
  8
0
  6
CONTINUOUS
 10
5.516720
 20
6.671280
  0
VERTEX
  8
0
  6
CONTINUOUS
 10
5.319600
 20
6.658960
  0
VERTEX
  8
0
  6
CONTINUOUS
 10
5.156360
 20
6.618920
  0
VERTEX
  8
0
  6
CONTINUOUS
 10
5.023040
 20
6.555560
  0
VERTEX
  8
0
  6
CONTINUOUS
 10
4.915240
 20
6.472400
  0
VERTEX
  8
0
  6
CONTINUOUS
 10
4.827680
 20
6.374280
  0
VERTEX
  8
0
  6
CONTINUOUS
 10
4.755960
 20
6.264280
  0
VERTEX
  8
0
  6
CONTINUOUS
 10
4.642000
 20
6.026680
  0
VERTEX
  8
0
  6
CONTINUOUS
 10
4.535960
 20
5.792160
  0
VERTEX
  8
0
  6
CONTINUOUS
 10
4.474360
 20
5.685680
  0
VERTEX
  8
0
  6
CONTINUOUS
 10
4.400880
 20
5.592400
  0
VERTEX
  8
0
  6
CONTINUOUS
 10
4.310680
 20
5.515400
  0
VERTEX
  8
0
  6
CONTINUOUS
 10
4.199800
 20
5.459960
  0
VERTEX
  8
0
  6
CONTINUOUS
 10
4.062520
 20
5.428720
  0
VERTEX
  8
0
  6
CONTINUOUS
 10
3.895320
 20
5.426960
  0
VERTEX
  8
0
  6
CONTINUOUS
 10
3.906320
 20
5.186280
  0
VERTEX
  8
0
  6
CONTINUOUS
 10
3.661680
 20
5.157680
  0
VERTEX
  8
0
  6
CONTINUOUS
 10
3.657720
 20
5.150640
  0
VERTEX
  8
0
  6
CONTINUOUS
 10
3.648040
 20
5.071880
  0
VERTEX
  8
0
  6
CONTINUOUS
 10
3.624720
 20
5.010720
  0
VERTEX
  8
0
  6
CONTINUOUS
 10
3.589520
 20
4.964080
  0
VERTEX
  8
0
  6
CONTINUOUS
 10
3.544640
 20
4.930200
  0
VERTEX
  8
0
  6
CONTINUOUS
 10
3.432440
 20
4.886200
  0
VERTEX
  8
0
  6
CONTINUOUS
 10
3.303080
 20
4.855840
  0
VERTEX
  8
0
  6
CONTINUOUS
 10
3.171080
 20
4.816240
  0
VERTEX
  8
0
  6
CONTINUOUS
 10
3.051400
 20
4.744520
  0
VERTEX
  8
0
  6
CONTINUOUS
 10
3.000800
 20
4.689520
  0
VERTEX
  8
0
  6
CONTINUOUS
 10
2.958560
 20
4.617800
  0
VERTEX
  8
0
  6
CONTINUOUS
 10
2.926880
 20
4.526280
  0
VERTEX
  8
0
  6
CONTINUOUS
 10
2.907520
 20
4.412760
  0
VERTEX
  8
0
  6
CONTINUOUS
 10
2.680920
 20
4.412760
  0
VERTEX
  8
0
  6
CONTINUOUS
 10
2.680920
 20
5.222360
  0
VERTEX
  8
0
  6
CONTINUOUS
 10
5.025680
 20
7.311920
  0
VERTEX
  8
0
  6
CONTINUOUS
 10
5.564240
 20
7.311920
  0
SEQEND
  8
0
  0
TEXT
  8
0
 10
4.087600
 20
4.239400
 40
0.138048
  1
BA  54
 41
1.000000
  7
SN0
 71
     0
 72
     5
 11
4.585613
 21
4.239400
  0
TEXT
  8
0
 10
3.885640
 20
4.048000
 40
0.138048
  1
7/8" x 4-1/8"
 41
1.000000
  7
SN0
 71
     0
 72
     5
 11
4.786819
 21
4.048000
  0
ENDSEC
  0
EOF
