  0
SECTION
  2
HEADER
  9
$ACADVER
  1
AC1006
  9
$EXTMIN
 10
2.778160
 20
2.591160
  9
$EXTMAX
 10
6.684920
 20
4.472600
  9
$LTSCALE
 40
0.044000
  9
$PDMODE
 70
    35
  9
$PDSIZE
 40
0.035200
  0
ENDSEC
  0
SECTION
  2
TABLES
  0
TABLE
  2
LTYPE
 70
     9
  0
LTYPE
  2
CONTINUOUS
 70
    64
  3
Solid line
 72
    65
 73
     0
 40
0.000000
  0
LTYPE
  2
DASHED
 70
    64
  3
__ __ __ __ __ __ __ __ __ __ __ __ __ __ __
 72
    65
 73
     2
 40
0.000330
 49
0.000220
 49
-0.000110
  0
LTYPE
  2
HIDDEN
 70
    64
  3
 _ _ _ _ _ _ _ _ _ _ _ _ _ _ _ _ _ _ _ _ _ _
 72
    65
 73
     2
 40
0.000165
 49
0.000110
 49
-0.000055
  0
LTYPE
  2
CENTER
 70
    64
  3
____ _ ____ _ ____ _ ____ _ ____ _ ____ _ ____
 72
    65
 73
     4
 40
0.000880
 49
0.000550
 49
-0.000110
 49
0.000110
 49
-0.000110
  0
LTYPE
  2
PHANTOM
 70
    64
  3
_____ _ _ _____ _ _ _____ _ _ _____ _ _ ____
 72
    65
 73
     6
 40
0.001100
 49
0.000550
 49
-0.000110
 49
0.000110
 49
-0.000110
 49
0.000110
 49
-0.000110
  0
LTYPE
  2
DOT
 70
    64
  3
...............................................
 72
    65
 73
     2
 40
0.000110
 49
0.000000
 49
-0.000110
  0
LTYPE
  2
DASHDOT
 70
    64
  3
__ . __ . __ . __ . __ . __ . __ . __ . __ . __
 72
    65
 73
     4
 40
0.000440
 49
0.000220
 49
-0.000110
 49
0.000000
 49
-0.000110
  0
LTYPE
  2
BORDER
 70
    64
  3
__ __ . __ __ . __ __ . __ __ . __ __ . __ __
 72
    65
 73
     6
 40
0.000770
 49
0.000220
 49
-0.000110
 49
0.000220
 49
-0.000110
 49
0.000000
 49
-0.000110
  0
LTYPE
  2
DIVIDE
 70
    64
  3
__ . . __ . . __ . . __ . . __ . . __ . . __
 72
    65
 73
     6
 40
0.000550
 49
0.000220
 49
-0.000110
 49
0.000000
 49
-0.000110
 49
0.000000
 49
-0.000110
  0
LTYPE
  2
DOTDOT
 70
    64
  3
 . .  . .  . .  . .  . .  . . 
 72
    65
 73
     5
 40
0.000242
 49
-0.000110
 49
0.000000
 49
-0.000110
 49
0.000000
 49
-0.000110
  0
ENDTAB
  0
TABLE
  2
STYLE
 70
     2
  0
STYLE
 70
     0
  2
SN0
 40
0.000000
 41
0.000440
 50
0.000000
 71
     0
 42
0.000000
  3
ROMAND
  0
STYLE
 70
    68
  2
SV0
 40
0.000000
 41
0.000440
 50
0.000000
 71
     0
 42
0.000000
  3
ROMAND
  0
ENDTAB
  0
TABLE
  2
LAYER
 70
     3
  0
LAYER
  2
FOREGROUND
 70
    64
 62
     7
  6
CONTINUOUS
  0
LAYER
  2
BACKGROUND
 70
    65
 62
    -7
  6
CONTINUOUS
  0
LAYER
  2
0
 70
    64
 62
     7
  6
CONTINUOUS
  0
ENDTAB
  0
ENDSEC
  0
SECTION
  2
ENTITIES
  0
POLYLINE
  8
FOREGROUND
  6
CONTINUOUS
 66
     1
 40
0.000000
 41
0.000000
  0
VERTEX
  8
FOREGROUND
  6
CONTINUOUS
 10
0.000000
 20
7.063760
  0
VERTEX
  8
FOREGROUND
  6
CONTINUOUS
 10
8.499920
 20
7.063760
  0
VERTEX
  8
FOREGROUND
  6
CONTINUOUS
 10
8.499920
 20
-3.936240
  0
VERTEX
  8
FOREGROUND
  6
CONTINUOUS
 10
0.000000
 20
-3.936240
  0
VERTEX
  8
FOREGROUND
  6
CONTINUOUS
 10
0.000000
 20
7.063760
  0
SEQEND
  8
0
  0
POLYLINE
  8
FOREGROUND
  6
CONTINUOUS
 66
     1
 40
0.000000
 41
0.000000
  0
VERTEX
  8
FOREGROUND
  6
CONTINUOUS
 10
0.000000
 20
7.063760
  0
VERTEX
  8
FOREGROUND
  6
CONTINUOUS
 10
8.499920
 20
7.063760
  0
VERTEX
  8
FOREGROUND
  6
CONTINUOUS
 10
8.499920
 20
-3.936240
  0
VERTEX
  8
FOREGROUND
  6
CONTINUOUS
 10
0.000000
 20
-3.936240
  0
VERTEX
  8
FOREGROUND
  6
CONTINUOUS
 10
0.000000
 20
7.063760
  0
SEQEND
  8
0
  0
SOLID
  8
0
 62
     7
 10
3.518680
 20
3.638360
 11
4.161520
 21
4.006640
 12
3.567080
 22
3.573680
 13
4.210360
 23
3.941960
  0
POLYLINE
  8
0
  6
CONTINUOUS
 66
     1
 40
0.000000
 41
0.000000
  0
VERTEX
  8
0
  6
CONTINUOUS
 10
3.518680
 20
3.638360
  0
VERTEX
  8
0
  6
CONTINUOUS
 10
4.161520
 20
4.006640
  0
VERTEX
  8
0
  6
CONTINUOUS
 10
4.210360
 20
3.941960
  0
VERTEX
  8
0
  6
CONTINUOUS
 10
3.567080
 20
3.573680
  0
VERTEX
  8
0
  6
CONTINUOUS
 10
3.518680
 20
3.638360
  0
SEQEND
  8
0
  0
SOLID
  8
0
 62
    15
 10
2.778600
 20
4.103440
 11
3.421880
 21
4.471720
 12
3.156120
 22
4.103440
 13
3.798960
 23
4.471720
  0
POLYLINE
  8
0
  6
CONTINUOUS
 66
     1
 40
0.000000
 41
0.000000
  0
VERTEX
  8
0
  6
CONTINUOUS
 10
2.778600
 20
4.103440
  0
VERTEX
  8
0
  6
CONTINUOUS
 10
3.421880
 20
4.471720
  0
VERTEX
  8
0
  6
CONTINUOUS
 10
3.798960
 20
4.471720
  0
VERTEX
  8
0
  6
CONTINUOUS
 10
3.156120
 20
4.103440
  0
VERTEX
  8
0
  6
CONTINUOUS
 10
2.778600
 20
4.103440
  0
SEQEND
  8
0
  0
SOLID
  8
0
 62
     7
 10
3.156120
 20
4.103440
 11
3.798960
 21
4.471720
 12
3.156120
 22
3.746160
 13
3.798960
 23
4.114440
  0
POLYLINE
  8
0
  6
CONTINUOUS
 66
     1
 40
0.000000
 41
0.000000
  0
VERTEX
  8
0
  6
CONTINUOUS
 10
3.156120
 20
4.103440
  0
VERTEX
  8
0
  6
CONTINUOUS
 10
3.798960
 20
4.471720
  0
VERTEX
  8
0
  6
CONTINUOUS
 10
3.798960
 20
4.114440
  0
VERTEX
  8
0
  6
CONTINUOUS
 10
3.156120
 20
3.746160
  0
VERTEX
  8
0
  6
CONTINUOUS
 10
3.156120
 20
4.103440
  0
SEQEND
  8
0
  0
SOLID
  8
0
 62
    15
 10
3.156120
 20
3.746160
 11
3.798960
 21
4.114440
 12
3.217280
 22
3.746160
 13
3.860560
 23
4.114440
  0
POLYLINE
  8
0
  6
CONTINUOUS
 66
     1
 40
0.000000
 41
0.000000
  0
VERTEX
  8
0
  6
CONTINUOUS
 10
3.156120
 20
3.746160
  0
VERTEX
  8
0
  6
CONTINUOUS
 10
3.798960
 20
4.114440
  0
VERTEX
  8
0
  6
CONTINUOUS
 10
3.860560
 20
4.114440
  0
VERTEX
  8
0
  6
CONTINUOUS
 10
3.217280
 20
3.746160
  0
VERTEX
  8
0
  6
CONTINUOUS
 10
3.156120
 20
3.746160
  0
SEQEND
  8
0
  0
SOLID
  8
0
 62
    15
 10
3.217280
 20
3.746160
 11
3.860560
 21
4.114440
 12
3.294720
 22
3.742200
 13
3.937560
 23
4.110480
  0
POLYLINE
  8
0
  6
CONTINUOUS
 66
     1
 40
0.000000
 41
0.000000
  0
VERTEX
  8
0
  6
CONTINUOUS
 10
3.217280
 20
3.746160
  0
VERTEX
  8
0
  6
CONTINUOUS
 10
3.860560
 20
4.114440
  0
VERTEX
  8
0
  6
CONTINUOUS
 10
3.937560
 20
4.110480
  0
VERTEX
  8
0
  6
CONTINUOUS
 10
3.294720
 20
3.742200
  0
VERTEX
  8
0
  6
CONTINUOUS
 10
3.217280
 20
3.746160
  0
SEQEND
  8
0
  0
SOLID
  8
0
 62
    15
 10
3.294720
 20
3.742200
 11
3.937560
 21
4.110480
 12
3.358960
 22
3.731640
 13
4.001800
 23
4.099920
  0
POLYLINE
  8
0
  6
CONTINUOUS
 66
     1
 40
0.000000
 41
0.000000
  0
VERTEX
  8
0
  6
CONTINUOUS
 10
3.294720
 20
3.742200
  0
VERTEX
  8
0
  6
CONTINUOUS
 10
3.937560
 20
4.110480
  0
VERTEX
  8
0
  6
CONTINUOUS
 10
4.001800
 20
4.099920
  0
VERTEX
  8
0
  6
CONTINUOUS
 10
3.358960
 20
3.731640
  0
VERTEX
  8
0
  6
CONTINUOUS
 10
3.294720
 20
3.742200
  0
SEQEND
  8
0
  0
SOLID
  8
0
 62
     7
 10
3.358960
 20
3.731640
 11
4.001800
 21
4.099920
 12
3.411320
 22
3.714920
 13
4.054160
 23
4.083200
  0
POLYLINE
  8
0
  6
CONTINUOUS
 66
     1
 40
0.000000
 41
0.000000
  0
VERTEX
  8
0
  6
CONTINUOUS
 10
3.358960
 20
3.731640
  0
VERTEX
  8
0
  6
CONTINUOUS
 10
4.001800
 20
4.099920
  0
VERTEX
  8
0
  6
CONTINUOUS
 10
4.054160
 20
4.083200
  0
VERTEX
  8
0
  6
CONTINUOUS
 10
3.411320
 20
3.714920
  0
VERTEX
  8
0
  6
CONTINUOUS
 10
3.358960
 20
3.731640
  0
SEQEND
  8
0
  0
SOLID
  8
0
 62
     7
 10
3.411320
 20
3.714920
 11
4.054160
 21
4.083200
 12
3.454000
 22
3.693360
 13
4.097280
 23
4.061640
  0
POLYLINE
  8
0
  6
CONTINUOUS
 66
     1
 40
0.000000
 41
0.000000
  0
VERTEX
  8
0
  6
CONTINUOUS
 10
3.411320
 20
3.714920
  0
VERTEX
  8
0
  6
CONTINUOUS
 10
4.054160
 20
4.083200
  0
VERTEX
  8
0
  6
CONTINUOUS
 10
4.097280
 20
4.061640
  0
VERTEX
  8
0
  6
CONTINUOUS
 10
3.454000
 20
3.693360
  0
VERTEX
  8
0
  6
CONTINUOUS
 10
3.411320
 20
3.714920
  0
SEQEND
  8
0
  0
SOLID
  8
0
 62
     7
 10
3.454000
 20
3.693360
 11
4.097280
 21
4.061640
 12
3.489200
 22
3.667400
 13
4.132480
 23
4.036120
  0
POLYLINE
  8
0
  6
CONTINUOUS
 66
     1
 40
0.000000
 41
0.000000
  0
VERTEX
  8
0
  6
CONTINUOUS
 10
3.454000
 20
3.693360
  0
VERTEX
  8
0
  6
CONTINUOUS
 10
4.097280
 20
4.061640
  0
VERTEX
  8
0
  6
CONTINUOUS
 10
4.132480
 20
4.036120
  0
VERTEX
  8
0
  6
CONTINUOUS
 10
3.489200
 20
3.667400
  0
VERTEX
  8
0
  6
CONTINUOUS
 10
3.454000
 20
3.693360
  0
SEQEND
  8
0
  0
SOLID
  8
0
 62
     7
 10
3.489200
 20
3.667400
 11
4.132480
 21
4.036120
 12
3.518680
 22
3.638360
 13
4.161520
 23
4.006640
  0
POLYLINE
  8
0
  6
CONTINUOUS
 66
     1
 40
0.000000
 41
0.000000
  0
VERTEX
  8
0
  6
CONTINUOUS
 10
3.489200
 20
3.667400
  0
VERTEX
  8
0
  6
CONTINUOUS
 10
4.132480
 20
4.036120
  0
VERTEX
  8
0
  6
CONTINUOUS
 10
4.161520
 20
4.006640
  0
VERTEX
  8
0
  6
CONTINUOUS
 10
3.518680
 20
3.638360
  0
VERTEX
  8
0
  6
CONTINUOUS
 10
3.489200
 20
3.667400
  0
SEQEND
  8
0
  0
SOLID
  8
0
 62
    15
 10
3.905440
 20
3.352800
 11
4.548280
 21
3.721080
 12
3.905440
 22
3.054040
 13
4.548280
 23
3.422320
  0
POLYLINE
  8
0
  6
CONTINUOUS
 66
     1
 40
0.000000
 41
0.000000
  0
VERTEX
  8
0
  6
CONTINUOUS
 10
3.905440
 20
3.352800
  0
VERTEX
  8
0
  6
CONTINUOUS
 10
4.548280
 20
3.721080
  0
VERTEX
  8
0
  6
CONTINUOUS
 10
4.548280
 20
3.422320
  0
VERTEX
  8
0
  6
CONTINUOUS
 10
3.905440
 20
3.054040
  0
VERTEX
  8
0
  6
CONTINUOUS
 10
3.905440
 20
3.352800
  0
SEQEND
  8
0
  0
SOLID
  8
0
 62
     7
 10
3.567080
 20
3.573680
 11
4.210360
 21
3.941960
 12
3.578520
 22
3.556960
 13
4.221360
 23
3.925240
  0
POLYLINE
  8
0
  6
CONTINUOUS
 66
     1
 40
0.000000
 41
0.000000
  0
VERTEX
  8
0
  6
CONTINUOUS
 10
3.567080
 20
3.573680
  0
VERTEX
  8
0
  6
CONTINUOUS
 10
4.210360
 20
3.941960
  0
VERTEX
  8
0
  6
CONTINUOUS
 10
4.221360
 20
3.925240
  0
VERTEX
  8
0
  6
CONTINUOUS
 10
3.578520
 20
3.556960
  0
VERTEX
  8
0
  6
CONTINUOUS
 10
3.567080
 20
3.573680
  0
SEQEND
  8
0
  0
SOLID
  8
0
 62
     7
 10
3.578520
 20
3.556960
 11
4.221360
 21
3.925240
 12
3.589960
 22
3.539800
 13
4.233240
 23
3.908520
  0
POLYLINE
  8
0
  6
CONTINUOUS
 66
     1
 40
0.000000
 41
0.000000
  0
VERTEX
  8
0
  6
CONTINUOUS
 10
3.578520
 20
3.556960
  0
VERTEX
  8
0
  6
CONTINUOUS
 10
4.221360
 20
3.925240
  0
VERTEX
  8
0
  6
CONTINUOUS
 10
4.233240
 20
3.908520
  0
VERTEX
  8
0
  6
CONTINUOUS
 10
3.589960
 20
3.539800
  0
VERTEX
  8
0
  6
CONTINUOUS
 10
3.578520
 20
3.556960
  0
SEQEND
  8
0
  0
SOLID
  8
0
 62
     7
 10
3.589960
 20
3.539800
 11
4.233240
 21
3.908520
 12
3.615040
 22
3.506360
 13
4.257880
 23
3.874640
  0
POLYLINE
  8
0
  6
CONTINUOUS
 66
     1
 40
0.000000
 41
0.000000
  0
VERTEX
  8
0
  6
CONTINUOUS
 10
3.589960
 20
3.539800
  0
VERTEX
  8
0
  6
CONTINUOUS
 10
4.233240
 20
3.908520
  0
VERTEX
  8
0
  6
CONTINUOUS
 10
4.257880
 20
3.874640
  0
VERTEX
  8
0
  6
CONTINUOUS
 10
3.615040
 20
3.506360
  0
VERTEX
  8
0
  6
CONTINUOUS
 10
3.589960
 20
3.539800
  0
SEQEND
  8
0
  0
SOLID
  8
0
 62
     7
 10
3.615040
 20
3.506360
 11
4.257880
 21
3.874640
 12
3.643200
 22
3.473360
 13
4.286040
 23
3.842080
  0
POLYLINE
  8
0
  6
CONTINUOUS
 66
     1
 40
0.000000
 41
0.000000
  0
VERTEX
  8
0
  6
CONTINUOUS
 10
3.615040
 20
3.506360
  0
VERTEX
  8
0
  6
CONTINUOUS
 10
4.257880
 20
3.874640
  0
VERTEX
  8
0
  6
CONTINUOUS
 10
4.286040
 20
3.842080
  0
VERTEX
  8
0
  6
CONTINUOUS
 10
3.643200
 20
3.473360
  0
VERTEX
  8
0
  6
CONTINUOUS
 10
3.615040
 20
3.506360
  0
SEQEND
  8
0
  0
SOLID
  8
0
 62
     7
 10
3.643200
 20
3.473360
 11
4.286040
 21
3.842080
 12
3.676640
 22
3.442560
 13
4.319920
 23
3.811280
  0
POLYLINE
  8
0
  6
CONTINUOUS
 66
     1
 40
0.000000
 41
0.000000
  0
VERTEX
  8
0
  6
CONTINUOUS
 10
3.643200
 20
3.473360
  0
VERTEX
  8
0
  6
CONTINUOUS
 10
4.286040
 20
3.842080
  0
VERTEX
  8
0
  6
CONTINUOUS
 10
4.319920
 20
3.811280
  0
VERTEX
  8
0
  6
CONTINUOUS
 10
3.676640
 20
3.442560
  0
VERTEX
  8
0
  6
CONTINUOUS
 10
3.643200
 20
3.473360
  0
SEQEND
  8
0
  0
SOLID
  8
0
 62
     7
 10
3.676640
 20
3.442560
 11
4.319920
 21
3.811280
 12
3.718000
 22
3.414840
 13
4.360840
 23
3.783120
  0
POLYLINE
  8
0
  6
CONTINUOUS
 66
     1
 40
0.000000
 41
0.000000
  0
VERTEX
  8
0
  6
CONTINUOUS
 10
3.676640
 20
3.442560
  0
VERTEX
  8
0
  6
CONTINUOUS
 10
4.319920
 20
3.811280
  0
VERTEX
  8
0
  6
CONTINUOUS
 10
4.360840
 20
3.783120
  0
VERTEX
  8
0
  6
CONTINUOUS
 10
3.718000
 20
3.414840
  0
VERTEX
  8
0
  6
CONTINUOUS
 10
3.676640
 20
3.442560
  0
SEQEND
  8
0
  0
SOLID
  8
0
 62
     7
 10
3.718000
 20
3.414840
 11
4.360840
 21
3.783120
 12
3.768160
 22
3.390200
 13
4.411440
 23
3.758480
  0
POLYLINE
  8
0
  6
CONTINUOUS
 66
     1
 40
0.000000
 41
0.000000
  0
VERTEX
  8
0
  6
CONTINUOUS
 10
3.718000
 20
3.414840
  0
VERTEX
  8
0
  6
CONTINUOUS
 10
4.360840
 20
3.783120
  0
VERTEX
  8
0
  6
CONTINUOUS
 10
4.411440
 20
3.758480
  0
VERTEX
  8
0
  6
CONTINUOUS
 10
3.768160
 20
3.390200
  0
VERTEX
  8
0
  6
CONTINUOUS
 10
3.718000
 20
3.414840
  0
SEQEND
  8
0
  0
SOLID
  8
0
 62
     7
 10
3.768160
 20
3.390200
 11
4.411440
 21
3.758480
 12
3.829760
 22
3.369960
 13
4.472600
 23
3.738680
  0
POLYLINE
  8
0
  6
CONTINUOUS
 66
     1
 40
0.000000
 41
0.000000
  0
VERTEX
  8
0
  6
CONTINUOUS
 10
3.768160
 20
3.390200
  0
VERTEX
  8
0
  6
CONTINUOUS
 10
4.411440
 20
3.758480
  0
VERTEX
  8
0
  6
CONTINUOUS
 10
4.472600
 20
3.738680
  0
VERTEX
  8
0
  6
CONTINUOUS
 10
3.829760
 20
3.369960
  0
VERTEX
  8
0
  6
CONTINUOUS
 10
3.768160
 20
3.390200
  0
SEQEND
  8
0
  0
SOLID
  8
0
 62
    15
 10
3.829760
 20
3.369960
 11
4.472600
 21
3.738680
 12
3.904120
 22
3.355440
 13
4.546960
 23
3.723720
  0
POLYLINE
  8
0
  6
CONTINUOUS
 66
     1
 40
0.000000
 41
0.000000
  0
VERTEX
  8
0
  6
CONTINUOUS
 10
3.829760
 20
3.369960
  0
VERTEX
  8
0
  6
CONTINUOUS
 10
4.472600
 20
3.738680
  0
VERTEX
  8
0
  6
CONTINUOUS
 10
4.546960
 20
3.723720
  0
VERTEX
  8
0
  6
CONTINUOUS
 10
3.904120
 20
3.355440
  0
VERTEX
  8
0
  6
CONTINUOUS
 10
3.829760
 20
3.369960
  0
SEQEND
  8
0
  0
SOLID
  8
0
 62
     7
 10
3.904120
 20
3.355440
 11
4.546960
 21
3.723720
 12
3.905440
 22
3.352800
 13
4.548280
 23
3.721080
  0
POLYLINE
  8
0
  6
CONTINUOUS
 66
     1
 40
0.000000
 41
0.000000
  0
VERTEX
  8
0
  6
CONTINUOUS
 10
3.904120
 20
3.355440
  0
VERTEX
  8
0
  6
CONTINUOUS
 10
4.546960
 20
3.723720
  0
VERTEX
  8
0
  6
CONTINUOUS
 10
4.548280
 20
3.721080
  0
VERTEX
  8
0
  6
CONTINUOUS
 10
3.905440
 20
3.352800
  0
VERTEX
  8
0
  6
CONTINUOUS
 10
3.904120
 20
3.355440
  0
SEQEND
  8
0
  0
POLYLINE
  8
0
  6
CONTINUOUS
 66
     1
 40
0.000000
 41
0.000000
  0
VERTEX
  8
0
  6
CONTINUOUS
 10
3.905440
 20
3.352800
  0
VERTEX
  8
0
  6
CONTINUOUS
 10
3.905440
 20
3.054040
  0
VERTEX
  8
0
  6
CONTINUOUS
 10
2.778600
 20
3.054040
  0
VERTEX
  8
0
  6
CONTINUOUS
 10
2.778600
 20
4.103440
  0
VERTEX
  8
0
  6
CONTINUOUS
 10
3.156120
 20
4.103440
  0
VERTEX
  8
0
  6
CONTINUOUS
 10
3.156120
 20
3.746160
  0
VERTEX
  8
0
  6
CONTINUOUS
 10
3.217280
 20
3.746160
  0
VERTEX
  8
0
  6
CONTINUOUS
 10
3.294720
 20
3.742200
  0
VERTEX
  8
0
  6
CONTINUOUS
 10
3.358960
 20
3.731640
  0
VERTEX
  8
0
  6
CONTINUOUS
 10
3.411320
 20
3.714920
  0
VERTEX
  8
0
  6
CONTINUOUS
 10
3.454000
 20
3.693360
  0
VERTEX
  8
0
  6
CONTINUOUS
 10
3.489200
 20
3.667400
  0
VERTEX
  8
0
  6
CONTINUOUS
 10
3.518680
 20
3.638360
  0
VERTEX
  8
0
  6
CONTINUOUS
 10
3.567080
 20
3.573680
  0
VERTEX
  8
0
  6
CONTINUOUS
 10
3.578520
 20
3.556960
  0
VERTEX
  8
0
  6
CONTINUOUS
 10
3.589960
 20
3.539800
  0
VERTEX
  8
0
  6
CONTINUOUS
 10
3.615040
 20
3.506360
  0
VERTEX
  8
0
  6
CONTINUOUS
 10
3.643200
 20
3.473360
  0
VERTEX
  8
0
  6
CONTINUOUS
 10
3.676640
 20
3.442560
  0
VERTEX
  8
0
  6
CONTINUOUS
 10
3.718000
 20
3.414840
  0
VERTEX
  8
0
  6
CONTINUOUS
 10
3.768160
 20
3.390200
  0
VERTEX
  8
0
  6
CONTINUOUS
 10
3.829760
 20
3.369960
  0
VERTEX
  8
0
  6
CONTINUOUS
 10
3.904120
 20
3.355440
  0
VERTEX
  8
0
  6
CONTINUOUS
 10
3.905440
 20
3.352800
  0
SEQEND
  8
0
  0
TEXT
  8
0
 10
3.413080
 20
2.826560
 40
0.138060
  1
BA  53
 41
1.000000
  7
SN0
 71
     0
 72
     5
 11
3.910801
 21
2.826560
  0
TEXT
  8
0
 10
3.091000
 20
2.635160
 40
0.138060
  1
1-1/16" x 1-1/8"
 41
1.000000
  7
SN0
 71
     0
 72
     5
 11
4.230602
 21
2.635160
  0
POLYLINE
  8
0
  6
CONTINUOUS
 66
     1
 40
0.014080
 41
0.014080
  0
VERTEX
  8
0
  6
CONTINUOUS
 10
6.536200
 20
3.613720
  0
VERTEX
  8
0
  6
CONTINUOUS
 10
6.536200
 20
3.314960
  0
VERTEX
  8
0
  6
CONTINUOUS
 10
5.409800
 20
3.314960
  0
VERTEX
  8
0
  6
CONTINUOUS
 10
5.409800
 20
4.364360
  0
VERTEX
  8
0
  6
CONTINUOUS
 10
5.786880
 20
4.364360
  0
VERTEX
  8
0
  6
CONTINUOUS
 10
5.786880
 20
4.007080
  0
VERTEX
  8
0
  6
CONTINUOUS
 10
5.888960
 20
4.006200
  0
VERTEX
  8
0
  6
CONTINUOUS
 10
5.943080
 20
4.000920
  0
VERTEX
  8
0
  6
CONTINUOUS
 10
5.989720
 20
3.992560
  0
VERTEX
  8
0
  6
CONTINUOUS
 10
6.030200
 20
3.980680
  0
VERTEX
  8
0
  6
CONTINUOUS
 10
6.064960
 20
3.965720
  0
VERTEX
  8
0
  6
CONTINUOUS
 10
6.103680
 20
3.941960
  0
VERTEX
  8
0
  6
CONTINUOUS
 10
6.120400
 20
3.928760
  0
VERTEX
  8
0
  6
CONTINUOUS
 10
6.149440
 20
3.899280
  0
VERTEX
  8
0
  6
CONTINUOUS
 10
6.174960
 20
3.868040
  0
VERTEX
  8
0
  6
CONTINUOUS
 10
6.245800
 20
3.767280
  0
VERTEX
  8
0
  6
CONTINUOUS
 10
6.273960
 20
3.734720
  0
VERTEX
  8
0
  6
CONTINUOUS
 10
6.307840
 20
3.703920
  0
VERTEX
  8
0
  6
CONTINUOUS
 10
6.327200
 20
3.689400
  0
VERTEX
  8
0
  6
CONTINUOUS
 10
6.360640
 20
3.669160
  0
VERTEX
  8
0
  6
CONTINUOUS
 10
6.398920
 20
3.651120
  0
VERTEX
  8
0
  6
CONTINUOUS
 10
6.443800
 20
3.635720
  0
VERTEX
  8
0
  6
CONTINUOUS
 10
6.496160
 20
3.622960
  0
VERTEX
  8
0
  6
CONTINUOUS
 10
6.534880
 20
3.616360
  0
VERTEX
  8
0
  6
CONTINUOUS
 10
6.536200
 20
3.613720
  0
SEQEND
  8
0
  0
TEXT
  8
0
 10
5.745960
 20
3.010480
 40
0.138060
  1
BA  53
 41
1.000000
  7
SN0
 71
     0
 72
     5
 11
6.243681
 21
3.010480
  0
TEXT
  8
0
 10
5.423880
 20
2.819080
 40
0.138060
  1
1-1/16" x 1-1/8"
 41
1.000000
  7
SN0
 71
     0
 72
     5
 11
6.563482
 21
2.819080
  0
ENDSEC
  0
EOF
