  0
SECTION
  2
HEADER
  9
$ACADVER
  1
AC1006
  9
$EXTMIN
 10
1.784200
 20
1.214400
  9
$EXTMAX
 10
6.367240
 20
6.924720
  9
$LTSCALE
 40
0.044000
  9
$PDMODE
 70
    35
  9
$PDSIZE
 40
0.035200
  0
ENDSEC
  0
SECTION
  2
TABLES
  0
TABLE
  2
LTYPE
 70
     9
  0
LTYPE
  2
CONTINUOUS
 70
    64
  3
Solid line
 72
    65
 73
     0
 40
0.000000
  0
LTYPE
  2
DASHED
 70
    64
  3
__ __ __ __ __ __ __ __ __ __ __ __ __ __ __
 72
    65
 73
     2
 40
0.000330
 49
0.000220
 49
-0.000110
  0
LTYPE
  2
HIDDEN
 70
    64
  3
 _ _ _ _ _ _ _ _ _ _ _ _ _ _ _ _ _ _ _ _ _ _
 72
    65
 73
     2
 40
0.000165
 49
0.000110
 49
-0.000055
  0
LTYPE
  2
CENTER
 70
    64
  3
____ _ ____ _ ____ _ ____ _ ____ _ ____ _ ____
 72
    65
 73
     4
 40
0.000880
 49
0.000550
 49
-0.000110
 49
0.000110
 49
-0.000110
  0
LTYPE
  2
PHANTOM
 70
    64
  3
_____ _ _ _____ _ _ _____ _ _ _____ _ _ ____
 72
    65
 73
     6
 40
0.001100
 49
0.000550
 49
-0.000110
 49
0.000110
 49
-0.000110
 49
0.000110
 49
-0.000110
  0
LTYPE
  2
DOT
 70
    64
  3
...............................................
 72
    65
 73
     2
 40
0.000110
 49
0.000000
 49
-0.000110
  0
LTYPE
  2
DASHDOT
 70
    64
  3
__ . __ . __ . __ . __ . __ . __ . __ . __ . __
 72
    65
 73
     4
 40
0.000440
 49
0.000220
 49
-0.000110
 49
0.000000
 49
-0.000110
  0
LTYPE
  2
BORDER
 70
    64
  3
__ __ . __ __ . __ __ . __ __ . __ __ . __ __
 72
    65
 73
     6
 40
0.000770
 49
0.000220
 49
-0.000110
 49
0.000220
 49
-0.000110
 49
0.000000
 49
-0.000110
  0
LTYPE
  2
DIVIDE
 70
    64
  3
__ . . __ . . __ . . __ . . __ . . __ . . __
 72
    65
 73
     6
 40
0.000550
 49
0.000220
 49
-0.000110
 49
0.000000
 49
-0.000110
 49
0.000000
 49
-0.000110
  0
LTYPE
  2
DOTDOT
 70
    64
  3
 . .  . .  . .  . .  . .  . . 
 72
    65
 73
     5
 40
0.000242
 49
-0.000110
 49
0.000000
 49
-0.000110
 49
0.000000
 49
-0.000110
  0
ENDTAB
  0
TABLE
  2
STYLE
 70
     2
  0
STYLE
 70
     0
  2
SN0
 40
0.000000
 41
0.000440
 50
0.000000
 71
     0
 42
0.000000
  3
ROMAND
  0
STYLE
 70
    68
  2
SV0
 40
0.000000
 41
0.000440
 50
0.000000
 71
     0
 42
0.000000
  3
ROMAND
  0
ENDTAB
  0
TABLE
  2
LAYER
 70
     3
  0
LAYER
  2
FOREGROUND
 70
    64
 62
     7
  6
CONTINUOUS
  0
LAYER
  2
BACKGROUND
 70
    65
 62
    -7
  6
CONTINUOUS
  0
LAYER
  2
0
 70
    64
 62
     7
  6
CONTINUOUS
  0
ENDTAB
  0
ENDSEC
  0
SECTION
  2
ENTITIES
  0
POLYLINE
  8
FOREGROUND
  6
CONTINUOUS
 66
     1
 40
0.000000
 41
0.000000
  0
VERTEX
  8
FOREGROUND
  6
CONTINUOUS
 10
0.000000
 20
8.139120
  0
VERTEX
  8
FOREGROUND
  6
CONTINUOUS
 10
8.499920
 20
8.139120
  0
VERTEX
  8
FOREGROUND
  6
CONTINUOUS
 10
8.499920
 20
-2.860880
  0
VERTEX
  8
FOREGROUND
  6
CONTINUOUS
 10
0.000000
 20
-2.860880
  0
VERTEX
  8
FOREGROUND
  6
CONTINUOUS
 10
0.000000
 20
8.139120
  0
SEQEND
  8
0
  0
POLYLINE
  8
FOREGROUND
  6
CONTINUOUS
 66
     1
 40
0.000000
 41
0.000000
  0
VERTEX
  8
FOREGROUND
  6
CONTINUOUS
 10
0.000000
 20
8.139120
  0
VERTEX
  8
FOREGROUND
  6
CONTINUOUS
 10
8.499920
 20
8.139120
  0
VERTEX
  8
FOREGROUND
  6
CONTINUOUS
 10
8.499920
 20
-2.860880
  0
VERTEX
  8
FOREGROUND
  6
CONTINUOUS
 10
0.000000
 20
-2.860880
  0
VERTEX
  8
FOREGROUND
  6
CONTINUOUS
 10
0.000000
 20
8.139120
  0
SEQEND
  8
0
  0
POLYLINE
  8
0
  6
CONTINUOUS
 66
     1
 40
0.014080
 41
0.014080
  0
VERTEX
  8
0
  6
CONTINUOUS
 10
2.913240
 20
6.891720
  0
VERTEX
  8
0
  6
CONTINUOUS
 10
1.790360
 20
6.167480
  0
VERTEX
  8
0
  6
CONTINUOUS
 10
2.137080
 20
5.701080
  0
VERTEX
  8
0
  6
CONTINUOUS
 10
5.175720
 20
5.701080
  0
VERTEX
  8
0
  6
CONTINUOUS
 10
6.361080
 20
6.567880
  0
VERTEX
  8
0
  6
CONTINUOUS
 10
6.175840
 20
6.912840
  0
VERTEX
  8
0
  6
CONTINUOUS
 10
6.171880
 20
6.918120
  0
VERTEX
  8
0
  6
CONTINUOUS
 10
5.689200
 20
6.617160
  0
VERTEX
  8
0
  6
CONTINUOUS
 10
5.682160
 20
6.614520
  0
VERTEX
  8
0
  6
CONTINUOUS
 10
5.650480
 20
6.596040
  0
VERTEX
  8
0
  6
CONTINUOUS
 10
5.612640
 20
6.578440
  0
VERTEX
  8
0
  6
CONTINUOUS
 10
5.592400
 20
6.570520
  0
VERTEX
  8
0
  6
CONTINUOUS
 10
5.548400
 20
6.558640
  0
VERTEX
  8
0
  6
CONTINUOUS
 10
5.525520
 20
6.555560
  0
VERTEX
  8
0
  6
CONTINUOUS
 10
5.502200
 20
6.554240
  0
VERTEX
  8
0
  6
CONTINUOUS
 10
5.467000
 20
6.557760
  0
VERTEX
  8
0
  6
CONTINUOUS
 10
5.443240
 20
6.563920
  0
VERTEX
  8
0
  6
CONTINUOUS
 10
5.408040
 20
6.579760
  0
VERTEX
  8
0
  6
CONTINUOUS
 10
5.385160
 20
6.595160
  0
VERTEX
  8
0
  6
CONTINUOUS
 10
5.362720
 20
6.614960
  0
VERTEX
  8
0
  6
CONTINUOUS
 10
5.341160
 20
6.639600
  0
VERTEX
  8
0
  6
CONTINUOUS
 10
5.338520
 20
6.639600
  0
VERTEX
  8
0
  6
CONTINUOUS
 10
5.022160
 20
6.468880
  0
VERTEX
  8
0
  6
CONTINUOUS
 10
5.007640
 20
6.216760
  0
VERTEX
  8
0
  6
CONTINUOUS
 10
4.997080
 20
6.216760
  0
VERTEX
  8
0
  6
CONTINUOUS
 10
4.995760
 20
6.215440
  0
VERTEX
  8
0
  6
CONTINUOUS
 10
4.951760
 20
6.280120
  0
VERTEX
  8
0
  6
CONTINUOUS
 10
4.913920
 20
6.327200
  0
VERTEX
  8
0
  6
CONTINUOUS
 10
4.856280
 20
6.389680
  0
VERTEX
  8
0
  6
CONTINUOUS
 10
4.839120
 20
6.403320
  0
VERTEX
  8
0
  6
CONTINUOUS
 10
4.804800
 20
6.421360
  0
VERTEX
  8
0
  6
CONTINUOUS
 10
4.777520
 20
6.431920
  0
VERTEX
  8
0
  6
CONTINUOUS
 10
4.728680
 20
6.446000
  0
VERTEX
  8
0
  6
CONTINUOUS
 10
4.671040
 20
6.457440
  0
VERTEX
  8
0
  6
CONTINUOUS
 10
4.579960
 20
6.469320
  0
VERTEX
  8
0
  6
CONTINUOUS
 10
4.473920
 20
6.477240
  0
VERTEX
  8
0
  6
CONTINUOUS
 10
4.352040
 20
6.482520
  0
VERTEX
  8
0
  6
CONTINUOUS
 10
4.178680
 20
6.485160
  0
VERTEX
  8
0
  6
CONTINUOUS
 10
4.064720
 20
6.484280
  0
VERTEX
  8
0
  6
CONTINUOUS
 10
3.831960
 20
6.476360
  0
VERTEX
  8
0
  6
CONTINUOUS
 10
3.753200
 20
6.475480
  0
VERTEX
  8
0
  6
CONTINUOUS
 10
3.674880
 20
6.477680
  0
VERTEX
  8
0
  6
CONTINUOUS
 10
3.596560
 20
6.483840
  0
VERTEX
  8
0
  6
CONTINUOUS
 10
3.557400
 20
6.488240
  0
VERTEX
  8
0
  6
CONTINUOUS
 10
3.518680
 20
6.494400
  0
VERTEX
  8
0
  6
CONTINUOUS
 10
3.440800
 20
6.511560
  0
VERTEX
  8
0
  6
CONTINUOUS
 10
3.402080
 20
6.522560
  0
VERTEX
  8
0
  6
CONTINUOUS
 10
3.363800
 20
6.535320
  0
VERTEX
  8
0
  6
CONTINUOUS
 10
3.287240
 20
6.567000
  0
VERTEX
  8
0
  6
CONTINUOUS
 10
3.249400
 20
6.586360
  0
VERTEX
  8
0
  6
CONTINUOUS
 10
3.193080
 20
6.620240
  0
VERTEX
  8
0
  6
CONTINUOUS
 10
3.137200
 20
6.659400
  0
VERTEX
  8
0
  6
CONTINUOUS
 10
3.081760
 20
6.705160
  0
VERTEX
  8
0
  6
CONTINUOUS
 10
3.027640
 20
6.757960
  0
VERTEX
  8
0
  6
CONTINUOUS
 10
2.991560
 20
6.796680
  0
VERTEX
  8
0
  6
CONTINUOUS
 10
2.938760
 20
6.861800
  0
VERTEX
  8
0
  6
CONTINUOUS
 10
2.921160
 20
6.885120
  0
VERTEX
  8
0
  6
CONTINUOUS
 10
2.913240
 20
6.891720
  0
SEQEND
  8
0
  0
SOLID
  8
0
 62
    15
 10
3.055360
 20
2.973520
 11
3.712280
 21
2.602160
 12
3.009160
 22
2.969120
 13
3.666080
 23
2.597320
  0
POLYLINE
  8
0
  6
CONTINUOUS
 66
     1
 40
0.000000
 41
0.000000
  0
VERTEX
  8
0
  6
CONTINUOUS
 10
3.055360
 20
2.973520
  0
VERTEX
  8
0
  6
CONTINUOUS
 10
3.712280
 20
2.602160
  0
VERTEX
  8
0
  6
CONTINUOUS
 10
3.666080
 20
2.597320
  0
VERTEX
  8
0
  6
CONTINUOUS
 10
3.009160
 20
2.969120
  0
VERTEX
  8
0
  6
CONTINUOUS
 10
3.055360
 20
2.973520
  0
SEQEND
  8
0
  0
SOLID
  8
0
 62
    15
 10
4.528480
 20
4.265800
 11
5.185400
 21
3.894000
 12
4.425520
 22
4.250400
 13
5.082440
 23
3.878600
  0
POLYLINE
  8
0
  6
CONTINUOUS
 66
     1
 40
0.000000
 41
0.000000
  0
VERTEX
  8
0
  6
CONTINUOUS
 10
4.528480
 20
4.265800
  0
VERTEX
  8
0
  6
CONTINUOUS
 10
5.185400
 20
3.894000
  0
VERTEX
  8
0
  6
CONTINUOUS
 10
5.082440
 20
3.878600
  0
VERTEX
  8
0
  6
CONTINUOUS
 10
4.425520
 20
4.250400
  0
VERTEX
  8
0
  6
CONTINUOUS
 10
4.528480
 20
4.265800
  0
SEQEND
  8
0
  0
SOLID
  8
0
 62
    15
 10
4.425520
 20
4.250400
 11
5.082440
 21
3.878600
 12
4.332240
 22
4.226640
 13
4.989160
 23
3.855280
  0
POLYLINE
  8
0
  6
CONTINUOUS
 66
     1
 40
0.000000
 41
0.000000
  0
VERTEX
  8
0
  6
CONTINUOUS
 10
4.425520
 20
4.250400
  0
VERTEX
  8
0
  6
CONTINUOUS
 10
5.082440
 20
3.878600
  0
VERTEX
  8
0
  6
CONTINUOUS
 10
4.989160
 20
3.855280
  0
VERTEX
  8
0
  6
CONTINUOUS
 10
4.332240
 20
4.226640
  0
VERTEX
  8
0
  6
CONTINUOUS
 10
4.425520
 20
4.250400
  0
SEQEND
  8
0
  0
SOLID
  8
0
 62
    15
 10
4.332240
 20
4.226640
 11
4.989160
 21
3.855280
 12
4.247320
 22
4.195840
 13
4.904240
 23
3.824040
  0
POLYLINE
  8
0
  6
CONTINUOUS
 66
     1
 40
0.000000
 41
0.000000
  0
VERTEX
  8
0
  6
CONTINUOUS
 10
4.332240
 20
4.226640
  0
VERTEX
  8
0
  6
CONTINUOUS
 10
4.989160
 20
3.855280
  0
VERTEX
  8
0
  6
CONTINUOUS
 10
4.904240
 20
3.824040
  0
VERTEX
  8
0
  6
CONTINUOUS
 10
4.247320
 20
4.195840
  0
VERTEX
  8
0
  6
CONTINUOUS
 10
4.332240
 20
4.226640
  0
SEQEND
  8
0
  0
SOLID
  8
0
 62
    15
 10
4.247320
 20
4.195840
 11
4.904240
 21
3.824040
 12
4.099480
 22
4.114000
 13
4.756400
 23
3.742640
  0
POLYLINE
  8
0
  6
CONTINUOUS
 66
     1
 40
0.000000
 41
0.000000
  0
VERTEX
  8
0
  6
CONTINUOUS
 10
4.247320
 20
4.195840
  0
VERTEX
  8
0
  6
CONTINUOUS
 10
4.904240
 20
3.824040
  0
VERTEX
  8
0
  6
CONTINUOUS
 10
4.756400
 20
3.742640
  0
VERTEX
  8
0
  6
CONTINUOUS
 10
4.099480
 20
4.114000
  0
VERTEX
  8
0
  6
CONTINUOUS
 10
4.247320
 20
4.195840
  0
SEQEND
  8
0
  0
SOLID
  8
0
 62
    15
 10
4.099480
 20
4.114000
 11
4.756400
 21
3.742640
 12
3.976720
 22
4.011480
 13
4.633640
 23
3.639680
  0
POLYLINE
  8
0
  6
CONTINUOUS
 66
     1
 40
0.000000
 41
0.000000
  0
VERTEX
  8
0
  6
CONTINUOUS
 10
4.099480
 20
4.114000
  0
VERTEX
  8
0
  6
CONTINUOUS
 10
4.756400
 20
3.742640
  0
VERTEX
  8
0
  6
CONTINUOUS
 10
4.633640
 20
3.639680
  0
VERTEX
  8
0
  6
CONTINUOUS
 10
3.976720
 20
4.011480
  0
VERTEX
  8
0
  6
CONTINUOUS
 10
4.099480
 20
4.114000
  0
SEQEND
  8
0
  0
SOLID
  8
0
 62
    15
 10
3.976720
 20
4.011480
 11
4.633640
 21
3.639680
 12
3.872440
 22
3.893560
 13
4.529360
 23
3.522200
  0
POLYLINE
  8
0
  6
CONTINUOUS
 66
     1
 40
0.000000
 41
0.000000
  0
VERTEX
  8
0
  6
CONTINUOUS
 10
3.976720
 20
4.011480
  0
VERTEX
  8
0
  6
CONTINUOUS
 10
4.633640
 20
3.639680
  0
VERTEX
  8
0
  6
CONTINUOUS
 10
4.529360
 20
3.522200
  0
VERTEX
  8
0
  6
CONTINUOUS
 10
3.872440
 20
3.893560
  0
VERTEX
  8
0
  6
CONTINUOUS
 10
3.976720
 20
4.011480
  0
SEQEND
  8
0
  0
SOLID
  8
0
 62
    15
 10
3.872440
 20
3.893560
 11
4.529360
 21
3.522200
 12
3.780040
 22
3.766840
 13
4.436960
 23
3.395040
  0
POLYLINE
  8
0
  6
CONTINUOUS
 66
     1
 40
0.000000
 41
0.000000
  0
VERTEX
  8
0
  6
CONTINUOUS
 10
3.872440
 20
3.893560
  0
VERTEX
  8
0
  6
CONTINUOUS
 10
4.529360
 20
3.522200
  0
VERTEX
  8
0
  6
CONTINUOUS
 10
4.436960
 20
3.395040
  0
VERTEX
  8
0
  6
CONTINUOUS
 10
3.780040
 20
3.766840
  0
VERTEX
  8
0
  6
CONTINUOUS
 10
3.872440
 20
3.893560
  0
SEQEND
  8
0
  0
SOLID
  8
0
 62
    15
 10
3.780040
 20
3.766840
 11
4.436960
 21
3.395040
 12
3.736920
 22
3.701720
 13
4.393840
 23
3.330360
  0
POLYLINE
  8
0
  6
CONTINUOUS
 66
     1
 40
0.000000
 41
0.000000
  0
VERTEX
  8
0
  6
CONTINUOUS
 10
3.780040
 20
3.766840
  0
VERTEX
  8
0
  6
CONTINUOUS
 10
4.436960
 20
3.395040
  0
VERTEX
  8
0
  6
CONTINUOUS
 10
4.393840
 20
3.330360
  0
VERTEX
  8
0
  6
CONTINUOUS
 10
3.736920
 20
3.701720
  0
VERTEX
  8
0
  6
CONTINUOUS
 10
3.780040
 20
3.766840
  0
SEQEND
  8
0
  0
SOLID
  8
0
 62
    15
 10
3.736920
 20
3.701720
 11
4.393840
 21
3.330360
 12
3.694240
 22
3.636600
 13
4.351160
 23
3.265240
  0
POLYLINE
  8
0
  6
CONTINUOUS
 66
     1
 40
0.000000
 41
0.000000
  0
VERTEX
  8
0
  6
CONTINUOUS
 10
3.736920
 20
3.701720
  0
VERTEX
  8
0
  6
CONTINUOUS
 10
4.393840
 20
3.330360
  0
VERTEX
  8
0
  6
CONTINUOUS
 10
4.351160
 20
3.265240
  0
VERTEX
  8
0
  6
CONTINUOUS
 10
3.694240
 20
3.636600
  0
VERTEX
  8
0
  6
CONTINUOUS
 10
3.736920
 20
3.701720
  0
SEQEND
  8
0
  0
SOLID
  8
0
 62
    15
 10
3.694240
 20
3.636600
 11
4.351160
 21
3.265240
 12
3.608440
 22
3.509440
 13
4.265360
 23
3.137640
  0
POLYLINE
  8
0
  6
CONTINUOUS
 66
     1
 40
0.000000
 41
0.000000
  0
VERTEX
  8
0
  6
CONTINUOUS
 10
3.694240
 20
3.636600
  0
VERTEX
  8
0
  6
CONTINUOUS
 10
4.351160
 20
3.265240
  0
VERTEX
  8
0
  6
CONTINUOUS
 10
4.265360
 20
3.137640
  0
VERTEX
  8
0
  6
CONTINUOUS
 10
3.608440
 20
3.509440
  0
VERTEX
  8
0
  6
CONTINUOUS
 10
3.694240
 20
3.636600
  0
SEQEND
  8
0
  0
SOLID
  8
0
 62
    15
 10
3.608440
 20
3.509440
 11
4.265360
 21
3.137640
 12
3.523520
 22
3.392400
 13
4.180440
 23
3.020600
  0
POLYLINE
  8
0
  6
CONTINUOUS
 66
     1
 40
0.000000
 41
0.000000
  0
VERTEX
  8
0
  6
CONTINUOUS
 10
3.608440
 20
3.509440
  0
VERTEX
  8
0
  6
CONTINUOUS
 10
4.265360
 20
3.137640
  0
VERTEX
  8
0
  6
CONTINUOUS
 10
4.180440
 20
3.020600
  0
VERTEX
  8
0
  6
CONTINUOUS
 10
3.523520
 20
3.392400
  0
VERTEX
  8
0
  6
CONTINUOUS
 10
3.608440
 20
3.509440
  0
SEQEND
  8
0
  0
SOLID
  8
0
 62
    15
 10
3.523520
 20
3.392400
 11
4.180440
 21
3.020600
 12
3.445640
 22
3.289000
 13
4.102560
 23
2.917640
  0
POLYLINE
  8
0
  6
CONTINUOUS
 66
     1
 40
0.000000
 41
0.000000
  0
VERTEX
  8
0
  6
CONTINUOUS
 10
3.523520
 20
3.392400
  0
VERTEX
  8
0
  6
CONTINUOUS
 10
4.180440
 20
3.020600
  0
VERTEX
  8
0
  6
CONTINUOUS
 10
4.102560
 20
2.917640
  0
VERTEX
  8
0
  6
CONTINUOUS
 10
3.445640
 20
3.289000
  0
VERTEX
  8
0
  6
CONTINUOUS
 10
3.523520
 20
3.392400
  0
SEQEND
  8
0
  0
SOLID
  8
0
 62
    15
 10
3.445640
 20
3.289000
 11
4.102560
 21
2.917640
 12
3.374360
 22
3.200120
 13
4.031280
 23
2.828320
  0
POLYLINE
  8
0
  6
CONTINUOUS
 66
     1
 40
0.000000
 41
0.000000
  0
VERTEX
  8
0
  6
CONTINUOUS
 10
3.445640
 20
3.289000
  0
VERTEX
  8
0
  6
CONTINUOUS
 10
4.102560
 20
2.917640
  0
VERTEX
  8
0
  6
CONTINUOUS
 10
4.031280
 20
2.828320
  0
VERTEX
  8
0
  6
CONTINUOUS
 10
3.374360
 20
3.200120
  0
VERTEX
  8
0
  6
CONTINUOUS
 10
3.445640
 20
3.289000
  0
SEQEND
  8
0
  0
SOLID
  8
0
 62
    15
 10
3.374360
 20
3.200120
 11
4.031280
 21
2.828320
 12
3.309240
 22
3.125320
 13
3.966160
 23
2.753960
  0
POLYLINE
  8
0
  6
CONTINUOUS
 66
     1
 40
0.000000
 41
0.000000
  0
VERTEX
  8
0
  6
CONTINUOUS
 10
3.374360
 20
3.200120
  0
VERTEX
  8
0
  6
CONTINUOUS
 10
4.031280
 20
2.828320
  0
VERTEX
  8
0
  6
CONTINUOUS
 10
3.966160
 20
2.753960
  0
VERTEX
  8
0
  6
CONTINUOUS
 10
3.309240
 20
3.125320
  0
VERTEX
  8
0
  6
CONTINUOUS
 10
3.374360
 20
3.200120
  0
SEQEND
  8
0
  0
SOLID
  8
0
 62
    15
 10
3.309240
 20
3.125320
 11
3.966160
 21
2.753960
 12
3.249840
 22
3.065480
 13
3.906760
 23
2.694120
  0
POLYLINE
  8
0
  6
CONTINUOUS
 66
     1
 40
0.000000
 41
0.000000
  0
VERTEX
  8
0
  6
CONTINUOUS
 10
3.309240
 20
3.125320
  0
VERTEX
  8
0
  6
CONTINUOUS
 10
3.966160
 20
2.753960
  0
VERTEX
  8
0
  6
CONTINUOUS
 10
3.906760
 20
2.694120
  0
VERTEX
  8
0
  6
CONTINUOUS
 10
3.249840
 20
3.065480
  0
VERTEX
  8
0
  6
CONTINUOUS
 10
3.309240
 20
3.125320
  0
SEQEND
  8
0
  0
SOLID
  8
0
 62
    15
 10
3.249840
 20
3.065480
 11
3.906760
 21
2.694120
 12
3.196600
 22
3.021480
 13
3.853520
 23
2.649680
  0
POLYLINE
  8
0
  6
CONTINUOUS
 66
     1
 40
0.000000
 41
0.000000
  0
VERTEX
  8
0
  6
CONTINUOUS
 10
3.249840
 20
3.065480
  0
VERTEX
  8
0
  6
CONTINUOUS
 10
3.906760
 20
2.694120
  0
VERTEX
  8
0
  6
CONTINUOUS
 10
3.853520
 20
2.649680
  0
VERTEX
  8
0
  6
CONTINUOUS
 10
3.196600
 20
3.021480
  0
VERTEX
  8
0
  6
CONTINUOUS
 10
3.249840
 20
3.065480
  0
SEQEND
  8
0
  0
SOLID
  8
0
 62
    15
 10
3.196600
 20
3.021480
 11
3.853520
 21
2.649680
 12
3.148640
 22
2.992440
 13
3.805560
 23
2.621080
  0
POLYLINE
  8
0
  6
CONTINUOUS
 66
     1
 40
0.000000
 41
0.000000
  0
VERTEX
  8
0
  6
CONTINUOUS
 10
3.196600
 20
3.021480
  0
VERTEX
  8
0
  6
CONTINUOUS
 10
3.853520
 20
2.649680
  0
VERTEX
  8
0
  6
CONTINUOUS
 10
3.805560
 20
2.621080
  0
VERTEX
  8
0
  6
CONTINUOUS
 10
3.148640
 20
2.992440
  0
VERTEX
  8
0
  6
CONTINUOUS
 10
3.196600
 20
3.021480
  0
SEQEND
  8
0
  0
SOLID
  8
0
 62
    15
 10
3.148640
 20
2.992440
 11
3.805560
 21
2.621080
 12
3.105960
 22
2.979680
 13
3.762880
 23
2.608320
  0
POLYLINE
  8
0
  6
CONTINUOUS
 66
     1
 40
0.000000
 41
0.000000
  0
VERTEX
  8
0
  6
CONTINUOUS
 10
3.148640
 20
2.992440
  0
VERTEX
  8
0
  6
CONTINUOUS
 10
3.805560
 20
2.621080
  0
VERTEX
  8
0
  6
CONTINUOUS
 10
3.762880
 20
2.608320
  0
VERTEX
  8
0
  6
CONTINUOUS
 10
3.105960
 20
2.979680
  0
VERTEX
  8
0
  6
CONTINUOUS
 10
3.148640
 20
2.992440
  0
SEQEND
  8
0
  0
SOLID
  8
0
 62
    15
 10
3.105960
 20
2.979680
 11
3.762880
 21
2.608320
 12
3.055360
 22
2.973520
 13
3.712280
 23
2.602160
  0
POLYLINE
  8
0
  6
CONTINUOUS
 66
     1
 40
0.000000
 41
0.000000
  0
VERTEX
  8
0
  6
CONTINUOUS
 10
3.105960
 20
2.979680
  0
VERTEX
  8
0
  6
CONTINUOUS
 10
3.762880
 20
2.608320
  0
VERTEX
  8
0
  6
CONTINUOUS
 10
3.712280
 20
2.602160
  0
VERTEX
  8
0
  6
CONTINUOUS
 10
3.055360
 20
2.973520
  0
VERTEX
  8
0
  6
CONTINUOUS
 10
3.105960
 20
2.979680
  0
SEQEND
  8
0
  0
SOLID
  8
0
 62
    15
 10
4.641120
 20
4.271960
 11
5.298040
 21
3.900600
 12
4.528480
 22
4.265800
 13
5.185400
 23
3.894000
  0
POLYLINE
  8
0
  6
CONTINUOUS
 66
     1
 40
0.000000
 41
0.000000
  0
VERTEX
  8
0
  6
CONTINUOUS
 10
4.641120
 20
4.271960
  0
VERTEX
  8
0
  6
CONTINUOUS
 10
5.298040
 20
3.900600
  0
VERTEX
  8
0
  6
CONTINUOUS
 10
5.185400
 20
3.894000
  0
VERTEX
  8
0
  6
CONTINUOUS
 10
4.528480
 20
4.265800
  0
VERTEX
  8
0
  6
CONTINUOUS
 10
4.641120
 20
4.271960
  0
SEQEND
  8
0
  0
SOLID
  8
0
 62
    15
 10
3.009160
 20
2.969120
 11
3.666080
 21
2.597320
 12
2.958120
 22
2.966920
 13
3.615040
 23
2.595560
  0
POLYLINE
  8
0
  6
CONTINUOUS
 66
     1
 40
0.000000
 41
0.000000
  0
VERTEX
  8
0
  6
CONTINUOUS
 10
3.009160
 20
2.969120
  0
VERTEX
  8
0
  6
CONTINUOUS
 10
3.666080
 20
2.597320
  0
VERTEX
  8
0
  6
CONTINUOUS
 10
3.615040
 20
2.595560
  0
VERTEX
  8
0
  6
CONTINUOUS
 10
2.958120
 20
2.966920
  0
VERTEX
  8
0
  6
CONTINUOUS
 10
3.009160
 20
2.969120
  0
SEQEND
  8
0
  0
SOLID
  8
0
 62
    15
 10
2.958120
 20
2.966920
 11
3.615040
 21
2.595560
 12
2.893880
 22
2.968680
 13
3.550800
 23
2.597320
  0
POLYLINE
  8
0
  6
CONTINUOUS
 66
     1
 40
0.000000
 41
0.000000
  0
VERTEX
  8
0
  6
CONTINUOUS
 10
2.958120
 20
2.966920
  0
VERTEX
  8
0
  6
CONTINUOUS
 10
3.615040
 20
2.595560
  0
VERTEX
  8
0
  6
CONTINUOUS
 10
3.550800
 20
2.597320
  0
VERTEX
  8
0
  6
CONTINUOUS
 10
2.893880
 20
2.968680
  0
VERTEX
  8
0
  6
CONTINUOUS
 10
2.958120
 20
2.966920
  0
SEQEND
  8
0
  0
SOLID
  8
0
 62
    15
 10
2.893880
 20
2.968680
 11
3.550800
 21
2.597320
 12
2.893880
 22
2.966920
 13
3.550800
 23
2.595560
  0
POLYLINE
  8
0
  6
CONTINUOUS
 66
     1
 40
0.000000
 41
0.000000
  0
VERTEX
  8
0
  6
CONTINUOUS
 10
2.893880
 20
2.968680
  0
VERTEX
  8
0
  6
CONTINUOUS
 10
3.550800
 20
2.597320
  0
VERTEX
  8
0
  6
CONTINUOUS
 10
3.550800
 20
2.595560
  0
VERTEX
  8
0
  6
CONTINUOUS
 10
2.893880
 20
2.966920
  0
VERTEX
  8
0
  6
CONTINUOUS
 10
2.893880
 20
2.968680
  0
SEQEND
  8
0
  0
SOLID
  8
0
 62
    15
 10
2.893880
 20
2.966920
 11
3.550800
 21
2.595560
 12
2.887720
 22
2.958120
 13
3.544640
 23
2.586760
  0
POLYLINE
  8
0
  6
CONTINUOUS
 66
     1
 40
0.000000
 41
0.000000
  0
VERTEX
  8
0
  6
CONTINUOUS
 10
2.893880
 20
2.966920
  0
VERTEX
  8
0
  6
CONTINUOUS
 10
3.550800
 20
2.595560
  0
VERTEX
  8
0
  6
CONTINUOUS
 10
3.544640
 20
2.586760
  0
VERTEX
  8
0
  6
CONTINUOUS
 10
2.887720
 20
2.958120
  0
VERTEX
  8
0
  6
CONTINUOUS
 10
2.893880
 20
2.966920
  0
SEQEND
  8
0
  0
SOLID
  8
0
 62
    15
 10
2.887720
 20
2.958120
 11
3.544640
 21
2.586760
 12
3.084840
 22
2.800160
 13
3.741760
 23
2.428800
  0
POLYLINE
  8
0
  6
CONTINUOUS
 66
     1
 40
0.000000
 41
0.000000
  0
VERTEX
  8
0
  6
CONTINUOUS
 10
2.887720
 20
2.958120
  0
VERTEX
  8
0
  6
CONTINUOUS
 10
3.544640
 20
2.586760
  0
VERTEX
  8
0
  6
CONTINUOUS
 10
3.741760
 20
2.428800
  0
VERTEX
  8
0
  6
CONTINUOUS
 10
3.084840
 20
2.800160
  0
VERTEX
  8
0
  6
CONTINUOUS
 10
2.887720
 20
2.958120
  0
SEQEND
  8
0
  0
SOLID
  8
0
 62
    15
 10
3.084840
 20
2.800160
 11
3.741760
 21
2.428800
 12
3.040840
 22
2.443760
 13
3.697760
 23
2.072400
  0
POLYLINE
  8
0
  6
CONTINUOUS
 66
     1
 40
0.000000
 41
0.000000
  0
VERTEX
  8
0
  6
CONTINUOUS
 10
3.084840
 20
2.800160
  0
VERTEX
  8
0
  6
CONTINUOUS
 10
3.741760
 20
2.428800
  0
VERTEX
  8
0
  6
CONTINUOUS
 10
3.697760
 20
2.072400
  0
VERTEX
  8
0
  6
CONTINUOUS
 10
3.040840
 20
2.443760
  0
VERTEX
  8
0
  6
CONTINUOUS
 10
3.084840
 20
2.800160
  0
SEQEND
  8
0
  0
SOLID
  8
0
 62
    15
 10
3.040840
 20
2.443760
 11
3.697760
 21
2.072400
 12
3.039080
 22
2.441560
 13
3.696000
 23
2.070200
  0
POLYLINE
  8
0
  6
CONTINUOUS
 66
     1
 40
0.000000
 41
0.000000
  0
VERTEX
  8
0
  6
CONTINUOUS
 10
3.040840
 20
2.443760
  0
VERTEX
  8
0
  6
CONTINUOUS
 10
3.697760
 20
2.072400
  0
VERTEX
  8
0
  6
CONTINUOUS
 10
3.696000
 20
2.070200
  0
VERTEX
  8
0
  6
CONTINUOUS
 10
3.039080
 20
2.441560
  0
VERTEX
  8
0
  6
CONTINUOUS
 10
3.040840
 20
2.443760
  0
SEQEND
  8
0
  0
SOLID
  8
0
 62
    15
 10
3.039080
 20
2.441560
 11
3.696000
 21
2.070200
 12
2.977480
 22
2.431440
 13
3.634400
 23
2.060080
  0
POLYLINE
  8
0
  6
CONTINUOUS
 66
     1
 40
0.000000
 41
0.000000
  0
VERTEX
  8
0
  6
CONTINUOUS
 10
3.039080
 20
2.441560
  0
VERTEX
  8
0
  6
CONTINUOUS
 10
3.696000
 20
2.070200
  0
VERTEX
  8
0
  6
CONTINUOUS
 10
3.634400
 20
2.060080
  0
VERTEX
  8
0
  6
CONTINUOUS
 10
2.977480
 20
2.431440
  0
VERTEX
  8
0
  6
CONTINUOUS
 10
3.039080
 20
2.441560
  0
SEQEND
  8
0
  0
SOLID
  8
0
 62
    15
 10
2.977480
 20
2.431440
 11
3.634400
 21
2.060080
 12
2.928640
 22
2.409440
 13
3.585560
 23
2.037640
  0
POLYLINE
  8
0
  6
CONTINUOUS
 66
     1
 40
0.000000
 41
0.000000
  0
VERTEX
  8
0
  6
CONTINUOUS
 10
2.977480
 20
2.431440
  0
VERTEX
  8
0
  6
CONTINUOUS
 10
3.634400
 20
2.060080
  0
VERTEX
  8
0
  6
CONTINUOUS
 10
3.585560
 20
2.037640
  0
VERTEX
  8
0
  6
CONTINUOUS
 10
2.928640
 20
2.409440
  0
VERTEX
  8
0
  6
CONTINUOUS
 10
2.977480
 20
2.431440
  0
SEQEND
  8
0
  0
SOLID
  8
0
 62
    15
 10
2.928640
 20
2.409440
 11
3.585560
 21
2.037640
 12
2.891240
 22
2.377760
 13
3.548160
 23
2.006400
  0
POLYLINE
  8
0
  6
CONTINUOUS
 66
     1
 40
0.000000
 41
0.000000
  0
VERTEX
  8
0
  6
CONTINUOUS
 10
2.928640
 20
2.409440
  0
VERTEX
  8
0
  6
CONTINUOUS
 10
3.585560
 20
2.037640
  0
VERTEX
  8
0
  6
CONTINUOUS
 10
3.548160
 20
2.006400
  0
VERTEX
  8
0
  6
CONTINUOUS
 10
2.891240
 20
2.377760
  0
VERTEX
  8
0
  6
CONTINUOUS
 10
2.928640
 20
2.409440
  0
SEQEND
  8
0
  0
SOLID
  8
0
 62
    15
 10
2.891240
 20
2.377760
 11
3.548160
 21
2.006400
 12
2.863520
 22
2.339920
 13
3.520440
 23
1.968560
  0
POLYLINE
  8
0
  6
CONTINUOUS
 66
     1
 40
0.000000
 41
0.000000
  0
VERTEX
  8
0
  6
CONTINUOUS
 10
2.891240
 20
2.377760
  0
VERTEX
  8
0
  6
CONTINUOUS
 10
3.548160
 20
2.006400
  0
VERTEX
  8
0
  6
CONTINUOUS
 10
3.520440
 20
1.968560
  0
VERTEX
  8
0
  6
CONTINUOUS
 10
2.863520
 20
2.339920
  0
VERTEX
  8
0
  6
CONTINUOUS
 10
2.891240
 20
2.377760
  0
SEQEND
  8
0
  0
SOLID
  8
0
 62
    15
 10
2.863520
 20
2.339920
 11
3.520440
 21
1.968560
 12
2.831840
 22
2.255440
 13
3.488760
 23
1.884080
  0
POLYLINE
  8
0
  6
CONTINUOUS
 66
     1
 40
0.000000
 41
0.000000
  0
VERTEX
  8
0
  6
CONTINUOUS
 10
2.863520
 20
2.339920
  0
VERTEX
  8
0
  6
CONTINUOUS
 10
3.520440
 20
1.968560
  0
VERTEX
  8
0
  6
CONTINUOUS
 10
3.488760
 20
1.884080
  0
VERTEX
  8
0
  6
CONTINUOUS
 10
2.831840
 20
2.255440
  0
VERTEX
  8
0
  6
CONTINUOUS
 10
2.863520
 20
2.339920
  0
SEQEND
  8
0
  0
SOLID
  8
0
 62
    15
 10
2.831840
 20
2.255440
 11
3.488760
 21
1.884080
 12
2.820840
 22
2.178000
 13
3.477760
 23
1.806640
  0
POLYLINE
  8
0
  6
CONTINUOUS
 66
     1
 40
0.000000
 41
0.000000
  0
VERTEX
  8
0
  6
CONTINUOUS
 10
2.831840
 20
2.255440
  0
VERTEX
  8
0
  6
CONTINUOUS
 10
3.488760
 20
1.884080
  0
VERTEX
  8
0
  6
CONTINUOUS
 10
3.477760
 20
1.806640
  0
VERTEX
  8
0
  6
CONTINUOUS
 10
2.820840
 20
2.178000
  0
VERTEX
  8
0
  6
CONTINUOUS
 10
2.831840
 20
2.255440
  0
SEQEND
  8
0
  0
SOLID
  8
0
 62
    15
 10
2.820840
 20
2.178000
 11
3.477760
 21
1.806640
 12
2.819080
 22
2.170960
 13
3.476000
 23
1.799600
  0
POLYLINE
  8
0
  6
CONTINUOUS
 66
     1
 40
0.000000
 41
0.000000
  0
VERTEX
  8
0
  6
CONTINUOUS
 10
2.820840
 20
2.178000
  0
VERTEX
  8
0
  6
CONTINUOUS
 10
3.477760
 20
1.806640
  0
VERTEX
  8
0
  6
CONTINUOUS
 10
3.476000
 20
1.799600
  0
VERTEX
  8
0
  6
CONTINUOUS
 10
2.819080
 20
2.170960
  0
VERTEX
  8
0
  6
CONTINUOUS
 10
2.820840
 20
2.178000
  0
SEQEND
  8
0
  0
SOLID
  8
0
 62
    15
 10
2.819080
 20
2.170960
 11
3.476000
 21
1.799600
 12
2.785200
 22
1.603360
 13
3.442120
 23
1.231560
  0
POLYLINE
  8
0
  6
CONTINUOUS
 66
     1
 40
0.000000
 41
0.000000
  0
VERTEX
  8
0
  6
CONTINUOUS
 10
2.819080
 20
2.170960
  0
VERTEX
  8
0
  6
CONTINUOUS
 10
3.476000
 20
1.799600
  0
VERTEX
  8
0
  6
CONTINUOUS
 10
3.442120
 20
1.231560
  0
VERTEX
  8
0
  6
CONTINUOUS
 10
2.785200
 20
1.603360
  0
VERTEX
  8
0
  6
CONTINUOUS
 10
2.819080
 20
2.170960
  0
SEQEND
  8
0
  0
SOLID
  8
0
 62
    15
 10
2.785200
 20
1.603360
 11
3.442120
 21
1.231560
 12
2.778600
 22
1.602920
 13
3.435520
 23
1.231560
  0
POLYLINE
  8
0
  6
CONTINUOUS
 66
     1
 40
0.000000
 41
0.000000
  0
VERTEX
  8
0
  6
CONTINUOUS
 10
2.785200
 20
1.603360
  0
VERTEX
  8
0
  6
CONTINUOUS
 10
3.442120
 20
1.231560
  0
VERTEX
  8
0
  6
CONTINUOUS
 10
3.435520
 20
1.231560
  0
VERTEX
  8
0
  6
CONTINUOUS
 10
2.778600
 20
1.602920
  0
VERTEX
  8
0
  6
CONTINUOUS
 10
2.785200
 20
1.603360
  0
SEQEND
  8
0
  0
SOLID
  8
0
 62
    15
 10
2.778600
 20
1.602920
 11
3.435520
 21
1.231560
 12
2.389640
 22
1.651760
 13
3.046560
 23
1.280400
  0
POLYLINE
  8
0
  6
CONTINUOUS
 66
     1
 40
0.000000
 41
0.000000
  0
VERTEX
  8
0
  6
CONTINUOUS
 10
2.778600
 20
1.602920
  0
VERTEX
  8
0
  6
CONTINUOUS
 10
3.435520
 20
1.231560
  0
VERTEX
  8
0
  6
CONTINUOUS
 10
3.046560
 20
1.280400
  0
VERTEX
  8
0
  6
CONTINUOUS
 10
2.389640
 20
1.651760
  0
VERTEX
  8
0
  6
CONTINUOUS
 10
2.778600
 20
1.602920
  0
SEQEND
  8
0
  0
SOLID
  8
0
 62
    15
 10
4.711080
 20
5.609560
 11
5.368440
 21
5.237760
 12
4.651240
 22
4.275040
 13
5.308160
 23
3.903240
  0
POLYLINE
  8
0
  6
CONTINUOUS
 66
     1
 40
0.000000
 41
0.000000
  0
VERTEX
  8
0
  6
CONTINUOUS
 10
4.711080
 20
5.609560
  0
VERTEX
  8
0
  6
CONTINUOUS
 10
5.368440
 20
5.237760
  0
VERTEX
  8
0
  6
CONTINUOUS
 10
5.308160
 20
3.903240
  0
VERTEX
  8
0
  6
CONTINUOUS
 10
4.651240
 20
4.275040
  0
VERTEX
  8
0
  6
CONTINUOUS
 10
4.711080
 20
5.609560
  0
SEQEND
  8
0
  0
SOLID
  8
0
 62
    15
 10
4.651240
 20
4.275040
 11
5.308160
 21
3.903240
 12
4.641120
 22
4.271960
 13
5.298040
 23
3.900600
  0
POLYLINE
  8
0
  6
CONTINUOUS
 66
     1
 40
0.000000
 41
0.000000
  0
VERTEX
  8
0
  6
CONTINUOUS
 10
4.651240
 20
4.275040
  0
VERTEX
  8
0
  6
CONTINUOUS
 10
5.308160
 20
3.903240
  0
VERTEX
  8
0
  6
CONTINUOUS
 10
5.298040
 20
3.900600
  0
VERTEX
  8
0
  6
CONTINUOUS
 10
4.641120
 20
4.271960
  0
VERTEX
  8
0
  6
CONTINUOUS
 10
4.651240
 20
4.275040
  0
SEQEND
  8
0
  0
POLYLINE
  8
0
  6
CONTINUOUS
 66
     1
 40
0.000000
 41
0.000000
  0
VERTEX
  8
0
  6
CONTINUOUS
 10
4.641120
 20
4.271960
  0
VERTEX
  8
0
  6
CONTINUOUS
 10
4.528480
 20
4.265800
  0
VERTEX
  8
0
  6
CONTINUOUS
 10
4.425520
 20
4.250400
  0
VERTEX
  8
0
  6
CONTINUOUS
 10
4.332240
 20
4.226640
  0
VERTEX
  8
0
  6
CONTINUOUS
 10
4.247320
 20
4.195840
  0
VERTEX
  8
0
  6
CONTINUOUS
 10
4.099480
 20
4.114000
  0
VERTEX
  8
0
  6
CONTINUOUS
 10
3.976720
 20
4.011480
  0
VERTEX
  8
0
  6
CONTINUOUS
 10
3.872440
 20
3.893560
  0
VERTEX
  8
0
  6
CONTINUOUS
 10
3.780040
 20
3.766840
  0
VERTEX
  8
0
  6
CONTINUOUS
 10
3.736920
 20
3.701720
  0
VERTEX
  8
0
  6
CONTINUOUS
 10
3.694240
 20
3.636600
  0
VERTEX
  8
0
  6
CONTINUOUS
 10
3.608440
 20
3.509440
  0
VERTEX
  8
0
  6
CONTINUOUS
 10
3.523520
 20
3.392400
  0
VERTEX
  8
0
  6
CONTINUOUS
 10
3.445640
 20
3.289000
  0
VERTEX
  8
0
  6
CONTINUOUS
 10
3.374360
 20
3.200120
  0
VERTEX
  8
0
  6
CONTINUOUS
 10
3.309240
 20
3.125320
  0
VERTEX
  8
0
  6
CONTINUOUS
 10
3.249840
 20
3.065480
  0
VERTEX
  8
0
  6
CONTINUOUS
 10
3.196600
 20
3.021480
  0
VERTEX
  8
0
  6
CONTINUOUS
 10
3.148640
 20
2.992440
  0
VERTEX
  8
0
  6
CONTINUOUS
 10
3.105960
 20
2.979680
  0
VERTEX
  8
0
  6
CONTINUOUS
 10
3.055360
 20
2.973520
  0
VERTEX
  8
0
  6
CONTINUOUS
 10
3.009160
 20
2.969120
  0
VERTEX
  8
0
  6
CONTINUOUS
 10
2.958120
 20
2.966920
  0
VERTEX
  8
0
  6
CONTINUOUS
 10
2.893880
 20
2.968680
  0
VERTEX
  8
0
  6
CONTINUOUS
 10
2.893880
 20
2.966920
  0
VERTEX
  8
0
  6
CONTINUOUS
 10
2.887720
 20
2.958120
  0
VERTEX
  8
0
  6
CONTINUOUS
 10
3.084840
 20
2.800160
  0
VERTEX
  8
0
  6
CONTINUOUS
 10
3.040840
 20
2.443760
  0
VERTEX
  8
0
  6
CONTINUOUS
 10
3.039080
 20
2.441560
  0
VERTEX
  8
0
  6
CONTINUOUS
 10
2.977480
 20
2.431440
  0
VERTEX
  8
0
  6
CONTINUOUS
 10
2.928640
 20
2.409440
  0
VERTEX
  8
0
  6
CONTINUOUS
 10
2.891240
 20
2.377760
  0
VERTEX
  8
0
  6
CONTINUOUS
 10
2.863520
 20
2.339920
  0
VERTEX
  8
0
  6
CONTINUOUS
 10
2.831840
 20
2.255440
  0
VERTEX
  8
0
  6
CONTINUOUS
 10
2.820840
 20
2.178000
  0
VERTEX
  8
0
  6
CONTINUOUS
 10
2.819080
 20
2.170960
  0
VERTEX
  8
0
  6
CONTINUOUS
 10
2.785200
 20
1.603360
  0
VERTEX
  8
0
  6
CONTINUOUS
 10
2.778600
 20
1.602920
  0
VERTEX
  8
0
  6
CONTINUOUS
 10
2.389640
 20
1.651760
  0
VERTEX
  8
0
  6
CONTINUOUS
 10
2.369840
 20
3.120040
  0
VERTEX
  8
0
  6
CONTINUOUS
 10
4.130280
 20
5.597240
  0
VERTEX
  8
0
  6
CONTINUOUS
 10
4.711080
 20
5.609560
  0
VERTEX
  8
0
  6
CONTINUOUS
 10
4.651240
 20
4.275040
  0
VERTEX
  8
0
  6
CONTINUOUS
 10
4.641120
 20
4.271960
  0
SEQEND
  8
0
  0
TEXT
  8
0
 10
3.948120
 20
1.449800
 40
0.138195
  1
BA  52
 41
1.000000
  7
SN0
 71
     0
 72
     5
 11
4.446345
 21
1.449800
  0
TEXT
  8
0
 10
3.672680
 20
1.257960
 40
0.138195
  1
1-1/4" x 4-5/8"
 41
1.000000
  7
SN0
 71
     0
 72
     5
 11
4.721095
 21
1.257960
  0
ENDSEC
  0
EOF
