  0
SECTION
  2
HEADER
  9
$ACADVER
  1
AC1006
  9
$EXTMIN
 10
1.178760
 20
1.340240
  9
$EXTMAX
 10
5.352600
 20
4.729560
  9
$LTSCALE
 40
0.044000
  9
$PDMODE
 70
    35
  9
$PDSIZE
 40
0.035200
  0
ENDSEC
  0
SECTION
  2
TABLES
  0
TABLE
  2
LTYPE
 70
     9
  0
LTYPE
  2
CONTINUOUS
 70
    64
  3
Solid line
 72
    65
 73
     0
 40
0.000000
  0
LTYPE
  2
DASHED
 70
    64
  3
__ __ __ __ __ __ __ __ __ __ __ __ __ __ __
 72
    65
 73
     2
 40
0.000330
 49
0.000220
 49
-0.000110
  0
LTYPE
  2
HIDDEN
 70
    64
  3
 _ _ _ _ _ _ _ _ _ _ _ _ _ _ _ _ _ _ _ _ _ _
 72
    65
 73
     2
 40
0.000165
 49
0.000110
 49
-0.000055
  0
LTYPE
  2
CENTER
 70
    64
  3
____ _ ____ _ ____ _ ____ _ ____ _ ____ _ ____
 72
    65
 73
     4
 40
0.000880
 49
0.000550
 49
-0.000110
 49
0.000110
 49
-0.000110
  0
LTYPE
  2
PHANTOM
 70
    64
  3
_____ _ _ _____ _ _ _____ _ _ _____ _ _ ____
 72
    65
 73
     6
 40
0.001100
 49
0.000550
 49
-0.000110
 49
0.000110
 49
-0.000110
 49
0.000110
 49
-0.000110
  0
LTYPE
  2
DOT
 70
    64
  3
...............................................
 72
    65
 73
     2
 40
0.000110
 49
0.000000
 49
-0.000110
  0
LTYPE
  2
DASHDOT
 70
    64
  3
__ . __ . __ . __ . __ . __ . __ . __ . __ . __
 72
    65
 73
     4
 40
0.000440
 49
0.000220
 49
-0.000110
 49
0.000000
 49
-0.000110
  0
LTYPE
  2
BORDER
 70
    64
  3
__ __ . __ __ . __ __ . __ __ . __ __ . __ __
 72
    65
 73
     6
 40
0.000770
 49
0.000220
 49
-0.000110
 49
0.000220
 49
-0.000110
 49
0.000000
 49
-0.000110
  0
LTYPE
  2
DIVIDE
 70
    64
  3
__ . . __ . . __ . . __ . . __ . . __ . . __
 72
    65
 73
     6
 40
0.000550
 49
0.000220
 49
-0.000110
 49
0.000000
 49
-0.000110
 49
0.000000
 49
-0.000110
  0
LTYPE
  2
DOTDOT
 70
    64
  3
 . .  . .  . .  . .  . .  . . 
 72
    65
 73
     5
 40
0.000242
 49
-0.000110
 49
0.000000
 49
-0.000110
 49
0.000000
 49
-0.000110
  0
ENDTAB
  0
TABLE
  2
STYLE
 70
     2
  0
STYLE
 70
     0
  2
SN0
 40
0.000000
 41
0.000440
 50
0.000000
 71
     0
 42
0.000000
  3
ROMAND
  0
STYLE
 70
    68
  2
SV0
 40
0.000000
 41
0.000440
 50
0.000000
 71
     0
 42
0.000000
  3
ROMAND
  0
ENDTAB
  0
TABLE
  2
LAYER
 70
     3
  0
LAYER
  2
FOREGROUND
 70
    64
 62
     7
  6
CONTINUOUS
  0
LAYER
  2
BACKGROUND
 70
    65
 62
    -7
  6
CONTINUOUS
  0
LAYER
  2
0
 70
    64
 62
     7
  6
CONTINUOUS
  0
ENDTAB
  0
ENDSEC
  0
SECTION
  2
ENTITIES
  0
POLYLINE
  8
FOREGROUND
  6
CONTINUOUS
 66
     1
 40
0.000000
 41
0.000000
  0
VERTEX
  8
FOREGROUND
  6
CONTINUOUS
 10
0.000000
 20
6.069800
  0
VERTEX
  8
FOREGROUND
  6
CONTINUOUS
 10
8.499920
 20
6.069800
  0
VERTEX
  8
FOREGROUND
  6
CONTINUOUS
 10
8.499920
 20
-4.930200
  0
VERTEX
  8
FOREGROUND
  6
CONTINUOUS
 10
0.000000
 20
-4.930200
  0
VERTEX
  8
FOREGROUND
  6
CONTINUOUS
 10
0.000000
 20
6.069800
  0
SEQEND
  8
0
  0
POLYLINE
  8
FOREGROUND
  6
CONTINUOUS
 66
     1
 40
0.000000
 41
0.000000
  0
VERTEX
  8
FOREGROUND
  6
CONTINUOUS
 10
0.000000
 20
6.069800
  0
VERTEX
  8
FOREGROUND
  6
CONTINUOUS
 10
8.499920
 20
6.069800
  0
VERTEX
  8
FOREGROUND
  6
CONTINUOUS
 10
8.499920
 20
-4.930200
  0
VERTEX
  8
FOREGROUND
  6
CONTINUOUS
 10
0.000000
 20
-4.930200
  0
VERTEX
  8
FOREGROUND
  6
CONTINUOUS
 10
0.000000
 20
6.069800
  0
SEQEND
  8
0
  0
POLYLINE
  8
0
  6
CONTINUOUS
 66
     1
 40
0.014080
 41
0.014080
  0
VERTEX
  8
0
  6
CONTINUOUS
 10
4.882680
 20
3.398560
  0
VERTEX
  8
0
  6
CONTINUOUS
 10
4.927560
 20
3.396360
  0
VERTEX
  8
0
  6
CONTINUOUS
 10
4.965840
 20
3.390200
  0
VERTEX
  8
0
  6
CONTINUOUS
 10
4.997520
 20
3.380520
  0
VERTEX
  8
0
  6
CONTINUOUS
 10
5.023920
 20
3.367320
  0
VERTEX
  8
0
  6
CONTINUOUS
 10
5.038880
 20
3.357200
  0
VERTEX
  8
0
  6
CONTINUOUS
 10
5.063080
 20
3.333440
  0
VERTEX
  8
0
  6
CONTINUOUS
 10
5.081560
 20
3.306160
  0
VERTEX
  8
0
  6
CONTINUOUS
 10
5.101360
 20
3.260400
  0
VERTEX
  8
0
  6
CONTINUOUS
 10
5.129080
 20
3.180760
  0
VERTEX
  8
0
  6
CONTINUOUS
 10
5.142720
 20
3.149960
  0
VERTEX
  8
0
  6
CONTINUOUS
 10
5.161200
 20
3.121800
  0
VERTEX
  8
0
  6
CONTINUOUS
 10
5.185400
 20
3.096720
  0
VERTEX
  8
0
  6
CONTINUOUS
 10
5.208720
 20
3.080440
  0
VERTEX
  8
0
  6
CONTINUOUS
 10
5.236880
 20
3.067240
  0
VERTEX
  8
0
  6
CONTINUOUS
 10
5.271200
 20
3.056680
  0
VERTEX
  8
0
  6
CONTINUOUS
 10
5.311680
 20
3.050080
  0
VERTEX
  8
0
  6
CONTINUOUS
 10
5.345120
 20
3.047880
  0
VERTEX
  8
0
  6
CONTINUOUS
 10
5.345120
 20
2.938320
  0
VERTEX
  8
0
  6
CONTINUOUS
 10
5.341160
 20
2.939640
  0
VERTEX
  8
0
  6
CONTINUOUS
 10
3.126640
 20
2.939640
  0
VERTEX
  8
0
  6
CONTINUOUS
 10
3.126640
 20
2.938320
  0
VERTEX
  8
0
  6
CONTINUOUS
 10
3.126640
 20
3.215960
  0
VERTEX
  8
0
  6
CONTINUOUS
 10
3.125320
 20
3.217280
  0
VERTEX
  8
0
  6
CONTINUOUS
 10
3.065920
 20
3.216400
  0
VERTEX
  8
0
  6
CONTINUOUS
 10
3.038640
 20
3.219040
  0
VERTEX
  8
0
  6
CONTINUOUS
 10
2.999480
 20
3.228280
  0
VERTEX
  8
0
  6
CONTINUOUS
 10
2.962520
 20
3.242800
  0
VERTEX
  8
0
  6
CONTINUOUS
 10
2.928200
 20
3.262600
  0
VERTEX
  8
0
  6
CONTINUOUS
 10
2.907520
 20
3.278440
  0
VERTEX
  8
0
  6
CONTINUOUS
 10
2.888160
 20
3.296040
  0
VERTEX
  8
0
  6
CONTINUOUS
 10
2.870560
 20
3.315400
  0
VERTEX
  8
0
  6
CONTINUOUS
 10
2.847680
 20
3.347520
  0
VERTEX
  8
0
  6
CONTINUOUS
 10
2.829640
 20
3.382280
  0
VERTEX
  8
0
  6
CONTINUOUS
 10
2.816880
 20
3.420120
  0
VERTEX
  8
0
  6
CONTINUOUS
 10
2.811160
 20
3.446520
  0
VERTEX
  8
0
  6
CONTINUOUS
 10
2.808520
 20
3.473800
  0
VERTEX
  8
0
  6
CONTINUOUS
 10
2.808520
 20
3.501960
  0
VERTEX
  8
0
  6
CONTINUOUS
 10
2.811160
 20
3.529240
  0
VERTEX
  8
0
  6
CONTINUOUS
 10
2.820400
 20
3.568400
  0
VERTEX
  8
0
  6
CONTINUOUS
 10
2.834920
 20
3.605360
  0
VERTEX
  8
0
  6
CONTINUOUS
 10
2.854720
 20
3.639680
  0
VERTEX
  8
0
  6
CONTINUOUS
 10
2.870560
 20
3.660360
  0
VERTEX
  8
0
  6
CONTINUOUS
 10
2.888160
 20
3.679720
  0
VERTEX
  8
0
  6
CONTINUOUS
 10
2.907520
 20
3.697320
  0
VERTEX
  8
0
  6
CONTINUOUS
 10
2.939640
 20
3.720200
  0
VERTEX
  8
0
  6
CONTINUOUS
 10
2.974400
 20
3.738240
  0
VERTEX
  8
0
  6
CONTINUOUS
 10
3.012240
 20
3.751000
  0
VERTEX
  8
0
  6
CONTINUOUS
 10
3.038640
 20
3.756720
  0
VERTEX
  8
0
  6
CONTINUOUS
 10
3.065920
 20
3.759360
  0
VERTEX
  8
0
  6
CONTINUOUS
 10
3.102440
 20
3.758920
  0
VERTEX
  8
0
  6
CONTINUOUS
 10
3.124880
 20
3.756280
  0
VERTEX
  8
0
  6
CONTINUOUS
 10
3.169320
 20
3.746160
  0
VERTEX
  8
0
  6
CONTINUOUS
 10
3.212000
 20
3.729880
  0
VERTEX
  8
0
  6
CONTINUOUS
 10
3.252040
 20
3.707880
  0
VERTEX
  8
0
  6
CONTINUOUS
 10
3.288560
 20
3.681040
  0
VERTEX
  8
0
  6
CONTINUOUS
 10
3.320680
 20
3.650240
  0
VERTEX
  8
0
  6
CONTINUOUS
 10
3.347520
 20
3.615040
  0
VERTEX
  8
0
  6
CONTINUOUS
 10
3.358520
 20
3.596560
  0
VERTEX
  8
0
  6
CONTINUOUS
 10
3.375680
 20
3.560920
  0
VERTEX
  8
0
  6
CONTINUOUS
 10
3.393280
 20
3.538480
  0
VERTEX
  8
0
  6
CONTINUOUS
 10
3.414400
 20
3.521320
  0
VERTEX
  8
0
  6
CONTINUOUS
 10
3.436840
 20
3.509440
  0
VERTEX
  8
0
  6
CONTINUOUS
 10
3.459280
 20
3.501080
  0
VERTEX
  8
0
  6
CONTINUOUS
 10
3.490520
 20
3.494920
  0
VERTEX
  8
0
  6
CONTINUOUS
 10
3.522640
 20
3.493160
  0
VERTEX
  8
0
  6
CONTINUOUS
 10
3.610640
 20
3.493160
  0
VERTEX
  8
0
  6
CONTINUOUS
 10
3.611960
 20
3.491840
  0
VERTEX
  8
0
  6
CONTINUOUS
 10
3.611960
 20
3.449160
  0
VERTEX
  8
0
  6
CONTINUOUS
 10
4.876080
 20
3.449160
  0
VERTEX
  8
0
  6
CONTINUOUS
 10
4.876080
 20
3.398560
  0
VERTEX
  8
0
  6
CONTINUOUS
 10
4.887960
 20
3.398560
  0
VERTEX
  8
0
  6
CONTINUOUS
 10
4.882680
 20
3.398560
  0
SEQEND
  8
0
  0
SOLID
  8
0
 62
    15
 10
1.994960
 20
4.511320
 11
2.657600
 21
4.133800
 12
2.000680
 22
4.456760
 13
2.663320
 23
4.079240
  0
POLYLINE
  8
0
  6
CONTINUOUS
 66
     1
 40
0.000000
 41
0.000000
  0
VERTEX
  8
0
  6
CONTINUOUS
 10
1.994960
 20
4.511320
  0
VERTEX
  8
0
  6
CONTINUOUS
 10
2.657600
 20
4.133800
  0
VERTEX
  8
0
  6
CONTINUOUS
 10
2.663320
 20
4.079240
  0
VERTEX
  8
0
  6
CONTINUOUS
 10
2.000680
 20
4.456760
  0
VERTEX
  8
0
  6
CONTINUOUS
 10
1.994960
 20
4.511320
  0
SEQEND
  8
0
  0
SOLID
  8
0
 62
    15
 10
1.635480
 20
2.596000
 11
2.298120
 21
2.218040
 12
1.624920
 22
2.549360
 13
2.287560
 23
2.171400
  0
POLYLINE
  8
0
  6
CONTINUOUS
 66
     1
 40
0.000000
 41
0.000000
  0
VERTEX
  8
0
  6
CONTINUOUS
 10
1.635480
 20
2.596000
  0
VERTEX
  8
0
  6
CONTINUOUS
 10
2.298120
 20
2.218040
  0
VERTEX
  8
0
  6
CONTINUOUS
 10
2.287560
 20
2.171400
  0
VERTEX
  8
0
  6
CONTINUOUS
 10
1.624920
 20
2.549360
  0
VERTEX
  8
0
  6
CONTINUOUS
 10
1.635480
 20
2.596000
  0
SEQEND
  8
0
  0
SOLID
  8
0
 62
    15
 10
1.624920
 20
2.549360
 11
2.287560
 21
2.171400
 12
1.608200
 22
2.512840
 13
2.270840
 23
2.135320
  0
POLYLINE
  8
0
  6
CONTINUOUS
 66
     1
 40
0.000000
 41
0.000000
  0
VERTEX
  8
0
  6
CONTINUOUS
 10
1.624920
 20
2.549360
  0
VERTEX
  8
0
  6
CONTINUOUS
 10
2.287560
 20
2.171400
  0
VERTEX
  8
0
  6
CONTINUOUS
 10
2.270840
 20
2.135320
  0
VERTEX
  8
0
  6
CONTINUOUS
 10
1.608200
 20
2.512840
  0
VERTEX
  8
0
  6
CONTINUOUS
 10
1.624920
 20
2.549360
  0
SEQEND
  8
0
  0
SOLID
  8
0
 62
    15
 10
1.608200
 20
2.512840
 11
2.270840
 21
2.135320
 12
1.586640
 22
2.485120
 13
2.249280
 23
2.107160
  0
POLYLINE
  8
0
  6
CONTINUOUS
 66
     1
 40
0.000000
 41
0.000000
  0
VERTEX
  8
0
  6
CONTINUOUS
 10
1.608200
 20
2.512840
  0
VERTEX
  8
0
  6
CONTINUOUS
 10
2.270840
 20
2.135320
  0
VERTEX
  8
0
  6
CONTINUOUS
 10
2.249280
 20
2.107160
  0
VERTEX
  8
0
  6
CONTINUOUS
 10
1.586640
 20
2.485120
  0
VERTEX
  8
0
  6
CONTINUOUS
 10
1.608200
 20
2.512840
  0
SEQEND
  8
0
  0
SOLID
  8
0
 62
    15
 10
1.586640
 20
2.485120
 11
2.249280
 21
2.107160
 12
1.561120
 22
2.464000
 13
2.223320
 23
2.086480
  0
POLYLINE
  8
0
  6
CONTINUOUS
 66
     1
 40
0.000000
 41
0.000000
  0
VERTEX
  8
0
  6
CONTINUOUS
 10
1.586640
 20
2.485120
  0
VERTEX
  8
0
  6
CONTINUOUS
 10
2.249280
 20
2.107160
  0
VERTEX
  8
0
  6
CONTINUOUS
 10
2.223320
 20
2.086480
  0
VERTEX
  8
0
  6
CONTINUOUS
 10
1.561120
 20
2.464000
  0
VERTEX
  8
0
  6
CONTINUOUS
 10
1.586640
 20
2.485120
  0
SEQEND
  8
0
  0
SOLID
  8
0
 62
    15
 10
1.561120
 20
2.464000
 11
2.223320
 21
2.086480
 12
1.532080
 22
2.448160
 13
2.194720
 23
2.070200
  0
POLYLINE
  8
0
  6
CONTINUOUS
 66
     1
 40
0.000000
 41
0.000000
  0
VERTEX
  8
0
  6
CONTINUOUS
 10
1.561120
 20
2.464000
  0
VERTEX
  8
0
  6
CONTINUOUS
 10
2.223320
 20
2.086480
  0
VERTEX
  8
0
  6
CONTINUOUS
 10
2.194720
 20
2.070200
  0
VERTEX
  8
0
  6
CONTINUOUS
 10
1.532080
 20
2.448160
  0
VERTEX
  8
0
  6
CONTINUOUS
 10
1.561120
 20
2.464000
  0
SEQEND
  8
0
  0
SOLID
  8
0
 62
    15
 10
1.532080
 20
2.448160
 11
2.194720
 21
2.070200
 12
1.469600
 22
2.424840
 13
2.132240
 23
2.046880
  0
POLYLINE
  8
0
  6
CONTINUOUS
 66
     1
 40
0.000000
 41
0.000000
  0
VERTEX
  8
0
  6
CONTINUOUS
 10
1.532080
 20
2.448160
  0
VERTEX
  8
0
  6
CONTINUOUS
 10
2.194720
 20
2.070200
  0
VERTEX
  8
0
  6
CONTINUOUS
 10
2.132240
 20
2.046880
  0
VERTEX
  8
0
  6
CONTINUOUS
 10
1.469600
 20
2.424840
  0
VERTEX
  8
0
  6
CONTINUOUS
 10
1.532080
 20
2.448160
  0
SEQEND
  8
0
  0
SOLID
  8
0
 62
    15
 10
1.469600
 20
2.424840
 11
2.132240
 21
2.046880
 12
1.453320
 22
2.419560
 13
2.115960
 23
2.041600
  0
POLYLINE
  8
0
  6
CONTINUOUS
 66
     1
 40
0.000000
 41
0.000000
  0
VERTEX
  8
0
  6
CONTINUOUS
 10
1.469600
 20
2.424840
  0
VERTEX
  8
0
  6
CONTINUOUS
 10
2.132240
 20
2.046880
  0
VERTEX
  8
0
  6
CONTINUOUS
 10
2.115960
 20
2.041600
  0
VERTEX
  8
0
  6
CONTINUOUS
 10
1.453320
 20
2.419560
  0
VERTEX
  8
0
  6
CONTINUOUS
 10
1.469600
 20
2.424840
  0
SEQEND
  8
0
  0
SOLID
  8
0
 62
    15
 10
1.453320
 20
2.419560
 11
2.115960
 21
2.041600
 12
1.437480
 22
2.413840
 13
2.100120
 23
2.036320
  0
POLYLINE
  8
0
  6
CONTINUOUS
 66
     1
 40
0.000000
 41
0.000000
  0
VERTEX
  8
0
  6
CONTINUOUS
 10
1.453320
 20
2.419560
  0
VERTEX
  8
0
  6
CONTINUOUS
 10
2.115960
 20
2.041600
  0
VERTEX
  8
0
  6
CONTINUOUS
 10
2.100120
 20
2.036320
  0
VERTEX
  8
0
  6
CONTINUOUS
 10
1.437480
 20
2.413840
  0
VERTEX
  8
0
  6
CONTINUOUS
 10
1.453320
 20
2.419560
  0
SEQEND
  8
0
  0
SOLID
  8
0
 62
    15
 10
1.437480
 20
2.413840
 11
2.100120
 21
2.036320
 12
1.406240
 22
2.401520
 13
2.068440
 23
2.023560
  0
POLYLINE
  8
0
  6
CONTINUOUS
 66
     1
 40
0.000000
 41
0.000000
  0
VERTEX
  8
0
  6
CONTINUOUS
 10
1.437480
 20
2.413840
  0
VERTEX
  8
0
  6
CONTINUOUS
 10
2.100120
 20
2.036320
  0
VERTEX
  8
0
  6
CONTINUOUS
 10
2.068440
 20
2.023560
  0
VERTEX
  8
0
  6
CONTINUOUS
 10
1.406240
 20
2.401520
  0
VERTEX
  8
0
  6
CONTINUOUS
 10
1.437480
 20
2.413840
  0
SEQEND
  8
0
  0
SOLID
  8
0
 62
    15
 10
1.406240
 20
2.401520
 11
2.068440
 21
2.023560
 12
1.376320
 22
2.385240
 13
2.038960
 23
2.007720
  0
POLYLINE
  8
0
  6
CONTINUOUS
 66
     1
 40
0.000000
 41
0.000000
  0
VERTEX
  8
0
  6
CONTINUOUS
 10
1.406240
 20
2.401520
  0
VERTEX
  8
0
  6
CONTINUOUS
 10
2.068440
 20
2.023560
  0
VERTEX
  8
0
  6
CONTINUOUS
 10
2.038960
 20
2.007720
  0
VERTEX
  8
0
  6
CONTINUOUS
 10
1.376320
 20
2.385240
  0
VERTEX
  8
0
  6
CONTINUOUS
 10
1.406240
 20
2.401520
  0
SEQEND
  8
0
  0
SOLID
  8
0
 62
    15
 10
1.376320
 20
2.385240
 11
2.038960
 21
2.007720
 12
1.349480
 22
2.364120
 13
2.012120
 23
1.986600
  0
POLYLINE
  8
0
  6
CONTINUOUS
 66
     1
 40
0.000000
 41
0.000000
  0
VERTEX
  8
0
  6
CONTINUOUS
 10
1.376320
 20
2.385240
  0
VERTEX
  8
0
  6
CONTINUOUS
 10
2.038960
 20
2.007720
  0
VERTEX
  8
0
  6
CONTINUOUS
 10
2.012120
 20
1.986600
  0
VERTEX
  8
0
  6
CONTINUOUS
 10
1.349480
 20
2.364120
  0
VERTEX
  8
0
  6
CONTINUOUS
 10
1.376320
 20
2.385240
  0
SEQEND
  8
0
  0
SOLID
  8
0
 62
    15
 10
1.349480
 20
2.364120
 11
2.012120
 21
1.986600
 12
1.326600
 22
2.336400
 13
1.988800
 23
1.958440
  0
POLYLINE
  8
0
  6
CONTINUOUS
 66
     1
 40
0.000000
 41
0.000000
  0
VERTEX
  8
0
  6
CONTINUOUS
 10
1.349480
 20
2.364120
  0
VERTEX
  8
0
  6
CONTINUOUS
 10
2.012120
 20
1.986600
  0
VERTEX
  8
0
  6
CONTINUOUS
 10
1.988800
 20
1.958440
  0
VERTEX
  8
0
  6
CONTINUOUS
 10
1.326600
 20
2.336400
  0
VERTEX
  8
0
  6
CONTINUOUS
 10
1.349480
 20
2.364120
  0
SEQEND
  8
0
  0
SOLID
  8
0
 62
    15
 10
1.326600
 20
2.336400
 11
1.988800
 21
1.958440
 12
1.308120
 22
2.299880
 13
1.970320
 23
1.921920
  0
POLYLINE
  8
0
  6
CONTINUOUS
 66
     1
 40
0.000000
 41
0.000000
  0
VERTEX
  8
0
  6
CONTINUOUS
 10
1.326600
 20
2.336400
  0
VERTEX
  8
0
  6
CONTINUOUS
 10
1.988800
 20
1.958440
  0
VERTEX
  8
0
  6
CONTINUOUS
 10
1.970320
 20
1.921920
  0
VERTEX
  8
0
  6
CONTINUOUS
 10
1.308120
 20
2.299880
  0
VERTEX
  8
0
  6
CONTINUOUS
 10
1.326600
 20
2.336400
  0
SEQEND
  8
0
  0
SOLID
  8
0
 62
    15
 10
1.308120
 20
2.299880
 11
1.970320
 21
1.921920
 12
1.294920
 22
2.252800
 13
1.957560
 23
1.875280
  0
POLYLINE
  8
0
  6
CONTINUOUS
 66
     1
 40
0.000000
 41
0.000000
  0
VERTEX
  8
0
  6
CONTINUOUS
 10
1.308120
 20
2.299880
  0
VERTEX
  8
0
  6
CONTINUOUS
 10
1.970320
 20
1.921920
  0
VERTEX
  8
0
  6
CONTINUOUS
 10
1.957560
 20
1.875280
  0
VERTEX
  8
0
  6
CONTINUOUS
 10
1.294920
 20
2.252800
  0
VERTEX
  8
0
  6
CONTINUOUS
 10
1.308120
 20
2.299880
  0
SEQEND
  8
0
  0
SOLID
  8
0
 62
    15
 10
1.294920
 20
2.252800
 11
1.957560
 21
1.875280
 12
1.288760
 22
2.194280
 13
1.951400
 23
1.816320
  0
POLYLINE
  8
0
  6
CONTINUOUS
 66
     1
 40
0.000000
 41
0.000000
  0
VERTEX
  8
0
  6
CONTINUOUS
 10
1.294920
 20
2.252800
  0
VERTEX
  8
0
  6
CONTINUOUS
 10
1.957560
 20
1.875280
  0
VERTEX
  8
0
  6
CONTINUOUS
 10
1.951400
 20
1.816320
  0
VERTEX
  8
0
  6
CONTINUOUS
 10
1.288760
 20
2.194280
  0
VERTEX
  8
0
  6
CONTINUOUS
 10
1.294920
 20
2.252800
  0
SEQEND
  8
0
  0
SOLID
  8
0
 62
    15
 10
1.288760
 20
2.194280
 11
1.951400
 21
1.816320
 12
1.288760
 22
2.191640
 13
1.951400
 23
1.813680
  0
POLYLINE
  8
0
  6
CONTINUOUS
 66
     1
 40
0.000000
 41
0.000000
  0
VERTEX
  8
0
  6
CONTINUOUS
 10
1.288760
 20
2.194280
  0
VERTEX
  8
0
  6
CONTINUOUS
 10
1.951400
 20
1.816320
  0
VERTEX
  8
0
  6
CONTINUOUS
 10
1.951400
 20
1.813680
  0
VERTEX
  8
0
  6
CONTINUOUS
 10
1.288760
 20
2.191640
  0
VERTEX
  8
0
  6
CONTINUOUS
 10
1.288760
 20
2.194280
  0
SEQEND
  8
0
  0
SOLID
  8
0
 62
    15
 10
1.288760
 20
2.191640
 11
1.951400
 21
1.813680
 12
1.179200
 22
2.191640
 13
1.841840
 23
1.813680
  0
POLYLINE
  8
0
  6
CONTINUOUS
 66
     1
 40
0.000000
 41
0.000000
  0
VERTEX
  8
0
  6
CONTINUOUS
 10
1.288760
 20
2.191640
  0
VERTEX
  8
0
  6
CONTINUOUS
 10
1.951400
 20
1.813680
  0
VERTEX
  8
0
  6
CONTINUOUS
 10
1.841840
 20
1.813680
  0
VERTEX
  8
0
  6
CONTINUOUS
 10
1.179200
 20
2.191640
  0
VERTEX
  8
0
  6
CONTINUOUS
 10
1.288760
 20
2.191640
  0
SEQEND
  8
0
  0
SOLID
  8
0
 62
    15
 10
1.880560
 20
4.682040
 11
2.542760
 21
4.304520
 12
1.920600
 22
4.649040
 13
2.583240
 23
4.271080
  0
POLYLINE
  8
0
  6
CONTINUOUS
 66
     1
 40
0.000000
 41
0.000000
  0
VERTEX
  8
0
  6
CONTINUOUS
 10
1.880560
 20
4.682040
  0
VERTEX
  8
0
  6
CONTINUOUS
 10
2.542760
 20
4.304520
  0
VERTEX
  8
0
  6
CONTINUOUS
 10
2.583240
 20
4.271080
  0
VERTEX
  8
0
  6
CONTINUOUS
 10
1.920600
 20
4.649040
  0
VERTEX
  8
0
  6
CONTINUOUS
 10
1.880560
 20
4.682040
  0
SEQEND
  8
0
  0
SOLID
  8
0
 62
    15
 10
1.920600
 20
4.649040
 11
2.583240
 21
4.271080
 12
1.954040
 22
4.608560
 13
2.616680
 23
4.231040
  0
POLYLINE
  8
0
  6
CONTINUOUS
 66
     1
 40
0.000000
 41
0.000000
  0
VERTEX
  8
0
  6
CONTINUOUS
 10
1.920600
 20
4.649040
  0
VERTEX
  8
0
  6
CONTINUOUS
 10
2.583240
 20
4.271080
  0
VERTEX
  8
0
  6
CONTINUOUS
 10
2.616680
 20
4.231040
  0
VERTEX
  8
0
  6
CONTINUOUS
 10
1.954040
 20
4.608560
  0
VERTEX
  8
0
  6
CONTINUOUS
 10
1.920600
 20
4.649040
  0
SEQEND
  8
0
  0
SOLID
  8
0
 62
    15
 10
1.954040
 20
4.608560
 11
2.616680
 21
4.231040
 12
1.979120
 22
4.562360
 13
2.641760
 23
4.184840
  0
POLYLINE
  8
0
  6
CONTINUOUS
 66
     1
 40
0.000000
 41
0.000000
  0
VERTEX
  8
0
  6
CONTINUOUS
 10
1.954040
 20
4.608560
  0
VERTEX
  8
0
  6
CONTINUOUS
 10
2.616680
 20
4.231040
  0
VERTEX
  8
0
  6
CONTINUOUS
 10
2.641760
 20
4.184840
  0
VERTEX
  8
0
  6
CONTINUOUS
 10
1.979120
 20
4.562360
  0
VERTEX
  8
0
  6
CONTINUOUS
 10
1.954040
 20
4.608560
  0
SEQEND
  8
0
  0
SOLID
  8
0
 62
    15
 10
1.979120
 20
4.562360
 11
2.641760
 21
4.184840
 12
1.994960
 22
4.511320
 13
2.657600
 23
4.133800
  0
POLYLINE
  8
0
  6
CONTINUOUS
 66
     1
 40
0.000000
 41
0.000000
  0
VERTEX
  8
0
  6
CONTINUOUS
 10
1.979120
 20
4.562360
  0
VERTEX
  8
0
  6
CONTINUOUS
 10
2.641760
 20
4.184840
  0
VERTEX
  8
0
  6
CONTINUOUS
 10
2.657600
 20
4.133800
  0
VERTEX
  8
0
  6
CONTINUOUS
 10
1.994960
 20
4.511320
  0
VERTEX
  8
0
  6
CONTINUOUS
 10
1.979120
 20
4.562360
  0
SEQEND
  8
0
  0
SOLID
  8
0
 62
    15
 10
1.639440
 20
2.654080
 11
2.301640
 21
2.276560
 12
1.635480
 22
2.596000
 13
2.298120
 23
2.218040
  0
POLYLINE
  8
0
  6
CONTINUOUS
 66
     1
 40
0.000000
 41
0.000000
  0
VERTEX
  8
0
  6
CONTINUOUS
 10
1.639440
 20
2.654080
  0
VERTEX
  8
0
  6
CONTINUOUS
 10
2.301640
 20
2.276560
  0
VERTEX
  8
0
  6
CONTINUOUS
 10
2.298120
 20
2.218040
  0
VERTEX
  8
0
  6
CONTINUOUS
 10
1.635480
 20
2.596000
  0
VERTEX
  8
0
  6
CONTINUOUS
 10
1.639440
 20
2.654080
  0
SEQEND
  8
0
  0
SOLID
  8
0
 62
    15
 10
2.000680
 20
4.456760
 11
2.663320
 21
4.079240
 12
1.997160
 22
4.411880
 13
2.659800
 23
4.034360
  0
POLYLINE
  8
0
  6
CONTINUOUS
 66
     1
 40
0.000000
 41
0.000000
  0
VERTEX
  8
0
  6
CONTINUOUS
 10
2.000680
 20
4.456760
  0
VERTEX
  8
0
  6
CONTINUOUS
 10
2.663320
 20
4.079240
  0
VERTEX
  8
0
  6
CONTINUOUS
 10
2.659800
 20
4.034360
  0
VERTEX
  8
0
  6
CONTINUOUS
 10
1.997160
 20
4.411880
  0
VERTEX
  8
0
  6
CONTINUOUS
 10
2.000680
 20
4.456760
  0
SEQEND
  8
0
  0
SOLID
  8
0
 62
    15
 10
1.997160
 20
4.411880
 11
2.659800
 21
4.034360
 12
1.987040
 22
4.367880
 13
2.649240
 23
3.989920
  0
POLYLINE
  8
0
  6
CONTINUOUS
 66
     1
 40
0.000000
 41
0.000000
  0
VERTEX
  8
0
  6
CONTINUOUS
 10
1.997160
 20
4.411880
  0
VERTEX
  8
0
  6
CONTINUOUS
 10
2.659800
 20
4.034360
  0
VERTEX
  8
0
  6
CONTINUOUS
 10
2.649240
 20
3.989920
  0
VERTEX
  8
0
  6
CONTINUOUS
 10
1.987040
 20
4.367880
  0
VERTEX
  8
0
  6
CONTINUOUS
 10
1.997160
 20
4.411880
  0
SEQEND
  8
0
  0
SOLID
  8
0
 62
    15
 10
1.987040
 20
4.367880
 11
2.649240
 21
3.989920
 12
1.970760
 22
4.325200
 13
2.633400
 23
3.947240
  0
POLYLINE
  8
0
  6
CONTINUOUS
 66
     1
 40
0.000000
 41
0.000000
  0
VERTEX
  8
0
  6
CONTINUOUS
 10
1.987040
 20
4.367880
  0
VERTEX
  8
0
  6
CONTINUOUS
 10
2.649240
 20
3.989920
  0
VERTEX
  8
0
  6
CONTINUOUS
 10
2.633400
 20
3.947240
  0
VERTEX
  8
0
  6
CONTINUOUS
 10
1.970760
 20
4.325200
  0
VERTEX
  8
0
  6
CONTINUOUS
 10
1.987040
 20
4.367880
  0
SEQEND
  8
0
  0
SOLID
  8
0
 62
    15
 10
1.970760
 20
4.325200
 11
2.633400
 21
3.947240
 12
1.948760
 22
4.284720
 13
2.611400
 23
3.907200
  0
POLYLINE
  8
0
  6
CONTINUOUS
 66
     1
 40
0.000000
 41
0.000000
  0
VERTEX
  8
0
  6
CONTINUOUS
 10
1.970760
 20
4.325200
  0
VERTEX
  8
0
  6
CONTINUOUS
 10
2.633400
 20
3.947240
  0
VERTEX
  8
0
  6
CONTINUOUS
 10
2.611400
 20
3.907200
  0
VERTEX
  8
0
  6
CONTINUOUS
 10
1.948760
 20
4.284720
  0
VERTEX
  8
0
  6
CONTINUOUS
 10
1.970760
 20
4.325200
  0
SEQEND
  8
0
  0
SOLID
  8
0
 62
    15
 10
1.948760
 20
4.284720
 11
2.611400
 21
3.907200
 12
1.921920
 22
4.248200
 13
2.584560
 23
3.870680
  0
POLYLINE
  8
0
  6
CONTINUOUS
 66
     1
 40
0.000000
 41
0.000000
  0
VERTEX
  8
0
  6
CONTINUOUS
 10
1.948760
 20
4.284720
  0
VERTEX
  8
0
  6
CONTINUOUS
 10
2.611400
 20
3.907200
  0
VERTEX
  8
0
  6
CONTINUOUS
 10
2.584560
 20
3.870680
  0
VERTEX
  8
0
  6
CONTINUOUS
 10
1.921920
 20
4.248200
  0
VERTEX
  8
0
  6
CONTINUOUS
 10
1.948760
 20
4.284720
  0
SEQEND
  8
0
  0
SOLID
  8
0
 62
    15
 10
1.921920
 20
4.248200
 11
2.584560
 21
3.870680
 12
1.891120
 22
4.216080
 13
2.553320
 23
3.838560
  0
POLYLINE
  8
0
  6
CONTINUOUS
 66
     1
 40
0.000000
 41
0.000000
  0
VERTEX
  8
0
  6
CONTINUOUS
 10
1.921920
 20
4.248200
  0
VERTEX
  8
0
  6
CONTINUOUS
 10
2.584560
 20
3.870680
  0
VERTEX
  8
0
  6
CONTINUOUS
 10
2.553320
 20
3.838560
  0
VERTEX
  8
0
  6
CONTINUOUS
 10
1.891120
 20
4.216080
  0
VERTEX
  8
0
  6
CONTINUOUS
 10
1.921920
 20
4.248200
  0
SEQEND
  8
0
  0
SOLID
  8
0
 62
    15
 10
1.891120
 20
4.216080
 11
2.553320
 21
3.838560
 12
1.855920
 22
4.189240
 13
2.518560
 23
3.811720
  0
POLYLINE
  8
0
  6
CONTINUOUS
 66
     1
 40
0.000000
 41
0.000000
  0
VERTEX
  8
0
  6
CONTINUOUS
 10
1.891120
 20
4.216080
  0
VERTEX
  8
0
  6
CONTINUOUS
 10
2.553320
 20
3.838560
  0
VERTEX
  8
0
  6
CONTINUOUS
 10
2.518560
 20
3.811720
  0
VERTEX
  8
0
  6
CONTINUOUS
 10
1.855920
 20
4.189240
  0
VERTEX
  8
0
  6
CONTINUOUS
 10
1.891120
 20
4.216080
  0
SEQEND
  8
0
  0
SOLID
  8
0
 62
    15
 10
1.855920
 20
4.189240
 11
2.518560
 21
3.811720
 12
1.818080
 22
4.169000
 13
2.480720
 23
3.791040
  0
POLYLINE
  8
0
  6
CONTINUOUS
 66
     1
 40
0.000000
 41
0.000000
  0
VERTEX
  8
0
  6
CONTINUOUS
 10
1.855920
 20
4.189240
  0
VERTEX
  8
0
  6
CONTINUOUS
 10
2.518560
 20
3.811720
  0
VERTEX
  8
0
  6
CONTINUOUS
 10
2.480720
 20
3.791040
  0
VERTEX
  8
0
  6
CONTINUOUS
 10
1.818080
 20
4.169000
  0
VERTEX
  8
0
  6
CONTINUOUS
 10
1.855920
 20
4.189240
  0
SEQEND
  8
0
  0
SOLID
  8
0
 62
    15
 10
1.818080
 20
4.169000
 11
2.480720
 21
3.791040
 12
1.815440
 22
4.169000
 13
2.478080
 23
3.791040
  0
POLYLINE
  8
0
  6
CONTINUOUS
 66
     1
 40
0.000000
 41
0.000000
  0
VERTEX
  8
0
  6
CONTINUOUS
 10
1.818080
 20
4.169000
  0
VERTEX
  8
0
  6
CONTINUOUS
 10
2.480720
 20
3.791040
  0
VERTEX
  8
0
  6
CONTINUOUS
 10
2.478080
 20
3.791040
  0
VERTEX
  8
0
  6
CONTINUOUS
 10
1.815440
 20
4.169000
  0
VERTEX
  8
0
  6
CONTINUOUS
 10
1.818080
 20
4.169000
  0
SEQEND
  8
0
  0
SOLID
  8
0
 62
    15
 10
1.815440
 20
4.169000
 11
2.478080
 21
3.791040
 12
1.789480
 22
4.153160
 13
2.452120
 23
3.775200
  0
POLYLINE
  8
0
  6
CONTINUOUS
 66
     1
 40
0.000000
 41
0.000000
  0
VERTEX
  8
0
  6
CONTINUOUS
 10
1.815440
 20
4.169000
  0
VERTEX
  8
0
  6
CONTINUOUS
 10
2.478080
 20
3.791040
  0
VERTEX
  8
0
  6
CONTINUOUS
 10
2.452120
 20
3.775200
  0
VERTEX
  8
0
  6
CONTINUOUS
 10
1.789480
 20
4.153160
  0
VERTEX
  8
0
  6
CONTINUOUS
 10
1.815440
 20
4.169000
  0
SEQEND
  8
0
  0
SOLID
  8
0
 62
    15
 10
1.789480
 20
4.153160
 11
2.452120
 21
3.775200
 12
1.770120
 22
4.133360
 13
2.432760
 23
3.755400
  0
POLYLINE
  8
0
  6
CONTINUOUS
 66
     1
 40
0.000000
 41
0.000000
  0
VERTEX
  8
0
  6
CONTINUOUS
 10
1.789480
 20
4.153160
  0
VERTEX
  8
0
  6
CONTINUOUS
 10
2.452120
 20
3.775200
  0
VERTEX
  8
0
  6
CONTINUOUS
 10
2.432760
 20
3.755400
  0
VERTEX
  8
0
  6
CONTINUOUS
 10
1.770120
 20
4.133360
  0
VERTEX
  8
0
  6
CONTINUOUS
 10
1.789480
 20
4.153160
  0
SEQEND
  8
0
  0
SOLID
  8
0
 62
    15
 10
1.770120
 20
4.133360
 11
2.432760
 21
3.755400
 12
1.755600
 22
4.111360
 13
2.418240
 23
3.733400
  0
POLYLINE
  8
0
  6
CONTINUOUS
 66
     1
 40
0.000000
 41
0.000000
  0
VERTEX
  8
0
  6
CONTINUOUS
 10
1.770120
 20
4.133360
  0
VERTEX
  8
0
  6
CONTINUOUS
 10
2.432760
 20
3.755400
  0
VERTEX
  8
0
  6
CONTINUOUS
 10
2.418240
 20
3.733400
  0
VERTEX
  8
0
  6
CONTINUOUS
 10
1.755600
 20
4.111360
  0
VERTEX
  8
0
  6
CONTINUOUS
 10
1.770120
 20
4.133360
  0
SEQEND
  8
0
  0
SOLID
  8
0
 62
    15
 10
1.755600
 20
4.111360
 11
2.418240
 21
3.733400
 12
1.745480
 22
4.088480
 13
2.408120
 23
3.710960
  0
POLYLINE
  8
0
  6
CONTINUOUS
 66
     1
 40
0.000000
 41
0.000000
  0
VERTEX
  8
0
  6
CONTINUOUS
 10
1.755600
 20
4.111360
  0
VERTEX
  8
0
  6
CONTINUOUS
 10
2.418240
 20
3.733400
  0
VERTEX
  8
0
  6
CONTINUOUS
 10
2.408120
 20
3.710960
  0
VERTEX
  8
0
  6
CONTINUOUS
 10
1.745480
 20
4.088480
  0
VERTEX
  8
0
  6
CONTINUOUS
 10
1.755600
 20
4.111360
  0
SEQEND
  8
0
  0
SOLID
  8
0
 62
    15
 10
1.745480
 20
4.088480
 11
2.408120
 21
3.710960
 12
1.735800
 22
4.046240
 13
2.398440
 23
3.668720
  0
POLYLINE
  8
0
  6
CONTINUOUS
 66
     1
 40
0.000000
 41
0.000000
  0
VERTEX
  8
0
  6
CONTINUOUS
 10
1.745480
 20
4.088480
  0
VERTEX
  8
0
  6
CONTINUOUS
 10
2.408120
 20
3.710960
  0
VERTEX
  8
0
  6
CONTINUOUS
 10
2.398440
 20
3.668720
  0
VERTEX
  8
0
  6
CONTINUOUS
 10
1.735800
 20
4.046240
  0
VERTEX
  8
0
  6
CONTINUOUS
 10
1.745480
 20
4.088480
  0
SEQEND
  8
0
  0
SOLID
  8
0
 62
    15
 10
1.735800
 20
4.046240
 11
2.398440
 21
3.668720
 12
1.734480
 22
4.029960
 13
2.396680
 23
3.652000
  0
POLYLINE
  8
0
  6
CONTINUOUS
 66
     1
 40
0.000000
 41
0.000000
  0
VERTEX
  8
0
  6
CONTINUOUS
 10
1.735800
 20
4.046240
  0
VERTEX
  8
0
  6
CONTINUOUS
 10
2.398440
 20
3.668720
  0
VERTEX
  8
0
  6
CONTINUOUS
 10
2.396680
 20
3.652000
  0
VERTEX
  8
0
  6
CONTINUOUS
 10
1.734480
 20
4.029960
  0
VERTEX
  8
0
  6
CONTINUOUS
 10
1.735800
 20
4.046240
  0
SEQEND
  8
0
  0
SOLID
  8
0
 62
    15
 10
1.734480
 20
4.029960
 11
2.396680
 21
3.652000
 12
1.734040
 22
4.018080
 13
2.396680
 23
3.640560
  0
POLYLINE
  8
0
  6
CONTINUOUS
 66
     1
 40
0.000000
 41
0.000000
  0
VERTEX
  8
0
  6
CONTINUOUS
 10
1.734480
 20
4.029960
  0
VERTEX
  8
0
  6
CONTINUOUS
 10
2.396680
 20
3.652000
  0
VERTEX
  8
0
  6
CONTINUOUS
 10
2.396680
 20
3.640560
  0
VERTEX
  8
0
  6
CONTINUOUS
 10
1.734040
 20
4.018080
  0
VERTEX
  8
0
  6
CONTINUOUS
 10
1.734480
 20
4.029960
  0
SEQEND
  8
0
  0
SOLID
  8
0
 62
    15
 10
1.734040
 20
4.018080
 11
2.396680
 21
3.640560
 12
1.734040
 22
3.926120
 13
2.396680
 23
3.548600
  0
POLYLINE
  8
0
  6
CONTINUOUS
 66
     1
 40
0.000000
 41
0.000000
  0
VERTEX
  8
0
  6
CONTINUOUS
 10
1.734040
 20
4.018080
  0
VERTEX
  8
0
  6
CONTINUOUS
 10
2.396680
 20
3.640560
  0
VERTEX
  8
0
  6
CONTINUOUS
 10
2.396680
 20
3.548600
  0
VERTEX
  8
0
  6
CONTINUOUS
 10
1.734040
 20
3.926120
  0
VERTEX
  8
0
  6
CONTINUOUS
 10
1.734040
 20
4.018080
  0
SEQEND
  8
0
  0
SOLID
  8
0
 62
    15
 10
1.734040
 20
3.926120
 11
2.396680
 21
3.548600
 12
1.732720
 22
3.924800
 13
2.395360
 23
3.547280
  0
POLYLINE
  8
0
  6
CONTINUOUS
 66
     1
 40
0.000000
 41
0.000000
  0
VERTEX
  8
0
  6
CONTINUOUS
 10
1.734040
 20
3.926120
  0
VERTEX
  8
0
  6
CONTINUOUS
 10
2.396680
 20
3.548600
  0
VERTEX
  8
0
  6
CONTINUOUS
 10
2.395360
 20
3.547280
  0
VERTEX
  8
0
  6
CONTINUOUS
 10
1.732720
 20
3.924800
  0
VERTEX
  8
0
  6
CONTINUOUS
 10
1.734040
 20
3.926120
  0
SEQEND
  8
0
  0
SOLID
  8
0
 62
    15
 10
1.732720
 20
3.924800
 11
2.395360
 21
3.547280
 12
1.690040
 22
3.924800
 13
2.352680
 23
3.547280
  0
POLYLINE
  8
0
  6
CONTINUOUS
 66
     1
 40
0.000000
 41
0.000000
  0
VERTEX
  8
0
  6
CONTINUOUS
 10
1.732720
 20
3.924800
  0
VERTEX
  8
0
  6
CONTINUOUS
 10
2.395360
 20
3.547280
  0
VERTEX
  8
0
  6
CONTINUOUS
 10
2.352680
 20
3.547280
  0
VERTEX
  8
0
  6
CONTINUOUS
 10
1.690040
 20
3.924800
  0
VERTEX
  8
0
  6
CONTINUOUS
 10
1.732720
 20
3.924800
  0
SEQEND
  8
0
  0
SOLID
  8
0
 62
    15
 10
1.690040
 20
3.924800
 11
2.352680
 21
3.547280
 12
1.690040
 22
2.661120
 13
2.352680
 23
2.283160
  0
POLYLINE
  8
0
  6
CONTINUOUS
 66
     1
 40
0.000000
 41
0.000000
  0
VERTEX
  8
0
  6
CONTINUOUS
 10
1.690040
 20
3.924800
  0
VERTEX
  8
0
  6
CONTINUOUS
 10
2.352680
 20
3.547280
  0
VERTEX
  8
0
  6
CONTINUOUS
 10
2.352680
 20
2.283160
  0
VERTEX
  8
0
  6
CONTINUOUS
 10
1.690040
 20
2.661120
  0
VERTEX
  8
0
  6
CONTINUOUS
 10
1.690040
 20
3.924800
  0
SEQEND
  8
0
  0
SOLID
  8
0
 62
    15
 10
1.690040
 20
2.661120
 11
2.352680
 21
2.283160
 12
1.639440
 22
2.661120
 13
2.302080
 23
2.283160
  0
POLYLINE
  8
0
  6
CONTINUOUS
 66
     1
 40
0.000000
 41
0.000000
  0
VERTEX
  8
0
  6
CONTINUOUS
 10
1.690040
 20
2.661120
  0
VERTEX
  8
0
  6
CONTINUOUS
 10
2.352680
 20
2.283160
  0
VERTEX
  8
0
  6
CONTINUOUS
 10
2.302080
 20
2.283160
  0
VERTEX
  8
0
  6
CONTINUOUS
 10
1.639440
 20
2.661120
  0
VERTEX
  8
0
  6
CONTINUOUS
 10
1.690040
 20
2.661120
  0
SEQEND
  8
0
  0
SOLID
  8
0
 62
    15
 10
1.639440
 20
2.661120
 11
2.302080
 21
2.283160
 12
1.639440
 22
2.648800
 13
2.301640
 23
2.271280
  0
POLYLINE
  8
0
  6
CONTINUOUS
 66
     1
 40
0.000000
 41
0.000000
  0
VERTEX
  8
0
  6
CONTINUOUS
 10
1.639440
 20
2.661120
  0
VERTEX
  8
0
  6
CONTINUOUS
 10
2.302080
 20
2.283160
  0
VERTEX
  8
0
  6
CONTINUOUS
 10
2.301640
 20
2.271280
  0
VERTEX
  8
0
  6
CONTINUOUS
 10
1.639440
 20
2.648800
  0
VERTEX
  8
0
  6
CONTINUOUS
 10
1.639440
 20
2.661120
  0
SEQEND
  8
0
  0
POLYLINE
  8
0
  6
CONTINUOUS
 66
     1
 40
0.000000
 41
0.000000
  0
VERTEX
  8
0
  6
CONTINUOUS
 10
1.639440
 20
2.654080
  0
VERTEX
  8
0
  6
CONTINUOUS
 10
1.635480
 20
2.596000
  0
VERTEX
  8
0
  6
CONTINUOUS
 10
1.624920
 20
2.549360
  0
VERTEX
  8
0
  6
CONTINUOUS
 10
1.608200
 20
2.512840
  0
VERTEX
  8
0
  6
CONTINUOUS
 10
1.586640
 20
2.485120
  0
VERTEX
  8
0
  6
CONTINUOUS
 10
1.561120
 20
2.464000
  0
VERTEX
  8
0
  6
CONTINUOUS
 10
1.532080
 20
2.448160
  0
VERTEX
  8
0
  6
CONTINUOUS
 10
1.406240
 20
2.401520
  0
VERTEX
  8
0
  6
CONTINUOUS
 10
1.376320
 20
2.385240
  0
VERTEX
  8
0
  6
CONTINUOUS
 10
1.349480
 20
2.364120
  0
VERTEX
  8
0
  6
CONTINUOUS
 10
1.326600
 20
2.336400
  0
VERTEX
  8
0
  6
CONTINUOUS
 10
1.308120
 20
2.299880
  0
VERTEX
  8
0
  6
CONTINUOUS
 10
1.294920
 20
2.252800
  0
VERTEX
  8
0
  6
CONTINUOUS
 10
1.288760
 20
2.191640
  0
VERTEX
  8
0
  6
CONTINUOUS
 10
1.179200
 20
2.191640
  0
VERTEX
  8
0
  6
CONTINUOUS
 10
1.180520
 20
2.195600
  0
VERTEX
  8
0
  6
CONTINUOUS
 10
1.180520
 20
4.410120
  0
VERTEX
  8
0
  6
CONTINUOUS
 10
1.456400
 20
4.410120
  0
VERTEX
  8
0
  6
CONTINUOUS
 10
1.458160
 20
4.411440
  0
VERTEX
  8
0
  6
CONTINUOUS
 10
1.458160
 20
4.455440
  0
VERTEX
  8
0
  6
CONTINUOUS
 10
1.456840
 20
4.456760
  0
VERTEX
  8
0
  6
CONTINUOUS
 10
1.462120
 20
4.511320
  0
VERTEX
  8
0
  6
CONTINUOUS
 10
1.477960
 20
4.562360
  0
VERTEX
  8
0
  6
CONTINUOUS
 10
1.503480
 20
4.608560
  0
VERTEX
  8
0
  6
CONTINUOUS
 10
1.536480
 20
4.649040
  0
VERTEX
  8
0
  6
CONTINUOUS
 10
1.576960
 20
4.682040
  0
VERTEX
  8
0
  6
CONTINUOUS
 10
1.623160
 20
4.707560
  0
VERTEX
  8
0
  6
CONTINUOUS
 10
1.674200
 20
4.723400
  0
VERTEX
  8
0
  6
CONTINUOUS
 10
1.728760
 20
4.729120
  0
VERTEX
  8
0
  6
CONTINUOUS
 10
1.783320
 20
4.723400
  0
VERTEX
  8
0
  6
CONTINUOUS
 10
1.834360
 20
4.707560
  0
VERTEX
  8
0
  6
CONTINUOUS
 10
1.880560
 20
4.682040
  0
VERTEX
  8
0
  6
CONTINUOUS
 10
1.920600
 20
4.649040
  0
VERTEX
  8
0
  6
CONTINUOUS
 10
1.954040
 20
4.608560
  0
VERTEX
  8
0
  6
CONTINUOUS
 10
1.979120
 20
4.562360
  0
VERTEX
  8
0
  6
CONTINUOUS
 10
1.994960
 20
4.511320
  0
VERTEX
  8
0
  6
CONTINUOUS
 10
2.000680
 20
4.456760
  0
VERTEX
  8
0
  6
CONTINUOUS
 10
1.997160
 20
4.411880
  0
VERTEX
  8
0
  6
CONTINUOUS
 10
1.987040
 20
4.367880
  0
VERTEX
  8
0
  6
CONTINUOUS
 10
1.970760
 20
4.325200
  0
VERTEX
  8
0
  6
CONTINUOUS
 10
1.948760
 20
4.284720
  0
VERTEX
  8
0
  6
CONTINUOUS
 10
1.921920
 20
4.248200
  0
VERTEX
  8
0
  6
CONTINUOUS
 10
1.891120
 20
4.216080
  0
VERTEX
  8
0
  6
CONTINUOUS
 10
1.855920
 20
4.189240
  0
VERTEX
  8
0
  6
CONTINUOUS
 10
1.818080
 20
4.169000
  0
VERTEX
  8
0
  6
CONTINUOUS
 10
1.815440
 20
4.169000
  0
VERTEX
  8
0
  6
CONTINUOUS
 10
1.789480
 20
4.153160
  0
VERTEX
  8
0
  6
CONTINUOUS
 10
1.770120
 20
4.133360
  0
VERTEX
  8
0
  6
CONTINUOUS
 10
1.755600
 20
4.111360
  0
VERTEX
  8
0
  6
CONTINUOUS
 10
1.745480
 20
4.088480
  0
VERTEX
  8
0
  6
CONTINUOUS
 10
1.735800
 20
4.046240
  0
VERTEX
  8
0
  6
CONTINUOUS
 10
1.734040
 20
4.018080
  0
VERTEX
  8
0
  6
CONTINUOUS
 10
1.734040
 20
3.926120
  0
VERTEX
  8
0
  6
CONTINUOUS
 10
1.732720
 20
3.924800
  0
VERTEX
  8
0
  6
CONTINUOUS
 10
1.690040
 20
3.924800
  0
VERTEX
  8
0
  6
CONTINUOUS
 10
1.690040
 20
2.661120
  0
VERTEX
  8
0
  6
CONTINUOUS
 10
1.639440
 20
2.661120
  0
VERTEX
  8
0
  6
CONTINUOUS
 10
1.639440
 20
2.648800
  0
VERTEX
  8
0
  6
CONTINUOUS
 10
1.639440
 20
2.654080
  0
SEQEND
  8
0
  0
TEXT
  8
0
 10
1.672880
 20
1.576080
 40
0.138124
  1
BA  51
 41
1.000000
  7
SN0
 71
     0
 72
     5
 11
2.170819
 21
1.576080
  0
TEXT
  8
0
 10
1.378520
 20
1.384240
 40
0.138124
  1
13/16" x 2-1/2"
 41
1.000000
  7
SN0
 71
     0
 72
     5
 11
2.463510
 21
1.384240
  0
ENDSEC
  0
EOF
