  0
SECTION
  2
HEADER
  9
$ACADVER
  1
AC1006
  9
$EXTMIN
 10
3.879920
 20
3.291200
  9
$EXTMAX
 10
6.368120
 20
6.027560
  9
$LTSCALE
 40
0.044000
  9
$PDMODE
 70
    35
  9
$PDSIZE
 40
0.035200
  0
ENDSEC
  0
SECTION
  2
TABLES
  0
TABLE
  2
LTYPE
 70
     9
  0
LTYPE
  2
CONTINUOUS
 70
    64
  3
Solid line
 72
    65
 73
     0
 40
0.000000
  0
LTYPE
  2
DASHED
 70
    64
  3
__ __ __ __ __ __ __ __ __ __ __ __ __ __ __
 72
    65
 73
     2
 40
0.000330
 49
0.000220
 49
-0.000110
  0
LTYPE
  2
HIDDEN
 70
    64
  3
 _ _ _ _ _ _ _ _ _ _ _ _ _ _ _ _ _ _ _ _ _ _
 72
    65
 73
     2
 40
0.000165
 49
0.000110
 49
-0.000055
  0
LTYPE
  2
CENTER
 70
    64
  3
____ _ ____ _ ____ _ ____ _ ____ _ ____ _ ____
 72
    65
 73
     4
 40
0.000880
 49
0.000550
 49
-0.000110
 49
0.000110
 49
-0.000110
  0
LTYPE
  2
PHANTOM
 70
    64
  3
_____ _ _ _____ _ _ _____ _ _ _____ _ _ ____
 72
    65
 73
     6
 40
0.001100
 49
0.000550
 49
-0.000110
 49
0.000110
 49
-0.000110
 49
0.000110
 49
-0.000110
  0
LTYPE
  2
DOT
 70
    64
  3
...............................................
 72
    65
 73
     2
 40
0.000110
 49
0.000000
 49
-0.000110
  0
LTYPE
  2
DASHDOT
 70
    64
  3
__ . __ . __ . __ . __ . __ . __ . __ . __ . __
 72
    65
 73
     4
 40
0.000440
 49
0.000220
 49
-0.000110
 49
0.000000
 49
-0.000110
  0
LTYPE
  2
BORDER
 70
    64
  3
__ __ . __ __ . __ __ . __ __ . __ __ . __ __
 72
    65
 73
     6
 40
0.000770
 49
0.000220
 49
-0.000110
 49
0.000220
 49
-0.000110
 49
0.000000
 49
-0.000110
  0
LTYPE
  2
DIVIDE
 70
    64
  3
__ . . __ . . __ . . __ . . __ . . __ . . __
 72
    65
 73
     6
 40
0.000550
 49
0.000220
 49
-0.000110
 49
0.000000
 49
-0.000110
 49
0.000000
 49
-0.000110
  0
LTYPE
  2
DOTDOT
 70
    64
  3
 . .  . .  . .  . .  . .  . . 
 72
    65
 73
     5
 40
0.000242
 49
-0.000110
 49
0.000000
 49
-0.000110
 49
0.000000
 49
-0.000110
  0
ENDTAB
  0
TABLE
  2
STYLE
 70
     2
  0
STYLE
 70
     0
  2
SN0
 40
0.000000
 41
0.000440
 50
0.000000
 71
     0
 42
0.000000
  3
ROMAND
  0
STYLE
 70
    68
  2
SV0
 40
0.000000
 41
0.000440
 50
0.000000
 71
     0
 42
0.000000
  3
ROMAND
  0
ENDTAB
  0
TABLE
  2
LAYER
 70
     3
  0
LAYER
  2
FOREGROUND
 70
    64
 62
     7
  6
CONTINUOUS
  0
LAYER
  2
BACKGROUND
 70
    65
 62
    -7
  6
CONTINUOUS
  0
LAYER
  2
0
 70
    64
 62
     7
  6
CONTINUOUS
  0
ENDTAB
  0
ENDSEC
  0
SECTION
  2
ENTITIES
  0
POLYLINE
  8
FOREGROUND
  6
CONTINUOUS
 66
     1
 40
0.000000
 41
0.000000
  0
VERTEX
  8
FOREGROUND
  6
CONTINUOUS
 10
0.000000
 20
9.318760
  0
VERTEX
  8
FOREGROUND
  6
CONTINUOUS
 10
8.499920
 20
9.318760
  0
VERTEX
  8
FOREGROUND
  6
CONTINUOUS
 10
8.499920
 20
-1.681240
  0
VERTEX
  8
FOREGROUND
  6
CONTINUOUS
 10
0.000000
 20
-1.681240
  0
VERTEX
  8
FOREGROUND
  6
CONTINUOUS
 10
0.000000
 20
9.318760
  0
SEQEND
  8
0
  0
POLYLINE
  8
FOREGROUND
  6
CONTINUOUS
 66
     1
 40
0.000000
 41
0.000000
  0
VERTEX
  8
FOREGROUND
  6
CONTINUOUS
 10
0.000000
 20
9.318760
  0
VERTEX
  8
FOREGROUND
  6
CONTINUOUS
 10
8.499920
 20
9.318760
  0
VERTEX
  8
FOREGROUND
  6
CONTINUOUS
 10
8.499920
 20
-1.681240
  0
VERTEX
  8
FOREGROUND
  6
CONTINUOUS
 10
0.000000
 20
-1.681240
  0
VERTEX
  8
FOREGROUND
  6
CONTINUOUS
 10
0.000000
 20
9.318760
  0
SEQEND
  8
0
  0
POLYLINE
  8
0
  6
CONTINUOUS
 66
     1
 40
0.014080
 41
0.014080
  0
VERTEX
  8
0
  6
CONTINUOUS
 10
5.775880
 20
5.693160
  0
VERTEX
  8
0
  6
CONTINUOUS
 10
5.755640
 20
5.693160
  0
VERTEX
  8
0
  6
CONTINUOUS
 10
5.729240
 20
5.727920
  0
VERTEX
  8
0
  6
CONTINUOUS
 10
5.458640
 20
5.727920
  0
VERTEX
  8
0
  6
CONTINUOUS
 10
5.462600
 20
5.727920
  0
VERTEX
  8
0
  6
CONTINUOUS
 10
5.450280
 20
5.727920
  0
VERTEX
  8
0
  6
CONTINUOUS
 10
5.344240
 20
5.760480
  0
VERTEX
  8
0
  6
CONTINUOUS
 10
5.256240
 20
5.789960
  0
VERTEX
  8
0
  6
CONTINUOUS
 10
5.145360
 20
5.832200
  0
VERTEX
  8
0
  6
CONTINUOUS
 10
5.002360
 20
5.890720
  0
VERTEX
  8
0
  6
CONTINUOUS
 10
4.946040
 20
5.910080
  0
VERTEX
  8
0
  6
CONTINUOUS
 10
4.884440
 20
5.925480
  0
VERTEX
  8
0
  6
CONTINUOUS
 10
4.836920
 20
5.934280
  0
VERTEX
  8
0
  6
CONTINUOUS
 10
4.783240
 20
5.941320
  0
VERTEX
  8
0
  6
CONTINUOUS
 10
4.703600
 20
5.948360
  0
VERTEX
  8
0
  6
CONTINUOUS
 10
4.562360
 20
5.954520
  0
VERTEX
  8
0
  6
CONTINUOUS
 10
4.523640
 20
6.020080
  0
VERTEX
  8
0
  6
CONTINUOUS
 10
4.515720
 20
6.020080
  0
VERTEX
  8
0
  6
CONTINUOUS
 10
4.518360
 20
6.020080
  0
VERTEX
  8
0
  6
CONTINUOUS
 10
3.894440
 20
6.020080
  0
VERTEX
  8
0
  6
CONTINUOUS
 10
3.894440
 20
5.393080
  0
VERTEX
  8
0
  6
CONTINUOUS
 10
6.361080
 20
5.393080
  0
VERTEX
  8
0
  6
CONTINUOUS
 10
6.332480
 20
5.627600
  0
VERTEX
  8
0
  6
CONTINUOUS
 10
6.325000
 20
5.648720
  0
VERTEX
  8
0
  6
CONTINUOUS
 10
6.311800
 20
5.667640
  0
VERTEX
  8
0
  6
CONTINUOUS
 10
6.294200
 20
5.682600
  0
VERTEX
  8
0
  6
CONTINUOUS
 10
6.274400
 20
5.691400
  0
VERTEX
  8
0
  6
CONTINUOUS
 10
6.259880
 20
5.693160
  0
VERTEX
  8
0
  6
CONTINUOUS
 10
6.261200
 20
5.693160
  0
VERTEX
  8
0
  6
CONTINUOUS
 10
5.766640
 20
5.693160
  0
VERTEX
  8
0
  6
CONTINUOUS
 10
5.775880
 20
5.693160
  0
SEQEND
  8
0
  0
SOLID
  8
0
 62
    15
 10
4.769160
 20
4.294840
 11
4.769160
 21
5.040640
 12
4.823280
 22
4.287800
 13
4.823280
 23
5.033600
  0
POLYLINE
  8
0
  6
CONTINUOUS
 66
     1
 40
0.000000
 41
0.000000
  0
VERTEX
  8
0
  6
CONTINUOUS
 10
4.769160
 20
4.294840
  0
VERTEX
  8
0
  6
CONTINUOUS
 10
4.769160
 20
5.040640
  0
VERTEX
  8
0
  6
CONTINUOUS
 10
4.823280
 20
5.033600
  0
VERTEX
  8
0
  6
CONTINUOUS
 10
4.823280
 20
4.287800
  0
VERTEX
  8
0
  6
CONTINUOUS
 10
4.769160
 20
4.294840
  0
SEQEND
  8
0
  0
SOLID
  8
0
 62
    15
 10
6.245800
 20
4.046680
 11
6.245800
 21
4.792480
 12
6.259880
 22
4.044920
 13
6.259880
 23
4.790720
  0
POLYLINE
  8
0
  6
CONTINUOUS
 66
     1
 40
0.000000
 41
0.000000
  0
VERTEX
  8
0
  6
CONTINUOUS
 10
6.245800
 20
4.046680
  0
VERTEX
  8
0
  6
CONTINUOUS
 10
6.245800
 20
4.792480
  0
VERTEX
  8
0
  6
CONTINUOUS
 10
6.259880
 20
4.790720
  0
VERTEX
  8
0
  6
CONTINUOUS
 10
6.259880
 20
4.044920
  0
VERTEX
  8
0
  6
CONTINUOUS
 10
6.245800
 20
4.046680
  0
SEQEND
  8
0
  0
SOLID
  8
0
 62
    15
 10
6.259880
 20
4.044920
 11
6.259880
 21
4.790720
 12
6.273960
 22
4.039640
 13
6.273960
 23
4.785440
  0
POLYLINE
  8
0
  6
CONTINUOUS
 66
     1
 40
0.000000
 41
0.000000
  0
VERTEX
  8
0
  6
CONTINUOUS
 10
6.259880
 20
4.044920
  0
VERTEX
  8
0
  6
CONTINUOUS
 10
6.259880
 20
4.790720
  0
VERTEX
  8
0
  6
CONTINUOUS
 10
6.273960
 20
4.785440
  0
VERTEX
  8
0
  6
CONTINUOUS
 10
6.273960
 20
4.039640
  0
VERTEX
  8
0
  6
CONTINUOUS
 10
6.259880
 20
4.044920
  0
SEQEND
  8
0
  0
SOLID
  8
0
 62
    15
 10
6.273960
 20
4.039640
 11
6.273960
 21
4.785440
 12
6.297720
 22
4.021160
 13
6.297720
 23
4.766960
  0
POLYLINE
  8
0
  6
CONTINUOUS
 66
     1
 40
0.000000
 41
0.000000
  0
VERTEX
  8
0
  6
CONTINUOUS
 10
6.273960
 20
4.039640
  0
VERTEX
  8
0
  6
CONTINUOUS
 10
6.273960
 20
4.785440
  0
VERTEX
  8
0
  6
CONTINUOUS
 10
6.297720
 20
4.766960
  0
VERTEX
  8
0
  6
CONTINUOUS
 10
6.297720
 20
4.021160
  0
VERTEX
  8
0
  6
CONTINUOUS
 10
6.273960
 20
4.039640
  0
SEQEND
  8
0
  0
SOLID
  8
0
 62
    15
 10
6.297720
 20
4.021160
 11
6.297720
 21
4.766960
 12
6.314000
 22
3.995640
 13
6.314000
 23
4.741440
  0
POLYLINE
  8
0
  6
CONTINUOUS
 66
     1
 40
0.000000
 41
0.000000
  0
VERTEX
  8
0
  6
CONTINUOUS
 10
6.297720
 20
4.021160
  0
VERTEX
  8
0
  6
CONTINUOUS
 10
6.297720
 20
4.766960
  0
VERTEX
  8
0
  6
CONTINUOUS
 10
6.314000
 20
4.741440
  0
VERTEX
  8
0
  6
CONTINUOUS
 10
6.314000
 20
3.995640
  0
VERTEX
  8
0
  6
CONTINUOUS
 10
6.297720
 20
4.021160
  0
SEQEND
  8
0
  0
SOLID
  8
0
 62
    15
 10
6.314000
 20
3.995640
 11
6.314000
 21
4.741440
 12
6.320600
 22
3.966600
 13
6.320600
 23
4.712400
  0
POLYLINE
  8
0
  6
CONTINUOUS
 66
     1
 40
0.000000
 41
0.000000
  0
VERTEX
  8
0
  6
CONTINUOUS
 10
6.314000
 20
3.995640
  0
VERTEX
  8
0
  6
CONTINUOUS
 10
6.314000
 20
4.741440
  0
VERTEX
  8
0
  6
CONTINUOUS
 10
6.320600
 20
4.712400
  0
VERTEX
  8
0
  6
CONTINUOUS
 10
6.320600
 20
3.966600
  0
VERTEX
  8
0
  6
CONTINUOUS
 10
6.314000
 20
3.995640
  0
SEQEND
  8
0
  0
SOLID
  8
0
 62
    15
 10
6.320600
 20
3.966600
 11
6.320600
 21
4.712400
 12
6.320600
 22
3.965280
 13
6.320600
 23
4.711080
  0
POLYLINE
  8
0
  6
CONTINUOUS
 66
     1
 40
0.000000
 41
0.000000
  0
VERTEX
  8
0
  6
CONTINUOUS
 10
6.320600
 20
3.966600
  0
VERTEX
  8
0
  6
CONTINUOUS
 10
6.320600
 20
4.712400
  0
VERTEX
  8
0
  6
CONTINUOUS
 10
6.320600
 20
4.711080
  0
VERTEX
  8
0
  6
CONTINUOUS
 10
6.320600
 20
3.965280
  0
VERTEX
  8
0
  6
CONTINUOUS
 10
6.320600
 20
3.966600
  0
SEQEND
  8
0
  0
SOLID
  8
0
 62
    15
 10
6.320600
 20
3.965280
 11
6.320600
 21
4.711080
 12
6.347000
 22
3.746600
 13
6.347000
 23
4.492400
  0
POLYLINE
  8
0
  6
CONTINUOUS
 66
     1
 40
0.000000
 41
0.000000
  0
VERTEX
  8
0
  6
CONTINUOUS
 10
6.320600
 20
3.965280
  0
VERTEX
  8
0
  6
CONTINUOUS
 10
6.320600
 20
4.711080
  0
VERTEX
  8
0
  6
CONTINUOUS
 10
6.347000
 20
4.492400
  0
VERTEX
  8
0
  6
CONTINUOUS
 10
6.347000
 20
3.746600
  0
VERTEX
  8
0
  6
CONTINUOUS
 10
6.320600
 20
3.965280
  0
SEQEND
  8
0
  0
SOLID
  8
0
 62
    15
 10
3.880360
 20
4.373160
 11
3.880360
 21
5.118960
 12
4.509560
 22
4.373160
 13
4.509560
 23
5.118960
  0
POLYLINE
  8
0
  6
CONTINUOUS
 66
     1
 40
0.000000
 41
0.000000
  0
VERTEX
  8
0
  6
CONTINUOUS
 10
3.880360
 20
4.373160
  0
VERTEX
  8
0
  6
CONTINUOUS
 10
3.880360
 20
5.118960
  0
VERTEX
  8
0
  6
CONTINUOUS
 10
4.509560
 20
5.118960
  0
VERTEX
  8
0
  6
CONTINUOUS
 10
4.509560
 20
4.373160
  0
VERTEX
  8
0
  6
CONTINUOUS
 10
3.880360
 20
4.373160
  0
SEQEND
  8
0
  0
SOLID
  8
0
 62
    15
 10
4.509560
 20
4.373160
 11
4.509560
 21
5.118960
 12
4.548280
 22
4.308040
 13
4.548280
 23
5.053840
  0
POLYLINE
  8
0
  6
CONTINUOUS
 66
     1
 40
0.000000
 41
0.000000
  0
VERTEX
  8
0
  6
CONTINUOUS
 10
4.509560
 20
4.373160
  0
VERTEX
  8
0
  6
CONTINUOUS
 10
4.509560
 20
5.118960
  0
VERTEX
  8
0
  6
CONTINUOUS
 10
4.548280
 20
5.053840
  0
VERTEX
  8
0
  6
CONTINUOUS
 10
4.548280
 20
4.308040
  0
VERTEX
  8
0
  6
CONTINUOUS
 10
4.509560
 20
4.373160
  0
SEQEND
  8
0
  0
SOLID
  8
0
 62
    15
 10
4.548280
 20
4.308040
 11
4.548280
 21
5.053840
 12
4.593600
 22
4.306720
 13
4.593600
 23
5.052520
  0
POLYLINE
  8
0
  6
CONTINUOUS
 66
     1
 40
0.000000
 41
0.000000
  0
VERTEX
  8
0
  6
CONTINUOUS
 10
4.548280
 20
4.308040
  0
VERTEX
  8
0
  6
CONTINUOUS
 10
4.548280
 20
5.053840
  0
VERTEX
  8
0
  6
CONTINUOUS
 10
4.593600
 20
5.052520
  0
VERTEX
  8
0
  6
CONTINUOUS
 10
4.593600
 20
4.306720
  0
VERTEX
  8
0
  6
CONTINUOUS
 10
4.548280
 20
4.308040
  0
SEQEND
  8
0
  0
SOLID
  8
0
 62
    15
 10
4.593600
 20
4.306720
 11
4.593600
 21
5.052520
 12
4.634080
 22
4.304960
 13
4.634080
 23
5.050760
  0
POLYLINE
  8
0
  6
CONTINUOUS
 66
     1
 40
0.000000
 41
0.000000
  0
VERTEX
  8
0
  6
CONTINUOUS
 10
4.593600
 20
4.306720
  0
VERTEX
  8
0
  6
CONTINUOUS
 10
4.593600
 20
5.052520
  0
VERTEX
  8
0
  6
CONTINUOUS
 10
4.634080
 20
5.050760
  0
VERTEX
  8
0
  6
CONTINUOUS
 10
4.634080
 20
4.304960
  0
VERTEX
  8
0
  6
CONTINUOUS
 10
4.593600
 20
4.306720
  0
SEQEND
  8
0
  0
SOLID
  8
0
 62
    15
 10
4.634080
 20
4.304960
 11
4.634080
 21
5.050760
 12
4.706680
 22
4.300560
 13
4.706680
 23
5.046360
  0
POLYLINE
  8
0
  6
CONTINUOUS
 66
     1
 40
0.000000
 41
0.000000
  0
VERTEX
  8
0
  6
CONTINUOUS
 10
4.634080
 20
4.304960
  0
VERTEX
  8
0
  6
CONTINUOUS
 10
4.634080
 20
5.050760
  0
VERTEX
  8
0
  6
CONTINUOUS
 10
4.706680
 20
5.046360
  0
VERTEX
  8
0
  6
CONTINUOUS
 10
4.706680
 20
4.300560
  0
VERTEX
  8
0
  6
CONTINUOUS
 10
4.634080
 20
4.304960
  0
SEQEND
  8
0
  0
SOLID
  8
0
 62
    15
 10
4.706680
 20
4.300560
 11
4.706680
 21
5.046360
 12
4.769160
 22
4.294840
 13
4.769160
 23
5.040640
  0
POLYLINE
  8
0
  6
CONTINUOUS
 66
     1
 40
0.000000
 41
0.000000
  0
VERTEX
  8
0
  6
CONTINUOUS
 10
4.706680
 20
4.300560
  0
VERTEX
  8
0
  6
CONTINUOUS
 10
4.706680
 20
5.046360
  0
VERTEX
  8
0
  6
CONTINUOUS
 10
4.769160
 20
5.040640
  0
VERTEX
  8
0
  6
CONTINUOUS
 10
4.769160
 20
4.294840
  0
VERTEX
  8
0
  6
CONTINUOUS
 10
4.706680
 20
4.300560
  0
SEQEND
  8
0
  0
SOLID
  8
0
 62
    15
 10
5.752560
 20
4.046680
 11
5.752560
 21
4.792480
 12
6.245800
 22
4.046680
 13
6.245800
 23
4.792480
  0
POLYLINE
  8
0
  6
CONTINUOUS
 66
     1
 40
0.000000
 41
0.000000
  0
VERTEX
  8
0
  6
CONTINUOUS
 10
5.752560
 20
4.046680
  0
VERTEX
  8
0
  6
CONTINUOUS
 10
5.752560
 20
4.792480
  0
VERTEX
  8
0
  6
CONTINUOUS
 10
6.245800
 20
4.792480
  0
VERTEX
  8
0
  6
CONTINUOUS
 10
6.245800
 20
4.046680
  0
VERTEX
  8
0
  6
CONTINUOUS
 10
5.752560
 20
4.046680
  0
SEQEND
  8
0
  0
SOLID
  8
0
 62
    15
 10
4.823280
 20
4.287800
 11
4.823280
 21
5.033600
 12
4.870360
 22
4.279000
 13
4.870360
 23
5.024800
  0
POLYLINE
  8
0
  6
CONTINUOUS
 66
     1
 40
0.000000
 41
0.000000
  0
VERTEX
  8
0
  6
CONTINUOUS
 10
4.823280
 20
4.287800
  0
VERTEX
  8
0
  6
CONTINUOUS
 10
4.823280
 20
5.033600
  0
VERTEX
  8
0
  6
CONTINUOUS
 10
4.870360
 20
5.024800
  0
VERTEX
  8
0
  6
CONTINUOUS
 10
4.870360
 20
4.279000
  0
VERTEX
  8
0
  6
CONTINUOUS
 10
4.823280
 20
4.287800
  0
SEQEND
  8
0
  0
SOLID
  8
0
 62
    15
 10
4.870360
 20
4.279000
 11
4.870360
 21
5.024800
 12
4.912600
 22
4.268880
 13
4.912600
 23
5.014680
  0
POLYLINE
  8
0
  6
CONTINUOUS
 66
     1
 40
0.000000
 41
0.000000
  0
VERTEX
  8
0
  6
CONTINUOUS
 10
4.870360
 20
4.279000
  0
VERTEX
  8
0
  6
CONTINUOUS
 10
4.870360
 20
5.024800
  0
VERTEX
  8
0
  6
CONTINUOUS
 10
4.912600
 20
5.014680
  0
VERTEX
  8
0
  6
CONTINUOUS
 10
4.912600
 20
4.268880
  0
VERTEX
  8
0
  6
CONTINUOUS
 10
4.870360
 20
4.279000
  0
SEQEND
  8
0
  0
SOLID
  8
0
 62
    15
 10
4.912600
 20
4.268880
 11
4.912600
 21
5.014680
 12
4.988720
 22
4.244240
 13
4.988720
 23
4.990040
  0
POLYLINE
  8
0
  6
CONTINUOUS
 66
     1
 40
0.000000
 41
0.000000
  0
VERTEX
  8
0
  6
CONTINUOUS
 10
4.912600
 20
4.268880
  0
VERTEX
  8
0
  6
CONTINUOUS
 10
4.912600
 20
5.014680
  0
VERTEX
  8
0
  6
CONTINUOUS
 10
4.988720
 20
4.990040
  0
VERTEX
  8
0
  6
CONTINUOUS
 10
4.988720
 20
4.244240
  0
VERTEX
  8
0
  6
CONTINUOUS
 10
4.912600
 20
4.268880
  0
SEQEND
  8
0
  0
SOLID
  8
0
 62
    15
 10
4.988720
 20
4.244240
 11
4.988720
 21
4.990040
 12
5.065280
 22
4.213000
 13
5.065280
 23
4.958800
  0
POLYLINE
  8
0
  6
CONTINUOUS
 66
     1
 40
0.000000
 41
0.000000
  0
VERTEX
  8
0
  6
CONTINUOUS
 10
4.988720
 20
4.244240
  0
VERTEX
  8
0
  6
CONTINUOUS
 10
4.988720
 20
4.990040
  0
VERTEX
  8
0
  6
CONTINUOUS
 10
5.065280
 20
4.958800
  0
VERTEX
  8
0
  6
CONTINUOUS
 10
5.065280
 20
4.213000
  0
VERTEX
  8
0
  6
CONTINUOUS
 10
4.988720
 20
4.244240
  0
SEQEND
  8
0
  0
SOLID
  8
0
 62
    15
 10
5.065280
 20
4.213000
 11
5.065280
 21
4.958800
 12
5.107960
 22
4.195400
 13
5.107960
 23
4.941200
  0
POLYLINE
  8
0
  6
CONTINUOUS
 66
     1
 40
0.000000
 41
0.000000
  0
VERTEX
  8
0
  6
CONTINUOUS
 10
5.065280
 20
4.213000
  0
VERTEX
  8
0
  6
CONTINUOUS
 10
5.065280
 20
4.958800
  0
VERTEX
  8
0
  6
CONTINUOUS
 10
5.107960
 20
4.941200
  0
VERTEX
  8
0
  6
CONTINUOUS
 10
5.107960
 20
4.195400
  0
VERTEX
  8
0
  6
CONTINUOUS
 10
5.065280
 20
4.213000
  0
SEQEND
  8
0
  0
SOLID
  8
0
 62
    15
 10
5.107960
 20
4.195400
 11
5.107960
 21
4.941200
 12
5.156360
 22
4.175600
 13
5.156360
 23
4.921840
  0
POLYLINE
  8
0
  6
CONTINUOUS
 66
     1
 40
0.000000
 41
0.000000
  0
VERTEX
  8
0
  6
CONTINUOUS
 10
5.107960
 20
4.195400
  0
VERTEX
  8
0
  6
CONTINUOUS
 10
5.107960
 20
4.941200
  0
VERTEX
  8
0
  6
CONTINUOUS
 10
5.156360
 20
4.921840
  0
VERTEX
  8
0
  6
CONTINUOUS
 10
5.156360
 20
4.175600
  0
VERTEX
  8
0
  6
CONTINUOUS
 10
5.107960
 20
4.195400
  0
SEQEND
  8
0
  0
SOLID
  8
0
 62
    15
 10
5.156360
 20
4.175600
 11
5.156360
 21
4.921840
 12
5.211360
 22
4.154920
 13
5.211360
 23
4.900720
  0
POLYLINE
  8
0
  6
CONTINUOUS
 66
     1
 40
0.000000
 41
0.000000
  0
VERTEX
  8
0
  6
CONTINUOUS
 10
5.156360
 20
4.175600
  0
VERTEX
  8
0
  6
CONTINUOUS
 10
5.156360
 20
4.921840
  0
VERTEX
  8
0
  6
CONTINUOUS
 10
5.211360
 20
4.900720
  0
VERTEX
  8
0
  6
CONTINUOUS
 10
5.211360
 20
4.154920
  0
VERTEX
  8
0
  6
CONTINUOUS
 10
5.156360
 20
4.175600
  0
SEQEND
  8
0
  0
SOLID
  8
0
 62
    15
 10
5.211360
 20
4.154920
 11
5.211360
 21
4.900720
 12
5.275600
 22
4.132040
 13
5.275600
 23
4.877840
  0
POLYLINE
  8
0
  6
CONTINUOUS
 66
     1
 40
0.000000
 41
0.000000
  0
VERTEX
  8
0
  6
CONTINUOUS
 10
5.211360
 20
4.154920
  0
VERTEX
  8
0
  6
CONTINUOUS
 10
5.211360
 20
4.900720
  0
VERTEX
  8
0
  6
CONTINUOUS
 10
5.275600
 20
4.877840
  0
VERTEX
  8
0
  6
CONTINUOUS
 10
5.275600
 20
4.132040
  0
VERTEX
  8
0
  6
CONTINUOUS
 10
5.211360
 20
4.154920
  0
SEQEND
  8
0
  0
SOLID
  8
0
 62
    15
 10
5.275600
 20
4.132040
 11
5.275600
 21
4.877840
 12
5.349960
 22
4.107400
 13
5.349960
 23
4.853200
  0
POLYLINE
  8
0
  6
CONTINUOUS
 66
     1
 40
0.000000
 41
0.000000
  0
VERTEX
  8
0
  6
CONTINUOUS
 10
5.275600
 20
4.132040
  0
VERTEX
  8
0
  6
CONTINUOUS
 10
5.275600
 20
4.877840
  0
VERTEX
  8
0
  6
CONTINUOUS
 10
5.349960
 20
4.853200
  0
VERTEX
  8
0
  6
CONTINUOUS
 10
5.349960
 20
4.107400
  0
VERTEX
  8
0
  6
CONTINUOUS
 10
5.275600
 20
4.132040
  0
SEQEND
  8
0
  0
SOLID
  8
0
 62
    15
 10
5.349960
 20
4.107400
 11
5.349960
 21
4.853200
 12
5.391320
 22
4.094640
 13
5.391320
 23
4.840440
  0
POLYLINE
  8
0
  6
CONTINUOUS
 66
     1
 40
0.000000
 41
0.000000
  0
VERTEX
  8
0
  6
CONTINUOUS
 10
5.349960
 20
4.107400
  0
VERTEX
  8
0
  6
CONTINUOUS
 10
5.349960
 20
4.853200
  0
VERTEX
  8
0
  6
CONTINUOUS
 10
5.391320
 20
4.840440
  0
VERTEX
  8
0
  6
CONTINUOUS
 10
5.391320
 20
4.094640
  0
VERTEX
  8
0
  6
CONTINUOUS
 10
5.349960
 20
4.107400
  0
SEQEND
  8
0
  0
SOLID
  8
0
 62
    15
 10
5.391320
 20
4.094640
 11
5.391320
 21
4.840440
 12
5.436200
 22
4.081440
 13
5.436200
 23
4.827240
  0
POLYLINE
  8
0
  6
CONTINUOUS
 66
     1
 40
0.000000
 41
0.000000
  0
VERTEX
  8
0
  6
CONTINUOUS
 10
5.391320
 20
4.094640
  0
VERTEX
  8
0
  6
CONTINUOUS
 10
5.391320
 20
4.840440
  0
VERTEX
  8
0
  6
CONTINUOUS
 10
5.436200
 20
4.827240
  0
VERTEX
  8
0
  6
CONTINUOUS
 10
5.436200
 20
4.081440
  0
VERTEX
  8
0
  6
CONTINUOUS
 10
5.391320
 20
4.094640
  0
SEQEND
  8
0
  0
SOLID
  8
0
 62
    15
 10
5.436200
 20
4.081440
 11
5.436200
 21
4.827240
 12
5.715160
 22
4.081440
 13
5.715160
 23
4.827240
  0
POLYLINE
  8
0
  6
CONTINUOUS
 66
     1
 40
0.000000
 41
0.000000
  0
VERTEX
  8
0
  6
CONTINUOUS
 10
5.436200
 20
4.081440
  0
VERTEX
  8
0
  6
CONTINUOUS
 10
5.436200
 20
4.827240
  0
VERTEX
  8
0
  6
CONTINUOUS
 10
5.715160
 20
4.827240
  0
VERTEX
  8
0
  6
CONTINUOUS
 10
5.715160
 20
4.081440
  0
VERTEX
  8
0
  6
CONTINUOUS
 10
5.436200
 20
4.081440
  0
SEQEND
  8
0
  0
SOLID
  8
0
 62
    15
 10
5.715160
 20
4.081440
 11
5.715160
 21
4.827240
 12
5.741560
 22
4.046680
 13
5.741560
 23
4.792480
  0
POLYLINE
  8
0
  6
CONTINUOUS
 66
     1
 40
0.000000
 41
0.000000
  0
VERTEX
  8
0
  6
CONTINUOUS
 10
5.715160
 20
4.081440
  0
VERTEX
  8
0
  6
CONTINUOUS
 10
5.715160
 20
4.827240
  0
VERTEX
  8
0
  6
CONTINUOUS
 10
5.741560
 20
4.792480
  0
VERTEX
  8
0
  6
CONTINUOUS
 10
5.741560
 20
4.046680
  0
VERTEX
  8
0
  6
CONTINUOUS
 10
5.715160
 20
4.081440
  0
SEQEND
  8
0
  0
SOLID
  8
0
 62
    15
 10
5.741560
 20
4.046680
 11
5.741560
 21
4.792480
 12
5.761800
 22
4.046680
 13
5.761800
 23
4.792480
  0
POLYLINE
  8
0
  6
CONTINUOUS
 66
     1
 40
0.000000
 41
0.000000
  0
VERTEX
  8
0
  6
CONTINUOUS
 10
5.741560
 20
4.046680
  0
VERTEX
  8
0
  6
CONTINUOUS
 10
5.741560
 20
4.792480
  0
VERTEX
  8
0
  6
CONTINUOUS
 10
5.761800
 20
4.792480
  0
VERTEX
  8
0
  6
CONTINUOUS
 10
5.761800
 20
4.046680
  0
VERTEX
  8
0
  6
CONTINUOUS
 10
5.741560
 20
4.046680
  0
SEQEND
  8
0
  0
POLYLINE
  8
0
  6
CONTINUOUS
 66
     1
 40
0.000000
 41
0.000000
  0
VERTEX
  8
0
  6
CONTINUOUS
 10
5.752560
 20
4.046680
  0
VERTEX
  8
0
  6
CONTINUOUS
 10
6.245800
 20
4.046680
  0
VERTEX
  8
0
  6
CONTINUOUS
 10
6.259880
 20
4.044920
  0
VERTEX
  8
0
  6
CONTINUOUS
 10
6.273960
 20
4.039640
  0
VERTEX
  8
0
  6
CONTINUOUS
 10
6.297720
 20
4.021160
  0
VERTEX
  8
0
  6
CONTINUOUS
 10
6.314000
 20
3.995640
  0
VERTEX
  8
0
  6
CONTINUOUS
 10
6.320600
 20
3.966600
  0
VERTEX
  8
0
  6
CONTINUOUS
 10
6.320600
 20
3.965280
  0
VERTEX
  8
0
  6
CONTINUOUS
 10
6.347000
 20
3.746600
  0
VERTEX
  8
0
  6
CONTINUOUS
 10
3.880360
 20
3.746600
  0
VERTEX
  8
0
  6
CONTINUOUS
 10
3.880360
 20
4.373160
  0
VERTEX
  8
0
  6
CONTINUOUS
 10
4.509560
 20
4.373160
  0
VERTEX
  8
0
  6
CONTINUOUS
 10
4.548280
 20
4.308040
  0
VERTEX
  8
0
  6
CONTINUOUS
 10
4.593600
 20
4.306720
  0
VERTEX
  8
0
  6
CONTINUOUS
 10
4.634080
 20
4.304960
  0
VERTEX
  8
0
  6
CONTINUOUS
 10
4.706680
 20
4.300560
  0
VERTEX
  8
0
  6
CONTINUOUS
 10
4.769160
 20
4.294840
  0
VERTEX
  8
0
  6
CONTINUOUS
 10
4.823280
 20
4.287800
  0
VERTEX
  8
0
  6
CONTINUOUS
 10
4.870360
 20
4.279000
  0
VERTEX
  8
0
  6
CONTINUOUS
 10
4.912600
 20
4.268880
  0
VERTEX
  8
0
  6
CONTINUOUS
 10
4.988720
 20
4.244240
  0
VERTEX
  8
0
  6
CONTINUOUS
 10
5.065280
 20
4.213000
  0
VERTEX
  8
0
  6
CONTINUOUS
 10
5.107960
 20
4.195400
  0
VERTEX
  8
0
  6
CONTINUOUS
 10
5.156360
 20
4.175600
  0
VERTEX
  8
0
  6
CONTINUOUS
 10
5.211360
 20
4.154920
  0
VERTEX
  8
0
  6
CONTINUOUS
 10
5.275600
 20
4.132040
  0
VERTEX
  8
0
  6
CONTINUOUS
 10
5.349960
 20
4.107400
  0
VERTEX
  8
0
  6
CONTINUOUS
 10
5.391320
 20
4.094640
  0
VERTEX
  8
0
  6
CONTINUOUS
 10
5.436200
 20
4.081440
  0
VERTEX
  8
0
  6
CONTINUOUS
 10
5.715160
 20
4.081440
  0
VERTEX
  8
0
  6
CONTINUOUS
 10
5.741560
 20
4.046680
  0
VERTEX
  8
0
  6
CONTINUOUS
 10
5.761800
 20
4.046680
  0
VERTEX
  8
0
  6
CONTINUOUS
 10
5.752560
 20
4.046680
  0
SEQEND
  8
0
  0
TEXT
  8
0
 10
4.862880
 20
3.526160
 40
0.138089
  1
BA  50
 41
1.000000
  7
SN0
 71
     0
 72
     5
 11
5.360213
 21
3.526160
  0
TEXT
  8
0
 10
4.660920
 20
3.334760
 40
0.138089
  1
5/8" x 2-1/2"
 41
1.000000
  7
SN0
 71
     0
 72
     5
 11
5.560225
 21
3.334760
  0
ENDSEC
  0
EOF
