  0
SECTION
  2
HEADER
  9
$ACADVER
  1
AC1006
  9
$EXTMIN
 10
2.019600
 20
4.527600
  9
$EXTMAX
 10
8.010640
 20
9.262880
  9
$LTSCALE
 40
0.044000
  9
$PDMODE
 70
    35
  9
$PDSIZE
 40
0.035200
  0
ENDSEC
  0
SECTION
  2
TABLES
  0
TABLE
  2
LTYPE
 70
     9
  0
LTYPE
  2
CONTINUOUS
 70
    64
  3
Solid line
 72
    65
 73
     0
 40
0.000000
  0
LTYPE
  2
DASHED
 70
    64
  3
__ __ __ __ __ __ __ __ __ __ __ __ __ __ __
 72
    65
 73
     2
 40
0.000330
 49
0.000220
 49
-0.000110
  0
LTYPE
  2
HIDDEN
 70
    64
  3
 _ _ _ _ _ _ _ _ _ _ _ _ _ _ _ _ _ _ _ _ _ _
 72
    65
 73
     2
 40
0.000165
 49
0.000110
 49
-0.000055
  0
LTYPE
  2
CENTER
 70
    64
  3
____ _ ____ _ ____ _ ____ _ ____ _ ____ _ ____
 72
    65
 73
     4
 40
0.000880
 49
0.000550
 49
-0.000110
 49
0.000110
 49
-0.000110
  0
LTYPE
  2
PHANTOM
 70
    64
  3
_____ _ _ _____ _ _ _____ _ _ _____ _ _ ____
 72
    65
 73
     6
 40
0.001100
 49
0.000550
 49
-0.000110
 49
0.000110
 49
-0.000110
 49
0.000110
 49
-0.000110
  0
LTYPE
  2
DOT
 70
    64
  3
...............................................
 72
    65
 73
     2
 40
0.000110
 49
0.000000
 49
-0.000110
  0
LTYPE
  2
DASHDOT
 70
    64
  3
__ . __ . __ . __ . __ . __ . __ . __ . __ . __
 72
    65
 73
     4
 40
0.000440
 49
0.000220
 49
-0.000110
 49
0.000000
 49
-0.000110
  0
LTYPE
  2
BORDER
 70
    64
  3
__ __ . __ __ . __ __ . __ __ . __ __ . __ __
 72
    65
 73
     6
 40
0.000770
 49
0.000220
 49
-0.000110
 49
0.000220
 49
-0.000110
 49
0.000000
 49
-0.000110
  0
LTYPE
  2
DIVIDE
 70
    64
  3
__ . . __ . . __ . . __ . . __ . . __ . . __
 72
    65
 73
     6
 40
0.000550
 49
0.000220
 49
-0.000110
 49
0.000000
 49
-0.000110
 49
0.000000
 49
-0.000110
  0
LTYPE
  2
DOTDOT
 70
    64
  3
 . .  . .  . .  . .  . .  . . 
 72
    65
 73
     5
 40
0.000242
 49
-0.000110
 49
0.000000
 49
-0.000110
 49
0.000000
 49
-0.000110
  0
ENDTAB
  0
TABLE
  2
STYLE
 70
     2
  0
STYLE
 70
     0
  2
SN0
 40
0.000000
 41
0.000440
 50
0.000000
 71
     0
 42
0.000000
  3
ROMAND
  0
STYLE
 70
    68
  2
SV0
 40
0.000000
 41
0.000440
 50
0.000000
 71
     0
 42
0.000000
  3
ROMAND
  0
ENDTAB
  0
TABLE
  2
LAYER
 70
     3
  0
LAYER
  2
FOREGROUND
 70
    64
 62
     7
  6
CONTINUOUS
  0
LAYER
  2
BACKGROUND
 70
    65
 62
    -7
  6
CONTINUOUS
  0
LAYER
  2
0
 70
    64
 62
     7
  6
CONTINUOUS
  0
ENDTAB
  0
ENDSEC
  0
SECTION
  2
ENTITIES
  0
POLYLINE
  8
FOREGROUND
  6
CONTINUOUS
 66
     1
 40
0.000000
 41
0.000000
  0
VERTEX
  8
FOREGROUND
  6
CONTINUOUS
 10
0.000000
 20
13.790480
  0
VERTEX
  8
FOREGROUND
  6
CONTINUOUS
 10
8.499920
 20
13.790480
  0
VERTEX
  8
FOREGROUND
  6
CONTINUOUS
 10
8.499920
 20
2.790480
  0
VERTEX
  8
FOREGROUND
  6
CONTINUOUS
 10
0.000000
 20
2.790480
  0
VERTEX
  8
FOREGROUND
  6
CONTINUOUS
 10
0.000000
 20
13.790480
  0
SEQEND
  8
0
  0
POLYLINE
  8
FOREGROUND
  6
CONTINUOUS
 66
     1
 40
0.000000
 41
0.000000
  0
VERTEX
  8
FOREGROUND
  6
CONTINUOUS
 10
0.000000
 20
13.790480
  0
VERTEX
  8
FOREGROUND
  6
CONTINUOUS
 10
8.499920
 20
13.790480
  0
VERTEX
  8
FOREGROUND
  6
CONTINUOUS
 10
8.499920
 20
2.790480
  0
VERTEX
  8
FOREGROUND
  6
CONTINUOUS
 10
0.000000
 20
2.790480
  0
VERTEX
  8
FOREGROUND
  6
CONTINUOUS
 10
0.000000
 20
13.790480
  0
SEQEND
  8
0
  0
POLYLINE
  8
0
  6
CONTINUOUS
 66
     1
 40
0.014080
 41
0.014080
  0
VERTEX
  8
0
  6
CONTINUOUS
 10
4.935480
 20
6.107200
  0
VERTEX
  8
0
  6
CONTINUOUS
 10
4.896320
 20
6.107640
  0
VERTEX
  8
0
  6
CONTINUOUS
 10
4.821520
 20
6.112040
  0
VERTEX
  8
0
  6
CONTINUOUS
 10
4.751120
 20
6.119960
  0
VERTEX
  8
0
  6
CONTINUOUS
 10
4.685560
 20
6.131840
  0
VERTEX
  8
0
  6
CONTINUOUS
 10
4.624840
 20
6.147680
  0
VERTEX
  8
0
  6
CONTINUOUS
 10
4.595800
 20
6.156480
  0
VERTEX
  8
0
  6
CONTINUOUS
 10
4.541680
 20
6.177160
  0
VERTEX
  8
0
  6
CONTINUOUS
 10
4.491520
 20
6.200920
  0
VERTEX
  8
0
  6
CONTINUOUS
 10
4.445760
 20
6.227760
  0
VERTEX
  8
0
  6
CONTINUOUS
 10
4.424200
 20
6.241840
  0
VERTEX
  8
0
  6
CONTINUOUS
 10
4.384600
 20
6.272640
  0
VERTEX
  8
0
  6
CONTINUOUS
 10
4.348960
 20
6.306080
  0
VERTEX
  8
0
  6
CONTINUOUS
 10
4.317280
 20
6.341720
  0
VERTEX
  8
0
  6
CONTINUOUS
 10
4.289560
 20
6.379120
  0
VERTEX
  8
0
  6
CONTINUOUS
 10
4.265360
 20
6.418720
  0
VERTEX
  8
0
  6
CONTINUOUS
 10
4.245120
 20
6.460520
  0
VERTEX
  8
0
  6
CONTINUOUS
 10
4.228400
 20
6.503200
  0
VERTEX
  8
0
  6
CONTINUOUS
 10
4.215200
 20
6.547640
  0
VERTEX
  8
0
  6
CONTINUOUS
 10
4.205520
 20
6.592960
  0
VERTEX
  8
0
  6
CONTINUOUS
 10
4.198920
 20
6.639600
  0
VERTEX
  8
0
  6
CONTINUOUS
 10
4.195840
 20
6.687120
  0
VERTEX
  8
0
  6
CONTINUOUS
 10
4.195840
 20
6.735080
  0
VERTEX
  8
0
  6
CONTINUOUS
 10
4.198920
 20
6.783480
  0
VERTEX
  8
0
  6
CONTINUOUS
 10
4.205080
 20
6.831880
  0
VERTEX
  8
0
  6
CONTINUOUS
 10
4.220040
 20
6.905360
  0
VERTEX
  8
0
  6
CONTINUOUS
 10
4.240720
 20
6.977960
  0
VERTEX
  8
0
  6
CONTINUOUS
 10
4.268000
 20
7.049680
  0
VERTEX
  8
0
  6
CONTINUOUS
 10
4.289120
 20
7.096320
  0
VERTEX
  8
0
  6
CONTINUOUS
 10
4.325640
 20
7.164520
  0
VERTEX
  8
0
  6
CONTINUOUS
 10
4.367440
 20
7.230520
  0
VERTEX
  8
0
  6
CONTINUOUS
 10
4.414520
 20
7.292560
  0
VERTEX
  8
0
  6
CONTINUOUS
 10
4.466440
 20
7.349320
  0
VERTEX
  8
0
  6
CONTINUOUS
 10
4.523200
 20
7.399920
  0
VERTEX
  8
0
  6
CONTINUOUS
 10
4.584360
 20
7.444800
  0
VERTEX
  8
0
  6
CONTINUOUS
 10
4.649480
 20
7.483080
  0
VERTEX
  8
0
  6
CONTINUOUS
 10
4.717240
 20
7.515640
  0
VERTEX
  8
0
  6
CONTINUOUS
 10
4.788080
 20
7.541600
  0
VERTEX
  8
0
  6
CONTINUOUS
 10
4.860680
 20
7.561840
  0
VERTEX
  8
0
  6
CONTINUOUS
 10
4.935040
 20
7.575480
  0
VERTEX
  8
0
  6
CONTINUOUS
 10
4.985200
 20
7.580760
  0
VERTEX
  8
0
  6
CONTINUOUS
 10
5.035800
 20
7.583840
  0
VERTEX
  8
0
  6
CONTINUOUS
 10
5.086400
 20
7.583840
  0
VERTEX
  8
0
  6
CONTINUOUS
 10
5.137000
 20
7.580760
  0
VERTEX
  8
0
  6
CONTINUOUS
 10
5.212240
 20
7.571080
  0
VERTEX
  8
0
  6
CONTINUOUS
 10
5.286600
 20
7.554800
  0
VERTEX
  8
0
  6
CONTINUOUS
 10
5.335440
 20
7.540280
  0
VERTEX
  8
0
  6
CONTINUOUS
 10
5.383840
 20
7.523120
  0
VERTEX
  8
0
  6
CONTINUOUS
 10
5.453800
 20
7.491440
  0
VERTEX
  8
0
  6
CONTINUOUS
 10
5.521120
 20
7.453600
  0
VERTEX
  8
0
  6
CONTINUOUS
 10
5.564240
 20
7.424560
  0
VERTEX
  8
0
  6
CONTINUOUS
 10
5.605600
 20
7.392440
  0
VERTEX
  8
0
  6
CONTINUOUS
 10
5.645200
 20
7.357240
  0
VERTEX
  8
0
  6
CONTINUOUS
 10
5.701080
 20
7.298720
  0
VERTEX
  8
0
  6
CONTINUOUS
 10
5.751680
 20
7.233600
  0
VERTEX
  8
0
  6
CONTINUOUS
 10
5.782480
 20
7.186520
  0
VERTEX
  8
0
  6
CONTINUOUS
 10
5.797000
 20
7.161880
  0
VERTEX
  8
0
  6
CONTINUOUS
 10
5.800960
 20
7.157920
  0
VERTEX
  8
0
  6
CONTINUOUS
 10
7.505080
 20
7.157480
  0
VERTEX
  8
0
  6
CONTINUOUS
 10
7.505080
 20
7.073880
  0
VERTEX
  8
0
  6
CONTINUOUS
 10
7.530600
 20
7.072120
  0
VERTEX
  8
0
  6
CONTINUOUS
 10
7.574600
 20
7.065080
  0
VERTEX
  8
0
  6
CONTINUOUS
 10
7.616400
 20
7.054520
  0
VERTEX
  8
0
  6
CONTINUOUS
 10
7.655120
 20
7.040440
  0
VERTEX
  8
0
  6
CONTINUOUS
 10
7.691640
 20
7.022840
  0
VERTEX
  8
0
  6
CONTINUOUS
 10
7.725520
 20
7.002600
  0
VERTEX
  8
0
  6
CONTINUOUS
 10
7.756760
 20
6.979720
  0
VERTEX
  8
0
  6
CONTINUOUS
 10
7.785360
 20
6.954200
  0
VERTEX
  8
0
  6
CONTINUOUS
 10
7.811320
 20
6.926920
  0
VERTEX
  8
0
  6
CONTINUOUS
 10
7.834200
 20
6.897440
  0
VERTEX
  8
0
  6
CONTINUOUS
 10
7.863240
 20
6.850800
  0
VERTEX
  8
0
  6
CONTINUOUS
 10
7.879080
 20
6.818240
  0
VERTEX
  8
0
  6
CONTINUOUS
 10
7.897120
 20
6.767640
  0
VERTEX
  8
0
  6
CONTINUOUS
 10
7.908120
 20
6.716160
  0
VERTEX
  8
0
  6
CONTINUOUS
 10
7.911640
 20
6.680520
  0
VERTEX
  8
0
  6
CONTINUOUS
 10
7.945520
 20
6.681400
  0
VERTEX
  8
0
  6
CONTINUOUS
 10
7.961360
 20
6.679200
  0
VERTEX
  8
0
  6
CONTINUOUS
 10
7.981160
 20
6.670840
  0
VERTEX
  8
0
  6
CONTINUOUS
 10
7.991720
 20
6.661160
  0
VERTEX
  8
0
  6
CONTINUOUS
 10
7.999200
 20
6.647080
  0
VERTEX
  8
0
  6
CONTINUOUS
 10
8.003160
 20
6.627720
  0
VERTEX
  8
0
  6
CONTINUOUS
 10
8.003600
 20
6.343040
  0
VERTEX
  8
0
  6
CONTINUOUS
 10
4.943840
 20
6.343040
  0
VERTEX
  8
0
  6
CONTINUOUS
 10
4.943840
 20
6.107200
  0
VERTEX
  8
0
  6
CONTINUOUS
 10
4.935480
 20
6.107200
  0
SEQEND
  8
0
  0
SOLID
  8
0
 62
    15
 10
3.484360
 20
7.850480
 11
4.155800
 21
8.245600
 12
3.461040
 22
7.751480
 13
4.132920
 23
8.146600
  0
POLYLINE
  8
0
  6
CONTINUOUS
 66
     1
 40
0.000000
 41
0.000000
  0
VERTEX
  8
0
  6
CONTINUOUS
 10
3.484360
 20
7.850480
  0
VERTEX
  8
0
  6
CONTINUOUS
 10
4.155800
 20
8.245600
  0
VERTEX
  8
0
  6
CONTINUOUS
 10
4.132920
 20
8.146600
  0
VERTEX
  8
0
  6
CONTINUOUS
 10
3.461040
 20
7.751480
  0
VERTEX
  8
0
  6
CONTINUOUS
 10
3.484360
 20
7.850480
  0
SEQEND
  8
0
  0
SOLID
  8
0
 62
    15
 10
2.352680
 20
8.807920
 11
3.024120
 21
9.202600
 12
2.438480
 22
8.841360
 13
3.110360
 23
9.236040
  0
POLYLINE
  8
0
  6
CONTINUOUS
 66
     1
 40
0.000000
 41
0.000000
  0
VERTEX
  8
0
  6
CONTINUOUS
 10
2.352680
 20
8.807920
  0
VERTEX
  8
0
  6
CONTINUOUS
 10
3.024120
 20
9.202600
  0
VERTEX
  8
0
  6
CONTINUOUS
 10
3.110360
 20
9.236040
  0
VERTEX
  8
0
  6
CONTINUOUS
 10
2.438480
 20
8.841360
  0
VERTEX
  8
0
  6
CONTINUOUS
 10
2.352680
 20
8.807920
  0
SEQEND
  8
0
  0
SOLID
  8
0
 62
    15
 10
2.529560
 20
8.861160
 11
3.201000
 21
9.255840
 12
2.624160
 22
8.867320
 13
3.296040
 23
9.262000
  0
POLYLINE
  8
0
  6
CONTINUOUS
 66
     1
 40
0.000000
 41
0.000000
  0
VERTEX
  8
0
  6
CONTINUOUS
 10
2.529560
 20
8.861160
  0
VERTEX
  8
0
  6
CONTINUOUS
 10
3.201000
 20
9.255840
  0
VERTEX
  8
0
  6
CONTINUOUS
 10
3.296040
 20
9.262000
  0
VERTEX
  8
0
  6
CONTINUOUS
 10
2.624160
 20
8.867320
  0
VERTEX
  8
0
  6
CONTINUOUS
 10
2.529560
 20
8.861160
  0
SEQEND
  8
0
  0
SOLID
  8
0
 62
    15
 10
2.624160
 20
8.867320
 11
3.296040
 21
9.262000
 12
2.720960
 22
8.861160
 13
3.392840
 23
9.255840
  0
POLYLINE
  8
0
  6
CONTINUOUS
 66
     1
 40
0.000000
 41
0.000000
  0
VERTEX
  8
0
  6
CONTINUOUS
 10
2.624160
 20
8.867320
  0
VERTEX
  8
0
  6
CONTINUOUS
 10
3.296040
 20
9.262000
  0
VERTEX
  8
0
  6
CONTINUOUS
 10
3.392840
 20
9.255840
  0
VERTEX
  8
0
  6
CONTINUOUS
 10
2.720960
 20
8.861160
  0
VERTEX
  8
0
  6
CONTINUOUS
 10
2.624160
 20
8.867320
  0
SEQEND
  8
0
  0
SOLID
  8
0
 62
    15
 10
2.720960
 20
8.861160
 11
3.392840
 21
9.255840
 12
2.818640
 22
8.843120
 13
3.490080
 23
9.237800
  0
POLYLINE
  8
0
  6
CONTINUOUS
 66
     1
 40
0.000000
 41
0.000000
  0
VERTEX
  8
0
  6
CONTINUOUS
 10
2.720960
 20
8.861160
  0
VERTEX
  8
0
  6
CONTINUOUS
 10
3.392840
 20
9.255840
  0
VERTEX
  8
0
  6
CONTINUOUS
 10
3.490080
 20
9.237800
  0
VERTEX
  8
0
  6
CONTINUOUS
 10
2.818640
 20
8.843120
  0
VERTEX
  8
0
  6
CONTINUOUS
 10
2.720960
 20
8.861160
  0
SEQEND
  8
0
  0
SOLID
  8
0
 62
    15
 10
2.818640
 20
8.843120
 11
3.490080
 21
9.237800
 12
2.915440
 22
8.813640
 13
3.586880
 23
9.208320
  0
POLYLINE
  8
0
  6
CONTINUOUS
 66
     1
 40
0.000000
 41
0.000000
  0
VERTEX
  8
0
  6
CONTINUOUS
 10
2.818640
 20
8.843120
  0
VERTEX
  8
0
  6
CONTINUOUS
 10
3.490080
 20
9.237800
  0
VERTEX
  8
0
  6
CONTINUOUS
 10
3.586880
 20
9.208320
  0
VERTEX
  8
0
  6
CONTINUOUS
 10
2.915440
 20
8.813640
  0
VERTEX
  8
0
  6
CONTINUOUS
 10
2.818640
 20
8.843120
  0
SEQEND
  8
0
  0
SOLID
  8
0
 62
    15
 10
2.915440
 20
8.813640
 11
3.586880
 21
9.208320
 12
3.009600
 22
8.773600
 13
3.681480
 23
9.168280
  0
POLYLINE
  8
0
  6
CONTINUOUS
 66
     1
 40
0.000000
 41
0.000000
  0
VERTEX
  8
0
  6
CONTINUOUS
 10
2.915440
 20
8.813640
  0
VERTEX
  8
0
  6
CONTINUOUS
 10
3.586880
 20
9.208320
  0
VERTEX
  8
0
  6
CONTINUOUS
 10
3.681480
 20
9.168280
  0
VERTEX
  8
0
  6
CONTINUOUS
 10
3.009600
 20
8.773600
  0
VERTEX
  8
0
  6
CONTINUOUS
 10
2.915440
 20
8.813640
  0
SEQEND
  8
0
  0
SOLID
  8
0
 62
    15
 10
3.009600
 20
8.773600
 11
3.681480
 21
9.168280
 12
3.100240
 22
8.723880
 13
3.772120
 23
9.118560
  0
POLYLINE
  8
0
  6
CONTINUOUS
 66
     1
 40
0.000000
 41
0.000000
  0
VERTEX
  8
0
  6
CONTINUOUS
 10
3.009600
 20
8.773600
  0
VERTEX
  8
0
  6
CONTINUOUS
 10
3.681480
 20
9.168280
  0
VERTEX
  8
0
  6
CONTINUOUS
 10
3.772120
 20
9.118560
  0
VERTEX
  8
0
  6
CONTINUOUS
 10
3.100240
 20
8.723880
  0
VERTEX
  8
0
  6
CONTINUOUS
 10
3.009600
 20
8.773600
  0
SEQEND
  8
0
  0
SOLID
  8
0
 62
    15
 10
3.100240
 20
8.723880
 11
3.772120
 21
9.118560
 12
3.185600
 22
8.664480
 13
3.857480
 23
9.059160
  0
POLYLINE
  8
0
  6
CONTINUOUS
 66
     1
 40
0.000000
 41
0.000000
  0
VERTEX
  8
0
  6
CONTINUOUS
 10
3.100240
 20
8.723880
  0
VERTEX
  8
0
  6
CONTINUOUS
 10
3.772120
 20
9.118560
  0
VERTEX
  8
0
  6
CONTINUOUS
 10
3.857480
 20
9.059160
  0
VERTEX
  8
0
  6
CONTINUOUS
 10
3.185600
 20
8.664480
  0
VERTEX
  8
0
  6
CONTINUOUS
 10
3.100240
 20
8.723880
  0
SEQEND
  8
0
  0
SOLID
  8
0
 62
    15
 10
3.185600
 20
8.664480
 11
3.857480
 21
9.059160
 12
3.262600
 22
8.596280
 13
3.934480
 23
8.991400
  0
POLYLINE
  8
0
  6
CONTINUOUS
 66
     1
 40
0.000000
 41
0.000000
  0
VERTEX
  8
0
  6
CONTINUOUS
 10
3.185600
 20
8.664480
  0
VERTEX
  8
0
  6
CONTINUOUS
 10
3.857480
 20
9.059160
  0
VERTEX
  8
0
  6
CONTINUOUS
 10
3.934480
 20
8.991400
  0
VERTEX
  8
0
  6
CONTINUOUS
 10
3.262600
 20
8.596280
  0
VERTEX
  8
0
  6
CONTINUOUS
 10
3.185600
 20
8.664480
  0
SEQEND
  8
0
  0
SOLID
  8
0
 62
    15
 10
3.262600
 20
8.596280
 11
3.934480
 21
8.991400
 12
3.329040
 22
8.519720
 13
4.000480
 23
8.914400
  0
POLYLINE
  8
0
  6
CONTINUOUS
 66
     1
 40
0.000000
 41
0.000000
  0
VERTEX
  8
0
  6
CONTINUOUS
 10
3.262600
 20
8.596280
  0
VERTEX
  8
0
  6
CONTINUOUS
 10
3.934480
 20
8.991400
  0
VERTEX
  8
0
  6
CONTINUOUS
 10
4.000480
 20
8.914400
  0
VERTEX
  8
0
  6
CONTINUOUS
 10
3.329040
 20
8.519720
  0
VERTEX
  8
0
  6
CONTINUOUS
 10
3.262600
 20
8.596280
  0
SEQEND
  8
0
  0
SOLID
  8
0
 62
    15
 10
3.329040
 20
8.519720
 11
4.000480
 21
8.914400
 12
3.384480
 22
8.435680
 13
4.055920
 23
8.830360
  0
POLYLINE
  8
0
  6
CONTINUOUS
 66
     1
 40
0.000000
 41
0.000000
  0
VERTEX
  8
0
  6
CONTINUOUS
 10
3.329040
 20
8.519720
  0
VERTEX
  8
0
  6
CONTINUOUS
 10
4.000480
 20
8.914400
  0
VERTEX
  8
0
  6
CONTINUOUS
 10
4.055920
 20
8.830360
  0
VERTEX
  8
0
  6
CONTINUOUS
 10
3.384480
 20
8.435680
  0
VERTEX
  8
0
  6
CONTINUOUS
 10
3.329040
 20
8.519720
  0
SEQEND
  8
0
  0
SOLID
  8
0
 62
    15
 10
3.384480
 20
8.435680
 11
4.055920
 21
8.830360
 12
3.428920
 22
8.345480
 13
4.100360
 23
8.740160
  0
POLYLINE
  8
0
  6
CONTINUOUS
 66
     1
 40
0.000000
 41
0.000000
  0
VERTEX
  8
0
  6
CONTINUOUS
 10
3.384480
 20
8.435680
  0
VERTEX
  8
0
  6
CONTINUOUS
 10
4.055920
 20
8.830360
  0
VERTEX
  8
0
  6
CONTINUOUS
 10
4.100360
 20
8.740160
  0
VERTEX
  8
0
  6
CONTINUOUS
 10
3.428920
 20
8.345480
  0
VERTEX
  8
0
  6
CONTINUOUS
 10
3.384480
 20
8.435680
  0
SEQEND
  8
0
  0
SOLID
  8
0
 62
    15
 10
3.428920
 20
8.345480
 11
4.100360
 21
8.740160
 12
3.462360
 22
8.250880
 13
4.133800
 23
8.645560
  0
POLYLINE
  8
0
  6
CONTINUOUS
 66
     1
 40
0.000000
 41
0.000000
  0
VERTEX
  8
0
  6
CONTINUOUS
 10
3.428920
 20
8.345480
  0
VERTEX
  8
0
  6
CONTINUOUS
 10
4.100360
 20
8.740160
  0
VERTEX
  8
0
  6
CONTINUOUS
 10
4.133800
 20
8.645560
  0
VERTEX
  8
0
  6
CONTINUOUS
 10
3.462360
 20
8.250880
  0
VERTEX
  8
0
  6
CONTINUOUS
 10
3.428920
 20
8.345480
  0
SEQEND
  8
0
  0
SOLID
  8
0
 62
    15
 10
3.462360
 20
8.250880
 11
4.133800
 21
8.645560
 12
3.484800
 22
8.152760
 13
4.156240
 23
8.547440
  0
POLYLINE
  8
0
  6
CONTINUOUS
 66
     1
 40
0.000000
 41
0.000000
  0
VERTEX
  8
0
  6
CONTINUOUS
 10
3.462360
 20
8.250880
  0
VERTEX
  8
0
  6
CONTINUOUS
 10
4.133800
 20
8.645560
  0
VERTEX
  8
0
  6
CONTINUOUS
 10
4.156240
 20
8.547440
  0
VERTEX
  8
0
  6
CONTINUOUS
 10
3.484800
 20
8.152760
  0
VERTEX
  8
0
  6
CONTINUOUS
 10
3.462360
 20
8.250880
  0
SEQEND
  8
0
  0
SOLID
  8
0
 62
    15
 10
3.484800
 20
8.152760
 11
4.156240
 21
8.547440
 12
3.495800
 22
8.052440
 13
4.167680
 23
8.447120
  0
POLYLINE
  8
0
  6
CONTINUOUS
 66
     1
 40
0.000000
 41
0.000000
  0
VERTEX
  8
0
  6
CONTINUOUS
 10
3.484800
 20
8.152760
  0
VERTEX
  8
0
  6
CONTINUOUS
 10
4.156240
 20
8.547440
  0
VERTEX
  8
0
  6
CONTINUOUS
 10
4.167680
 20
8.447120
  0
VERTEX
  8
0
  6
CONTINUOUS
 10
3.495800
 20
8.052440
  0
VERTEX
  8
0
  6
CONTINUOUS
 10
3.484800
 20
8.152760
  0
SEQEND
  8
0
  0
SOLID
  8
0
 62
    15
 10
3.495800
 20
8.052440
 11
4.167680
 21
8.447120
 12
3.495800
 22
7.951240
 13
4.167680
 23
8.345920
  0
POLYLINE
  8
0
  6
CONTINUOUS
 66
     1
 40
0.000000
 41
0.000000
  0
VERTEX
  8
0
  6
CONTINUOUS
 10
3.495800
 20
8.052440
  0
VERTEX
  8
0
  6
CONTINUOUS
 10
4.167680
 20
8.447120
  0
VERTEX
  8
0
  6
CONTINUOUS
 10
4.167680
 20
8.345920
  0
VERTEX
  8
0
  6
CONTINUOUS
 10
3.495800
 20
7.951240
  0
VERTEX
  8
0
  6
CONTINUOUS
 10
3.495800
 20
8.052440
  0
SEQEND
  8
0
  0
SOLID
  8
0
 62
    15
 10
3.495800
 20
7.951240
 11
4.167680
 21
8.345920
 12
3.484360
 22
7.850480
 13
4.155800
 23
8.245600
  0
POLYLINE
  8
0
  6
CONTINUOUS
 66
     1
 40
0.000000
 41
0.000000
  0
VERTEX
  8
0
  6
CONTINUOUS
 10
3.495800
 20
7.951240
  0
VERTEX
  8
0
  6
CONTINUOUS
 10
4.167680
 20
8.345920
  0
VERTEX
  8
0
  6
CONTINUOUS
 10
4.155800
 20
8.245600
  0
VERTEX
  8
0
  6
CONTINUOUS
 10
3.484360
 20
7.850480
  0
VERTEX
  8
0
  6
CONTINUOUS
 10
3.495800
 20
7.951240
  0
SEQEND
  8
0
  0
SOLID
  8
0
 62
    15
 10
2.438480
 20
8.841360
 11
3.110360
 21
9.236040
 12
2.529560
 22
8.861160
 13
3.201000
 23
9.255840
  0
POLYLINE
  8
0
  6
CONTINUOUS
 66
     1
 40
0.000000
 41
0.000000
  0
VERTEX
  8
0
  6
CONTINUOUS
 10
2.438480
 20
8.841360
  0
VERTEX
  8
0
  6
CONTINUOUS
 10
3.110360
 20
9.236040
  0
VERTEX
  8
0
  6
CONTINUOUS
 10
3.201000
 20
9.255840
  0
VERTEX
  8
0
  6
CONTINUOUS
 10
2.529560
 20
8.861160
  0
VERTEX
  8
0
  6
CONTINUOUS
 10
2.438480
 20
8.841360
  0
SEQEND
  8
0
  0
SOLID
  8
0
 62
    15
 10
3.461040
 20
7.751480
 11
4.132920
 21
8.146600
 12
3.426720
 22
7.655560
 13
4.098160
 23
8.050680
  0
POLYLINE
  8
0
  6
CONTINUOUS
 66
     1
 40
0.000000
 41
0.000000
  0
VERTEX
  8
0
  6
CONTINUOUS
 10
3.461040
 20
7.751480
  0
VERTEX
  8
0
  6
CONTINUOUS
 10
4.132920
 20
8.146600
  0
VERTEX
  8
0
  6
CONTINUOUS
 10
4.098160
 20
8.050680
  0
VERTEX
  8
0
  6
CONTINUOUS
 10
3.426720
 20
7.655560
  0
VERTEX
  8
0
  6
CONTINUOUS
 10
3.461040
 20
7.751480
  0
SEQEND
  8
0
  0
SOLID
  8
0
 62
    15
 10
3.426720
 20
7.655560
 11
4.098160
 21
8.050680
 12
3.380080
 22
7.564040
 13
4.051960
 23
7.958720
  0
POLYLINE
  8
0
  6
CONTINUOUS
 66
     1
 40
0.000000
 41
0.000000
  0
VERTEX
  8
0
  6
CONTINUOUS
 10
3.426720
 20
7.655560
  0
VERTEX
  8
0
  6
CONTINUOUS
 10
4.098160
 20
8.050680
  0
VERTEX
  8
0
  6
CONTINUOUS
 10
4.051960
 20
7.958720
  0
VERTEX
  8
0
  6
CONTINUOUS
 10
3.380080
 20
7.564040
  0
VERTEX
  8
0
  6
CONTINUOUS
 10
3.426720
 20
7.655560
  0
SEQEND
  8
0
  0
SOLID
  8
0
 62
    15
 10
3.380080
 20
7.564040
 11
4.051960
 21
7.958720
 12
3.322000
 22
7.477800
 13
3.993440
 23
7.872920
  0
POLYLINE
  8
0
  6
CONTINUOUS
 66
     1
 40
0.000000
 41
0.000000
  0
VERTEX
  8
0
  6
CONTINUOUS
 10
3.380080
 20
7.564040
  0
VERTEX
  8
0
  6
CONTINUOUS
 10
4.051960
 20
7.958720
  0
VERTEX
  8
0
  6
CONTINUOUS
 10
3.993440
 20
7.872920
  0
VERTEX
  8
0
  6
CONTINUOUS
 10
3.322000
 20
7.477800
  0
VERTEX
  8
0
  6
CONTINUOUS
 10
3.380080
 20
7.564040
  0
SEQEND
  8
0
  0
SOLID
  8
0
 62
    15
 10
3.322000
 20
7.477800
 11
3.993440
 21
7.872920
 12
3.251600
 22
7.398600
 13
3.923480
 23
7.793720
  0
POLYLINE
  8
0
  6
CONTINUOUS
 66
     1
 40
0.000000
 41
0.000000
  0
VERTEX
  8
0
  6
CONTINUOUS
 10
3.322000
 20
7.477800
  0
VERTEX
  8
0
  6
CONTINUOUS
 10
3.993440
 20
7.872920
  0
VERTEX
  8
0
  6
CONTINUOUS
 10
3.923480
 20
7.793720
  0
VERTEX
  8
0
  6
CONTINUOUS
 10
3.251600
 20
7.398600
  0
VERTEX
  8
0
  6
CONTINUOUS
 10
3.322000
 20
7.477800
  0
SEQEND
  8
0
  0
SOLID
  8
0
 62
    15
 10
3.251600
 20
7.398600
 11
3.923480
 21
7.793720
 12
3.169320
 22
7.327760
 13
3.841200
 23
7.722440
  0
POLYLINE
  8
0
  6
CONTINUOUS
 66
     1
 40
0.000000
 41
0.000000
  0
VERTEX
  8
0
  6
CONTINUOUS
 10
3.251600
 20
7.398600
  0
VERTEX
  8
0
  6
CONTINUOUS
 10
3.923480
 20
7.793720
  0
VERTEX
  8
0
  6
CONTINUOUS
 10
3.841200
 20
7.722440
  0
VERTEX
  8
0
  6
CONTINUOUS
 10
3.169320
 20
7.327760
  0
VERTEX
  8
0
  6
CONTINUOUS
 10
3.251600
 20
7.398600
  0
SEQEND
  8
0
  0
SOLID
  8
0
 62
    15
 10
3.169320
 20
7.327760
 11
3.841200
 21
7.722440
 12
3.075160
 22
7.266160
 13
3.746600
 23
7.660840
  0
POLYLINE
  8
0
  6
CONTINUOUS
 66
     1
 40
0.000000
 41
0.000000
  0
VERTEX
  8
0
  6
CONTINUOUS
 10
3.169320
 20
7.327760
  0
VERTEX
  8
0
  6
CONTINUOUS
 10
3.841200
 20
7.722440
  0
VERTEX
  8
0
  6
CONTINUOUS
 10
3.746600
 20
7.660840
  0
VERTEX
  8
0
  6
CONTINUOUS
 10
3.075160
 20
7.266160
  0
VERTEX
  8
0
  6
CONTINUOUS
 10
3.169320
 20
7.327760
  0
SEQEND
  8
0
  0
SOLID
  8
0
 62
    15
 10
3.075160
 20
7.266160
 11
3.746600
 21
7.660840
 12
3.071200
 22
7.261760
 13
3.742640
 23
7.656880
  0
POLYLINE
  8
0
  6
CONTINUOUS
 66
     1
 40
0.000000
 41
0.000000
  0
VERTEX
  8
0
  6
CONTINUOUS
 10
3.075160
 20
7.266160
  0
VERTEX
  8
0
  6
CONTINUOUS
 10
3.746600
 20
7.660840
  0
VERTEX
  8
0
  6
CONTINUOUS
 10
3.742640
 20
7.656880
  0
VERTEX
  8
0
  6
CONTINUOUS
 10
3.071200
 20
7.261760
  0
VERTEX
  8
0
  6
CONTINUOUS
 10
3.075160
 20
7.266160
  0
SEQEND
  8
0
  0
SOLID
  8
0
 62
    15
 10
2.987160
 20
5.558080
 11
3.658600
 21
5.952760
 12
2.987160
 22
5.555440
 13
3.658600
 23
5.950120
  0
POLYLINE
  8
0
  6
CONTINUOUS
 66
     1
 40
0.000000
 41
0.000000
  0
VERTEX
  8
0
  6
CONTINUOUS
 10
2.987160
 20
5.558080
  0
VERTEX
  8
0
  6
CONTINUOUS
 10
3.658600
 20
5.952760
  0
VERTEX
  8
0
  6
CONTINUOUS
 10
3.658600
 20
5.950120
  0
VERTEX
  8
0
  6
CONTINUOUS
 10
2.987160
 20
5.555440
  0
VERTEX
  8
0
  6
CONTINUOUS
 10
2.987160
 20
5.558080
  0
SEQEND
  8
0
  0
SOLID
  8
0
 62
    15
 10
2.987160
 20
5.555440
 11
3.658600
 21
5.950120
 12
2.973520
 22
5.467000
 13
3.644960
 23
5.862120
  0
POLYLINE
  8
0
  6
CONTINUOUS
 66
     1
 40
0.000000
 41
0.000000
  0
VERTEX
  8
0
  6
CONTINUOUS
 10
2.987160
 20
5.555440
  0
VERTEX
  8
0
  6
CONTINUOUS
 10
3.658600
 20
5.950120
  0
VERTEX
  8
0
  6
CONTINUOUS
 10
3.644960
 20
5.862120
  0
VERTEX
  8
0
  6
CONTINUOUS
 10
2.973520
 20
5.467000
  0
VERTEX
  8
0
  6
CONTINUOUS
 10
2.987160
 20
5.555440
  0
SEQEND
  8
0
  0
SOLID
  8
0
 62
    15
 10
3.071200
 20
7.261760
 11
3.742640
 21
7.656880
 12
3.071200
 22
5.558080
 13
3.742640
 23
5.952760
  0
POLYLINE
  8
0
  6
CONTINUOUS
 66
     1
 40
0.000000
 41
0.000000
  0
VERTEX
  8
0
  6
CONTINUOUS
 10
3.071200
 20
7.261760
  0
VERTEX
  8
0
  6
CONTINUOUS
 10
3.742640
 20
7.656880
  0
VERTEX
  8
0
  6
CONTINUOUS
 10
3.742640
 20
5.952760
  0
VERTEX
  8
0
  6
CONTINUOUS
 10
3.071200
 20
5.558080
  0
VERTEX
  8
0
  6
CONTINUOUS
 10
3.071200
 20
7.261760
  0
SEQEND
  8
0
  0
SOLID
  8
0
 62
    15
 10
2.973520
 20
5.467000
 11
3.644960
 21
5.862120
 12
2.945360
 22
5.389120
 13
3.616800
 23
5.783800
  0
POLYLINE
  8
0
  6
CONTINUOUS
 66
     1
 40
0.000000
 41
0.000000
  0
VERTEX
  8
0
  6
CONTINUOUS
 10
2.973520
 20
5.467000
  0
VERTEX
  8
0
  6
CONTINUOUS
 10
3.644960
 20
5.862120
  0
VERTEX
  8
0
  6
CONTINUOUS
 10
3.616800
 20
5.783800
  0
VERTEX
  8
0
  6
CONTINUOUS
 10
2.945360
 20
5.389120
  0
VERTEX
  8
0
  6
CONTINUOUS
 10
2.973520
 20
5.467000
  0
SEQEND
  8
0
  0
SOLID
  8
0
 62
    15
 10
2.593800
 20
5.151080
 11
3.265240
 21
5.546200
 12
2.594680
 22
5.117200
 13
3.266120
 23
5.511880
  0
POLYLINE
  8
0
  6
CONTINUOUS
 66
     1
 40
0.000000
 41
0.000000
  0
VERTEX
  8
0
  6
CONTINUOUS
 10
2.593800
 20
5.151080
  0
VERTEX
  8
0
  6
CONTINUOUS
 10
3.265240
 20
5.546200
  0
VERTEX
  8
0
  6
CONTINUOUS
 10
3.266120
 20
5.511880
  0
VERTEX
  8
0
  6
CONTINUOUS
 10
2.594680
 20
5.117200
  0
VERTEX
  8
0
  6
CONTINUOUS
 10
2.593800
 20
5.151080
  0
SEQEND
  8
0
  0
SOLID
  8
0
 62
    15
 10
2.853840
 20
5.264160
 11
3.525720
 21
5.659280
 12
2.795320
 22
5.218400
 13
3.467200
 23
5.613080
  0
POLYLINE
  8
0
  6
CONTINUOUS
 66
     1
 40
0.000000
 41
0.000000
  0
VERTEX
  8
0
  6
CONTINUOUS
 10
2.853840
 20
5.264160
  0
VERTEX
  8
0
  6
CONTINUOUS
 10
3.525720
 20
5.659280
  0
VERTEX
  8
0
  6
CONTINUOUS
 10
3.467200
 20
5.613080
  0
VERTEX
  8
0
  6
CONTINUOUS
 10
2.795320
 20
5.218400
  0
VERTEX
  8
0
  6
CONTINUOUS
 10
2.853840
 20
5.264160
  0
SEQEND
  8
0
  0
SOLID
  8
0
 62
    15
 10
2.594680
 20
5.117200
 11
3.266120
 21
5.511880
 12
2.587640
 22
5.087720
 13
3.259520
 23
5.482400
  0
POLYLINE
  8
0
  6
CONTINUOUS
 66
     1
 40
0.000000
 41
0.000000
  0
VERTEX
  8
0
  6
CONTINUOUS
 10
2.594680
 20
5.117200
  0
VERTEX
  8
0
  6
CONTINUOUS
 10
3.266120
 20
5.511880
  0
VERTEX
  8
0
  6
CONTINUOUS
 10
3.259520
 20
5.482400
  0
VERTEX
  8
0
  6
CONTINUOUS
 10
2.587640
 20
5.087720
  0
VERTEX
  8
0
  6
CONTINUOUS
 10
2.594680
 20
5.117200
  0
SEQEND
  8
0
  0
SOLID
  8
0
 62
    15
 10
2.945360
 20
5.389120
 11
3.616800
 21
5.783800
 12
2.904880
 22
5.321360
 13
3.576320
 23
5.716040
  0
POLYLINE
  8
0
  6
CONTINUOUS
 66
     1
 40
0.000000
 41
0.000000
  0
VERTEX
  8
0
  6
CONTINUOUS
 10
2.945360
 20
5.389120
  0
VERTEX
  8
0
  6
CONTINUOUS
 10
3.616800
 20
5.783800
  0
VERTEX
  8
0
  6
CONTINUOUS
 10
3.576320
 20
5.716040
  0
VERTEX
  8
0
  6
CONTINUOUS
 10
2.904880
 20
5.321360
  0
VERTEX
  8
0
  6
CONTINUOUS
 10
2.945360
 20
5.389120
  0
SEQEND
  8
0
  0
SOLID
  8
0
 62
    15
 10
2.904880
 20
5.321360
 11
3.576320
 21
5.716040
 12
2.853840
 22
5.264160
 13
3.525720
 23
5.659280
  0
POLYLINE
  8
0
  6
CONTINUOUS
 66
     1
 40
0.000000
 41
0.000000
  0
VERTEX
  8
0
  6
CONTINUOUS
 10
2.904880
 20
5.321360
  0
VERTEX
  8
0
  6
CONTINUOUS
 10
3.576320
 20
5.716040
  0
VERTEX
  8
0
  6
CONTINUOUS
 10
3.525720
 20
5.659280
  0
VERTEX
  8
0
  6
CONTINUOUS
 10
2.853840
 20
5.264160
  0
VERTEX
  8
0
  6
CONTINUOUS
 10
2.904880
 20
5.321360
  0
SEQEND
  8
0
  0
SOLID
  8
0
 62
    15
 10
2.587640
 20
5.087720
 11
3.259520
 21
5.482400
 12
2.567840
 22
5.067040
 13
3.239280
 23
5.461720
  0
POLYLINE
  8
0
  6
CONTINUOUS
 66
     1
 40
0.000000
 41
0.000000
  0
VERTEX
  8
0
  6
CONTINUOUS
 10
2.587640
 20
5.087720
  0
VERTEX
  8
0
  6
CONTINUOUS
 10
3.259520
 20
5.482400
  0
VERTEX
  8
0
  6
CONTINUOUS
 10
3.239280
 20
5.461720
  0
VERTEX
  8
0
  6
CONTINUOUS
 10
2.567840
 20
5.067040
  0
VERTEX
  8
0
  6
CONTINUOUS
 10
2.587640
 20
5.087720
  0
SEQEND
  8
0
  0
POLYLINE
  8
0
  6
CONTINUOUS
 66
     1
 40
0.000000
 41
0.000000
  0
VERTEX
  8
0
  6
CONTINUOUS
 10
2.020480
 20
8.127240
  0
VERTEX
  8
0
  6
CONTINUOUS
 10
2.028840
 20
8.276840
  0
VERTEX
  8
0
  6
CONTINUOUS
 10
2.052600
 20
8.407960
  0
VERTEX
  8
0
  6
CONTINUOUS
 10
2.090440
 20
8.521480
  0
VERTEX
  8
0
  6
CONTINUOUS
 10
2.140600
 20
8.617400
  0
VERTEX
  8
0
  6
CONTINUOUS
 10
2.202200
 20
8.696600
  0
VERTEX
  8
0
  6
CONTINUOUS
 10
2.273480
 20
8.759960
  0
VERTEX
  8
0
  6
CONTINUOUS
 10
2.352680
 20
8.807920
  0
VERTEX
  8
0
  6
CONTINUOUS
 10
2.438480
 20
8.841360
  0
VERTEX
  8
0
  6
CONTINUOUS
 10
2.529560
 20
8.861160
  0
VERTEX
  8
0
  6
CONTINUOUS
 10
2.624160
 20
8.867320
  0
VERTEX
  8
0
  6
CONTINUOUS
 10
2.720960
 20
8.861160
  0
VERTEX
  8
0
  6
CONTINUOUS
 10
2.818640
 20
8.843120
  0
VERTEX
  8
0
  6
CONTINUOUS
 10
2.915440
 20
8.813640
  0
VERTEX
  8
0
  6
CONTINUOUS
 10
3.009600
 20
8.773600
  0
VERTEX
  8
0
  6
CONTINUOUS
 10
3.100240
 20
8.723880
  0
VERTEX
  8
0
  6
CONTINUOUS
 10
3.185600
 20
8.664480
  0
VERTEX
  8
0
  6
CONTINUOUS
 10
3.262600
 20
8.596280
  0
VERTEX
  8
0
  6
CONTINUOUS
 10
3.329040
 20
8.519720
  0
VERTEX
  8
0
  6
CONTINUOUS
 10
3.384480
 20
8.435680
  0
VERTEX
  8
0
  6
CONTINUOUS
 10
3.428920
 20
8.345480
  0
VERTEX
  8
0
  6
CONTINUOUS
 10
3.462360
 20
8.250880
  0
VERTEX
  8
0
  6
CONTINUOUS
 10
3.484800
 20
8.152760
  0
VERTEX
  8
0
  6
CONTINUOUS
 10
3.495800
 20
8.052440
  0
VERTEX
  8
0
  6
CONTINUOUS
 10
3.495800
 20
7.951240
  0
VERTEX
  8
0
  6
CONTINUOUS
 10
3.484360
 20
7.850480
  0
VERTEX
  8
0
  6
CONTINUOUS
 10
3.461040
 20
7.751480
  0
VERTEX
  8
0
  6
CONTINUOUS
 10
3.426720
 20
7.655560
  0
VERTEX
  8
0
  6
CONTINUOUS
 10
3.380080
 20
7.564040
  0
VERTEX
  8
0
  6
CONTINUOUS
 10
3.322000
 20
7.477800
  0
VERTEX
  8
0
  6
CONTINUOUS
 10
3.251600
 20
7.398600
  0
VERTEX
  8
0
  6
CONTINUOUS
 10
3.169320
 20
7.327760
  0
VERTEX
  8
0
  6
CONTINUOUS
 10
3.075160
 20
7.266160
  0
VERTEX
  8
0
  6
CONTINUOUS
 10
3.071200
 20
7.261760
  0
VERTEX
  8
0
  6
CONTINUOUS
 10
3.071200
 20
5.558080
  0
VERTEX
  8
0
  6
CONTINUOUS
 10
2.987160
 20
5.558080
  0
VERTEX
  8
0
  6
CONTINUOUS
 10
2.973520
 20
5.467000
  0
VERTEX
  8
0
  6
CONTINUOUS
 10
2.945360
 20
5.389120
  0
VERTEX
  8
0
  6
CONTINUOUS
 10
2.904880
 20
5.321360
  0
VERTEX
  8
0
  6
CONTINUOUS
 10
2.853840
 20
5.264160
  0
VERTEX
  8
0
  6
CONTINUOUS
 10
2.795320
 20
5.218400
  0
VERTEX
  8
0
  6
CONTINUOUS
 10
2.731080
 20
5.184080
  0
VERTEX
  8
0
  6
CONTINUOUS
 10
2.663760
 20
5.161640
  0
VERTEX
  8
0
  6
CONTINUOUS
 10
2.593800
 20
5.151080
  0
VERTEX
  8
0
  6
CONTINUOUS
 10
2.594680
 20
5.117200
  0
VERTEX
  8
0
  6
CONTINUOUS
 10
2.587640
 20
5.087720
  0
VERTEX
  8
0
  6
CONTINUOUS
 10
2.567840
 20
5.067040
  0
VERTEX
  8
0
  6
CONTINUOUS
 10
2.529560
 20
5.059120
  0
VERTEX
  8
0
  6
CONTINUOUS
 10
2.256320
 20
5.059120
  0
VERTEX
  8
0
  6
CONTINUOUS
 10
2.256320
 20
8.119320
  0
VERTEX
  8
0
  6
CONTINUOUS
 10
2.020480
 20
8.119320
  0
VERTEX
  8
0
  6
CONTINUOUS
 10
2.020480
 20
8.127240
  0
SEQEND
  8
0
  0
TEXT
  8
0
 10
3.001240
 20
4.763880
 40
0.138123
  1
49
 41
1.000000
  7
SN0
 71
     0
 72
     5
 11
3.186064
 21
4.763880
  0
TEXT
  8
0
 10
2.476320
 20
4.572040
 40
0.138123
  1
1-1/2" x 3-13/16"
 41
1.000000
  7
SN0
 71
     0
 72
     5
 11
3.708677
 21
4.572040
  0
ENDSEC
  0
EOF
