  0
SECTION
  2
HEADER
  9
$ACADVER
  1
AC1006
  9
$EXTMIN
 10
2.857360
 20
1.657040
  9
$EXTMAX
 10
5.715160
 20
4.279880
  9
$LTSCALE
 40
0.044000
  9
$PDMODE
 70
    35
  9
$PDSIZE
 40
0.035200
  0
ENDSEC
  0
SECTION
  2
TABLES
  0
TABLE
  2
LTYPE
 70
     9
  0
LTYPE
  2
CONTINUOUS
 70
    64
  3
Solid line
 72
    65
 73
     0
 40
0.000000
  0
LTYPE
  2
DASHED
 70
    64
  3
__ __ __ __ __ __ __ __ __ __ __ __ __ __ __
 72
    65
 73
     2
 40
0.000330
 49
0.000220
 49
-0.000110
  0
LTYPE
  2
HIDDEN
 70
    64
  3
 _ _ _ _ _ _ _ _ _ _ _ _ _ _ _ _ _ _ _ _ _ _
 72
    65
 73
     2
 40
0.000165
 49
0.000110
 49
-0.000055
  0
LTYPE
  2
CENTER
 70
    64
  3
____ _ ____ _ ____ _ ____ _ ____ _ ____ _ ____
 72
    65
 73
     4
 40
0.000880
 49
0.000550
 49
-0.000110
 49
0.000110
 49
-0.000110
  0
LTYPE
  2
PHANTOM
 70
    64
  3
_____ _ _ _____ _ _ _____ _ _ _____ _ _ ____
 72
    65
 73
     6
 40
0.001100
 49
0.000550
 49
-0.000110
 49
0.000110
 49
-0.000110
 49
0.000110
 49
-0.000110
  0
LTYPE
  2
DOT
 70
    64
  3
...............................................
 72
    65
 73
     2
 40
0.000110
 49
0.000000
 49
-0.000110
  0
LTYPE
  2
DASHDOT
 70
    64
  3
__ . __ . __ . __ . __ . __ . __ . __ . __ . __
 72
    65
 73
     4
 40
0.000440
 49
0.000220
 49
-0.000110
 49
0.000000
 49
-0.000110
  0
LTYPE
  2
BORDER
 70
    64
  3
__ __ . __ __ . __ __ . __ __ . __ __ . __ __
 72
    65
 73
     6
 40
0.000770
 49
0.000220
 49
-0.000110
 49
0.000220
 49
-0.000110
 49
0.000000
 49
-0.000110
  0
LTYPE
  2
DIVIDE
 70
    64
  3
__ . . __ . . __ . . __ . . __ . . __ . . __
 72
    65
 73
     6
 40
0.000550
 49
0.000220
 49
-0.000110
 49
0.000000
 49
-0.000110
 49
0.000000
 49
-0.000110
  0
LTYPE
  2
DOTDOT
 70
    64
  3
 . .  . .  . .  . .  . .  . . 
 72
    65
 73
     5
 40
0.000242
 49
-0.000110
 49
0.000000
 49
-0.000110
 49
0.000000
 49
-0.000110
  0
ENDTAB
  0
TABLE
  2
STYLE
 70
     2
  0
STYLE
 70
     0
  2
SN0
 40
0.000000
 41
0.000440
 50
0.000000
 71
     0
 42
0.000000
  3
ROMAND
  0
STYLE
 70
    68
  2
SV0
 40
0.000000
 41
0.000440
 50
0.000000
 71
     0
 42
0.000000
  3
ROMAND
  0
ENDTAB
  0
TABLE
  2
LAYER
 70
     3
  0
LAYER
  2
FOREGROUND
 70
    64
 62
     7
  6
CONTINUOUS
  0
LAYER
  2
BACKGROUND
 70
    65
 62
    -7
  6
CONTINUOUS
  0
LAYER
  2
0
 70
    64
 62
     7
  6
CONTINUOUS
  0
ENDTAB
  0
ENDSEC
  0
SECTION
  2
ENTITIES
  0
POLYLINE
  8
FOREGROUND
  6
CONTINUOUS
 66
     1
 40
0.000000
 41
0.000000
  0
VERTEX
  8
FOREGROUND
  6
CONTINUOUS
 10
0.000000
 20
5.936920
  0
VERTEX
  8
FOREGROUND
  6
CONTINUOUS
 10
8.499920
 20
5.936920
  0
VERTEX
  8
FOREGROUND
  6
CONTINUOUS
 10
8.499920
 20
-5.063080
  0
VERTEX
  8
FOREGROUND
  6
CONTINUOUS
 10
0.000000
 20
-5.063080
  0
VERTEX
  8
FOREGROUND
  6
CONTINUOUS
 10
0.000000
 20
5.936920
  0
SEQEND
  8
0
  0
POLYLINE
  8
FOREGROUND
  6
CONTINUOUS
 66
     1
 40
0.000000
 41
0.000000
  0
VERTEX
  8
FOREGROUND
  6
CONTINUOUS
 10
0.000000
 20
5.936920
  0
VERTEX
  8
FOREGROUND
  6
CONTINUOUS
 10
8.499920
 20
5.936920
  0
VERTEX
  8
FOREGROUND
  6
CONTINUOUS
 10
8.499920
 20
-5.063080
  0
VERTEX
  8
FOREGROUND
  6
CONTINUOUS
 10
0.000000
 20
-5.063080
  0
VERTEX
  8
FOREGROUND
  6
CONTINUOUS
 10
0.000000
 20
5.936920
  0
SEQEND
  8
0
  0
POLYLINE
  8
0
  6
CONTINUOUS
 66
     1
 40
0.014080
 41
0.014080
  0
VERTEX
  8
0
  6
CONTINUOUS
 10
3.766840
 20
3.920400
  0
VERTEX
  8
0
  6
CONTINUOUS
 10
3.766840
 20
3.660360
  0
VERTEX
  8
0
  6
CONTINUOUS
 10
4.194960
 20
3.660360
  0
VERTEX
  8
0
  6
CONTINUOUS
 10
4.196280
 20
3.660360
  0
VERTEX
  8
0
  6
CONTINUOUS
 10
4.196280
 20
3.519120
  0
VERTEX
  8
0
  6
CONTINUOUS
 10
4.196280
 20
3.517800
  0
VERTEX
  8
0
  6
CONTINUOUS
 10
3.370840
 20
3.517800
  0
VERTEX
  8
0
  6
CONTINUOUS
 10
3.366880
 20
3.519120
  0
VERTEX
  8
0
  6
CONTINUOUS
 10
3.366880
 20
4.271080
  0
VERTEX
  8
0
  6
CONTINUOUS
 10
3.368200
 20
4.271080
  0
VERTEX
  8
0
  6
CONTINUOUS
 10
3.949440
 20
4.271080
  0
VERTEX
  8
0
  6
CONTINUOUS
 10
3.949440
 20
4.165920
  0
VERTEX
  8
0
  6
CONTINUOUS
 10
3.968800
 20
4.161080
  0
VERTEX
  8
0
  6
CONTINUOUS
 10
3.987280
 20
4.155800
  0
VERTEX
  8
0
  6
CONTINUOUS
 10
4.004880
 20
4.150080
  0
VERTEX
  8
0
  6
CONTINUOUS
 10
4.021160
 20
4.143920
  0
VERTEX
  8
0
  6
CONTINUOUS
 10
4.036120
 20
4.136880
  0
VERTEX
  8
0
  6
CONTINUOUS
 10
4.050640
 20
4.129840
  0
VERTEX
  8
0
  6
CONTINUOUS
 10
4.063840
 20
4.122360
  0
VERTEX
  8
0
  6
CONTINUOUS
 10
4.076160
 20
4.114440
  0
VERTEX
  8
0
  6
CONTINUOUS
 10
4.087600
 20
4.106520
  0
VERTEX
  8
0
  6
CONTINUOUS
 10
4.098160
 20
4.098160
  0
VERTEX
  8
0
  6
CONTINUOUS
 10
4.108280
 20
4.089800
  0
VERTEX
  8
0
  6
CONTINUOUS
 10
4.117080
 20
4.081000
  0
VERTEX
  8
0
  6
CONTINUOUS
 10
4.125440
 20
4.072200
  0
VERTEX
  8
0
  6
CONTINUOUS
 10
4.133360
 20
4.062960
  0
VERTEX
  8
0
  6
CONTINUOUS
 10
4.147000
 20
4.044920
  0
VERTEX
  8
0
  6
CONTINUOUS
 10
4.158000
 20
4.026440
  0
VERTEX
  8
0
  6
CONTINUOUS
 10
4.167240
 20
4.008400
  0
VERTEX
  8
0
  6
CONTINUOUS
 10
4.174280
 20
3.991240
  0
VERTEX
  8
0
  6
CONTINUOUS
 10
4.180440
 20
3.974520
  0
VERTEX
  8
0
  6
CONTINUOUS
 10
4.185280
 20
3.959120
  0
VERTEX
  8
0
  6
CONTINUOUS
 10
4.189240
 20
3.944600
  0
VERTEX
  8
0
  6
CONTINUOUS
 10
4.192760
 20
3.932280
  0
VERTEX
  8
0
  6
CONTINUOUS
 10
4.194520
 20
3.926560
  0
VERTEX
  8
0
  6
CONTINUOUS
 10
4.196280
 20
3.921720
  0
VERTEX
  8
0
  6
CONTINUOUS
 10
4.196280
 20
3.920400
  0
VERTEX
  8
0
  6
CONTINUOUS
 10
3.766840
 20
3.920400
  0
SEQEND
  8
0
  0
POLYLINE
  8
0
  6
CONTINUOUS
 66
     1
 40
0.014080
 41
0.014080
  0
VERTEX
  8
0
  6
CONTINUOUS
 10
4.011040
 20
3.920400
  0
VERTEX
  8
0
  6
CONTINUOUS
 10
4.011040
 20
3.660360
  0
VERTEX
  8
0
  6
CONTINUOUS
 10
4.438720
 20
3.660360
  0
VERTEX
  8
0
  6
CONTINUOUS
 10
4.440040
 20
3.660360
  0
VERTEX
  8
0
  6
CONTINUOUS
 10
4.440040
 20
3.519120
  0
VERTEX
  8
0
  6
CONTINUOUS
 10
4.440040
 20
3.517800
  0
VERTEX
  8
0
  6
CONTINUOUS
 10
5.017320
 20
3.517800
  0
VERTEX
  8
0
  6
CONTINUOUS
 10
5.017320
 20
4.272400
  0
VERTEX
  8
0
  6
CONTINUOUS
 10
4.192320
 20
4.272400
  0
VERTEX
  8
0
  6
CONTINUOUS
 10
4.193640
 20
4.271080
  0
VERTEX
  8
0
  6
CONTINUOUS
 10
4.193640
 20
4.165920
  0
VERTEX
  8
0
  6
CONTINUOUS
 10
4.213000
 20
4.161080
  0
VERTEX
  8
0
  6
CONTINUOUS
 10
4.231480
 20
4.155800
  0
VERTEX
  8
0
  6
CONTINUOUS
 10
4.249080
 20
4.150080
  0
VERTEX
  8
0
  6
CONTINUOUS
 10
4.265360
 20
4.143920
  0
VERTEX
  8
0
  6
CONTINUOUS
 10
4.280320
 20
4.136880
  0
VERTEX
  8
0
  6
CONTINUOUS
 10
4.294840
 20
4.129840
  0
VERTEX
  8
0
  6
CONTINUOUS
 10
4.308040
 20
4.122360
  0
VERTEX
  8
0
  6
CONTINUOUS
 10
4.320360
 20
4.114440
  0
VERTEX
  8
0
  6
CONTINUOUS
 10
4.331800
 20
4.106520
  0
VERTEX
  8
0
  6
CONTINUOUS
 10
4.342360
 20
4.098160
  0
VERTEX
  8
0
  6
CONTINUOUS
 10
4.352480
 20
4.089800
  0
VERTEX
  8
0
  6
CONTINUOUS
 10
4.361280
 20
4.081000
  0
VERTEX
  8
0
  6
CONTINUOUS
 10
4.369640
 20
4.072200
  0
VERTEX
  8
0
  6
CONTINUOUS
 10
4.377560
 20
4.062960
  0
VERTEX
  8
0
  6
CONTINUOUS
 10
4.390760
 20
4.044920
  0
VERTEX
  8
0
  6
CONTINUOUS
 10
4.402200
 20
4.026440
  0
VERTEX
  8
0
  6
CONTINUOUS
 10
4.411000
 20
4.008400
  0
VERTEX
  8
0
  6
CONTINUOUS
 10
4.418480
 20
3.991240
  0
VERTEX
  8
0
  6
CONTINUOUS
 10
4.424640
 20
3.974520
  0
VERTEX
  8
0
  6
CONTINUOUS
 10
4.429480
 20
3.959120
  0
VERTEX
  8
0
  6
CONTINUOUS
 10
4.433440
 20
3.944600
  0
VERTEX
  8
0
  6
CONTINUOUS
 10
4.436960
 20
3.932280
  0
VERTEX
  8
0
  6
CONTINUOUS
 10
4.438280
 20
3.926560
  0
VERTEX
  8
0
  6
CONTINUOUS
 10
4.440040
 20
3.921720
  0
VERTEX
  8
0
  6
CONTINUOUS
 10
4.440040
 20
3.920400
  0
VERTEX
  8
0
  6
CONTINUOUS
 10
4.011040
 20
3.920400
  0
SEQEND
  8
0
  0
SOLID
  8
0
 62
     7
 10
3.544640
 20
2.742080
 11
4.181320
 21
3.112560
 12
3.570600
 22
2.726680
 13
4.206840
 23
3.097160
  0
POLYLINE
  8
0
  6
CONTINUOUS
 66
     1
 40
0.000000
 41
0.000000
  0
VERTEX
  8
0
  6
CONTINUOUS
 10
3.544640
 20
2.742080
  0
VERTEX
  8
0
  6
CONTINUOUS
 10
4.181320
 20
3.112560
  0
VERTEX
  8
0
  6
CONTINUOUS
 10
4.206840
 20
3.097160
  0
VERTEX
  8
0
  6
CONTINUOUS
 10
3.570600
 20
2.726680
  0
VERTEX
  8
0
  6
CONTINUOUS
 10
3.544640
 20
2.742080
  0
SEQEND
  8
0
  0
SOLID
  8
0
 62
    15
 10
3.261280
 20
2.272600
 11
3.897520
 21
2.643080
 12
3.690280
 22
2.272600
 13
4.326960
 23
2.643080
  0
POLYLINE
  8
0
  6
CONTINUOUS
 66
     1
 40
0.000000
 41
0.000000
  0
VERTEX
  8
0
  6
CONTINUOUS
 10
3.261280
 20
2.272600
  0
VERTEX
  8
0
  6
CONTINUOUS
 10
3.897520
 20
2.643080
  0
VERTEX
  8
0
  6
CONTINUOUS
 10
4.326960
 20
2.643080
  0
VERTEX
  8
0
  6
CONTINUOUS
 10
3.690280
 20
2.272600
  0
VERTEX
  8
0
  6
CONTINUOUS
 10
3.261280
 20
2.272600
  0
SEQEND
  8
0
  0
SOLID
  8
0
 62
     7
 10
3.690280
 20
2.272600
 11
4.326960
 21
2.643080
 12
3.690280
 22
2.130040
 13
4.326960
 23
2.500520
  0
POLYLINE
  8
0
  6
CONTINUOUS
 66
     1
 40
0.000000
 41
0.000000
  0
VERTEX
  8
0
  6
CONTINUOUS
 10
3.690280
 20
2.272600
  0
VERTEX
  8
0
  6
CONTINUOUS
 10
4.326960
 20
2.643080
  0
VERTEX
  8
0
  6
CONTINUOUS
 10
4.326960
 20
2.500520
  0
VERTEX
  8
0
  6
CONTINUOUS
 10
3.690280
 20
2.130040
  0
VERTEX
  8
0
  6
CONTINUOUS
 10
3.690280
 20
2.272600
  0
SEQEND
  8
0
  0
SOLID
  8
0
 62
    15
 10
2.861320
 20
2.883320
 11
3.497560
 21
3.253800
 12
3.443880
 22
2.883320
 13
4.080120
 23
3.253800
  0
POLYLINE
  8
0
  6
CONTINUOUS
 66
     1
 40
0.000000
 41
0.000000
  0
VERTEX
  8
0
  6
CONTINUOUS
 10
2.861320
 20
2.883320
  0
VERTEX
  8
0
  6
CONTINUOUS
 10
3.497560
 20
3.253800
  0
VERTEX
  8
0
  6
CONTINUOUS
 10
4.080120
 20
3.253800
  0
VERTEX
  8
0
  6
CONTINUOUS
 10
3.443880
 20
2.883320
  0
VERTEX
  8
0
  6
CONTINUOUS
 10
2.861320
 20
2.883320
  0
SEQEND
  8
0
  0
SOLID
  8
0
 62
     7
 10
3.443880
 20
2.883320
 11
4.080120
 21
3.253800
 12
3.443880
 22
2.778160
 13
4.080120
 23
3.148200
  0
POLYLINE
  8
0
  6
CONTINUOUS
 66
     1
 40
0.000000
 41
0.000000
  0
VERTEX
  8
0
  6
CONTINUOUS
 10
3.443880
 20
2.883320
  0
VERTEX
  8
0
  6
CONTINUOUS
 10
4.080120
 20
3.253800
  0
VERTEX
  8
0
  6
CONTINUOUS
 10
4.080120
 20
3.148200
  0
VERTEX
  8
0
  6
CONTINUOUS
 10
3.443880
 20
2.778160
  0
VERTEX
  8
0
  6
CONTINUOUS
 10
3.443880
 20
2.883320
  0
SEQEND
  8
0
  0
SOLID
  8
0
 62
     7
 10
3.443880
 20
2.778160
 11
4.080120
 21
3.148200
 12
3.481720
 22
2.768040
 13
4.118400
 23
3.138520
  0
POLYLINE
  8
0
  6
CONTINUOUS
 66
     1
 40
0.000000
 41
0.000000
  0
VERTEX
  8
0
  6
CONTINUOUS
 10
3.443880
 20
2.778160
  0
VERTEX
  8
0
  6
CONTINUOUS
 10
4.080120
 20
3.148200
  0
VERTEX
  8
0
  6
CONTINUOUS
 10
4.118400
 20
3.138520
  0
VERTEX
  8
0
  6
CONTINUOUS
 10
3.481720
 20
2.768040
  0
VERTEX
  8
0
  6
CONTINUOUS
 10
3.443880
 20
2.778160
  0
SEQEND
  8
0
  0
SOLID
  8
0
 62
     7
 10
3.481720
 20
2.768040
 11
4.118400
 21
3.138520
 12
3.515160
 22
2.755720
 13
4.151840
 23
3.126200
  0
POLYLINE
  8
0
  6
CONTINUOUS
 66
     1
 40
0.000000
 41
0.000000
  0
VERTEX
  8
0
  6
CONTINUOUS
 10
3.481720
 20
2.768040
  0
VERTEX
  8
0
  6
CONTINUOUS
 10
4.118400
 20
3.138520
  0
VERTEX
  8
0
  6
CONTINUOUS
 10
4.151840
 20
3.126200
  0
VERTEX
  8
0
  6
CONTINUOUS
 10
3.515160
 20
2.755720
  0
VERTEX
  8
0
  6
CONTINUOUS
 10
3.481720
 20
2.768040
  0
SEQEND
  8
0
  0
SOLID
  8
0
 62
     7
 10
3.515160
 20
2.755720
 11
4.151840
 21
3.126200
 12
3.544640
 22
2.742080
 13
4.181320
 23
3.112560
  0
POLYLINE
  8
0
  6
CONTINUOUS
 66
     1
 40
0.000000
 41
0.000000
  0
VERTEX
  8
0
  6
CONTINUOUS
 10
3.515160
 20
2.755720
  0
VERTEX
  8
0
  6
CONTINUOUS
 10
4.151840
 20
3.126200
  0
VERTEX
  8
0
  6
CONTINUOUS
 10
4.181320
 20
3.112560
  0
VERTEX
  8
0
  6
CONTINUOUS
 10
3.544640
 20
2.742080
  0
VERTEX
  8
0
  6
CONTINUOUS
 10
3.515160
 20
2.755720
  0
SEQEND
  8
0
  0
SOLID
  8
0
 62
     7
 10
3.261280
 20
2.532640
 11
3.897520
 21
2.903120
 12
3.261280
 22
2.272600
 13
3.897520
 23
2.643080
  0
POLYLINE
  8
0
  6
CONTINUOUS
 66
     1
 40
0.000000
 41
0.000000
  0
VERTEX
  8
0
  6
CONTINUOUS
 10
3.261280
 20
2.532640
  0
VERTEX
  8
0
  6
CONTINUOUS
 10
3.897520
 20
2.903120
  0
VERTEX
  8
0
  6
CONTINUOUS
 10
3.897520
 20
2.643080
  0
VERTEX
  8
0
  6
CONTINUOUS
 10
3.261280
 20
2.272600
  0
VERTEX
  8
0
  6
CONTINUOUS
 10
3.261280
 20
2.532640
  0
SEQEND
  8
0
  0
SOLID
  8
0
 62
     7
 10
3.570600
 20
2.726680
 11
4.206840
 21
3.097160
 12
3.611520
 22
2.693240
 13
4.248200
 23
3.063280
  0
POLYLINE
  8
0
  6
CONTINUOUS
 66
     1
 40
0.000000
 41
0.000000
  0
VERTEX
  8
0
  6
CONTINUOUS
 10
3.570600
 20
2.726680
  0
VERTEX
  8
0
  6
CONTINUOUS
 10
4.206840
 20
3.097160
  0
VERTEX
  8
0
  6
CONTINUOUS
 10
4.248200
 20
3.063280
  0
VERTEX
  8
0
  6
CONTINUOUS
 10
3.611520
 20
2.693240
  0
VERTEX
  8
0
  6
CONTINUOUS
 10
3.570600
 20
2.726680
  0
SEQEND
  8
0
  0
SOLID
  8
0
 62
     7
 10
3.611520
 20
2.693240
 11
4.248200
 21
3.063280
 12
3.641000
 22
2.657160
 13
4.277680
 23
3.027640
  0
POLYLINE
  8
0
  6
CONTINUOUS
 66
     1
 40
0.000000
 41
0.000000
  0
VERTEX
  8
0
  6
CONTINUOUS
 10
3.611520
 20
2.693240
  0
VERTEX
  8
0
  6
CONTINUOUS
 10
4.248200
 20
3.063280
  0
VERTEX
  8
0
  6
CONTINUOUS
 10
4.277680
 20
3.027640
  0
VERTEX
  8
0
  6
CONTINUOUS
 10
3.641000
 20
2.657160
  0
VERTEX
  8
0
  6
CONTINUOUS
 10
3.611520
 20
2.693240
  0
SEQEND
  8
0
  0
SOLID
  8
0
 62
     7
 10
3.641000
 20
2.657160
 11
4.277680
 21
3.027640
 12
3.661240
 22
2.621080
 13
4.297920
 23
2.991120
  0
POLYLINE
  8
0
  6
CONTINUOUS
 66
     1
 40
0.000000
 41
0.000000
  0
VERTEX
  8
0
  6
CONTINUOUS
 10
3.641000
 20
2.657160
  0
VERTEX
  8
0
  6
CONTINUOUS
 10
4.277680
 20
3.027640
  0
VERTEX
  8
0
  6
CONTINUOUS
 10
4.297920
 20
2.991120
  0
VERTEX
  8
0
  6
CONTINUOUS
 10
3.661240
 20
2.621080
  0
VERTEX
  8
0
  6
CONTINUOUS
 10
3.641000
 20
2.657160
  0
SEQEND
  8
0
  0
SOLID
  8
0
 62
     7
 10
3.661240
 20
2.621080
 11
4.297920
 21
2.991120
 12
3.674880
 22
2.586760
 13
4.311120
 23
2.957240
  0
POLYLINE
  8
0
  6
CONTINUOUS
 66
     1
 40
0.000000
 41
0.000000
  0
VERTEX
  8
0
  6
CONTINUOUS
 10
3.661240
 20
2.621080
  0
VERTEX
  8
0
  6
CONTINUOUS
 10
4.297920
 20
2.991120
  0
VERTEX
  8
0
  6
CONTINUOUS
 10
4.311120
 20
2.957240
  0
VERTEX
  8
0
  6
CONTINUOUS
 10
3.674880
 20
2.586760
  0
VERTEX
  8
0
  6
CONTINUOUS
 10
3.661240
 20
2.621080
  0
SEQEND
  8
0
  0
SOLID
  8
0
 62
     7
 10
3.674880
 20
2.586760
 11
4.311120
 21
2.957240
 12
3.683680
 22
2.557280
 13
4.320360
 23
2.927320
  0
POLYLINE
  8
0
  6
CONTINUOUS
 66
     1
 40
0.000000
 41
0.000000
  0
VERTEX
  8
0
  6
CONTINUOUS
 10
3.674880
 20
2.586760
  0
VERTEX
  8
0
  6
CONTINUOUS
 10
4.311120
 20
2.957240
  0
VERTEX
  8
0
  6
CONTINUOUS
 10
4.320360
 20
2.927320
  0
VERTEX
  8
0
  6
CONTINUOUS
 10
3.683680
 20
2.557280
  0
VERTEX
  8
0
  6
CONTINUOUS
 10
3.674880
 20
2.586760
  0
SEQEND
  8
0
  0
SOLID
  8
0
 62
     7
 10
3.683680
 20
2.557280
 11
4.320360
 21
2.927320
 12
3.687200
 22
2.544520
 13
4.323880
 23
2.915000
  0
POLYLINE
  8
0
  6
CONTINUOUS
 66
     1
 40
0.000000
 41
0.000000
  0
VERTEX
  8
0
  6
CONTINUOUS
 10
3.683680
 20
2.557280
  0
VERTEX
  8
0
  6
CONTINUOUS
 10
4.320360
 20
2.927320
  0
VERTEX
  8
0
  6
CONTINUOUS
 10
4.323880
 20
2.915000
  0
VERTEX
  8
0
  6
CONTINUOUS
 10
3.687200
 20
2.544520
  0
VERTEX
  8
0
  6
CONTINUOUS
 10
3.683680
 20
2.557280
  0
SEQEND
  8
0
  0
SOLID
  8
0
 62
     7
 10
3.687200
 20
2.544520
 11
4.323880
 21
2.915000
 12
3.690280
 22
2.533960
 13
4.326960
 23
2.904440
  0
POLYLINE
  8
0
  6
CONTINUOUS
 66
     1
 40
0.000000
 41
0.000000
  0
VERTEX
  8
0
  6
CONTINUOUS
 10
3.687200
 20
2.544520
  0
VERTEX
  8
0
  6
CONTINUOUS
 10
4.323880
 20
2.915000
  0
VERTEX
  8
0
  6
CONTINUOUS
 10
4.326960
 20
2.904440
  0
VERTEX
  8
0
  6
CONTINUOUS
 10
3.690280
 20
2.533960
  0
VERTEX
  8
0
  6
CONTINUOUS
 10
3.687200
 20
2.544520
  0
SEQEND
  8
0
  0
SOLID
  8
0
 62
     7
 10
3.690280
 20
2.533960
 11
4.326960
 21
2.904440
 12
3.690280
 22
2.532640
 13
4.326960
 23
2.903120
  0
POLYLINE
  8
0
  6
CONTINUOUS
 66
     1
 40
0.000000
 41
0.000000
  0
VERTEX
  8
0
  6
CONTINUOUS
 10
3.690280
 20
2.533960
  0
VERTEX
  8
0
  6
CONTINUOUS
 10
4.326960
 20
2.904440
  0
VERTEX
  8
0
  6
CONTINUOUS
 10
4.326960
 20
2.903120
  0
VERTEX
  8
0
  6
CONTINUOUS
 10
3.690280
 20
2.532640
  0
VERTEX
  8
0
  6
CONTINUOUS
 10
3.690280
 20
2.533960
  0
SEQEND
  8
0
  0
POLYLINE
  8
0
  6
CONTINUOUS
 66
     1
 40
0.000000
 41
0.000000
  0
VERTEX
  8
0
  6
CONTINUOUS
 10
3.261280
 20
2.532640
  0
VERTEX
  8
0
  6
CONTINUOUS
 10
3.261280
 20
2.272600
  0
VERTEX
  8
0
  6
CONTINUOUS
 10
3.690280
 20
2.272600
  0
VERTEX
  8
0
  6
CONTINUOUS
 10
3.690280
 20
2.130040
  0
VERTEX
  8
0
  6
CONTINUOUS
 10
2.865280
 20
2.130040
  0
VERTEX
  8
0
  6
CONTINUOUS
 10
2.861320
 20
2.131360
  0
VERTEX
  8
0
  6
CONTINUOUS
 10
2.861320
 20
2.883320
  0
VERTEX
  8
0
  6
CONTINUOUS
 10
3.443880
 20
2.883320
  0
VERTEX
  8
0
  6
CONTINUOUS
 10
3.443880
 20
2.778160
  0
VERTEX
  8
0
  6
CONTINUOUS
 10
3.481720
 20
2.768040
  0
VERTEX
  8
0
  6
CONTINUOUS
 10
3.515160
 20
2.755720
  0
VERTEX
  8
0
  6
CONTINUOUS
 10
3.544640
 20
2.742080
  0
VERTEX
  8
0
  6
CONTINUOUS
 10
3.570600
 20
2.726680
  0
VERTEX
  8
0
  6
CONTINUOUS
 10
3.611520
 20
2.693240
  0
VERTEX
  8
0
  6
CONTINUOUS
 10
3.641000
 20
2.657160
  0
VERTEX
  8
0
  6
CONTINUOUS
 10
3.661240
 20
2.621080
  0
VERTEX
  8
0
  6
CONTINUOUS
 10
3.674880
 20
2.586760
  0
VERTEX
  8
0
  6
CONTINUOUS
 10
3.683680
 20
2.557280
  0
VERTEX
  8
0
  6
CONTINUOUS
 10
3.687200
 20
2.544520
  0
VERTEX
  8
0
  6
CONTINUOUS
 10
3.690280
 20
2.533960
  0
VERTEX
  8
0
  6
CONTINUOUS
 10
3.690280
 20
2.532640
  0
VERTEX
  8
0
  6
CONTINUOUS
 10
3.267880
 20
2.532640
  0
VERTEX
  8
0
  6
CONTINUOUS
 10
3.261280
 20
2.532640
  0
SEQEND
  8
0
  0
SOLID
  8
0
 62
    15
 10
4.458960
 20
2.884640
 11
4.889720
 21
3.127080
 12
5.283960
 22
2.884640
 13
5.715160
 23
3.127080
  0
POLYLINE
  8
0
  6
CONTINUOUS
 66
     1
 40
0.000000
 41
0.000000
  0
VERTEX
  8
0
  6
CONTINUOUS
 10
4.458960
 20
2.884640
  0
VERTEX
  8
0
  6
CONTINUOUS
 10
4.889720
 20
3.127080
  0
VERTEX
  8
0
  6
CONTINUOUS
 10
5.715160
 20
3.127080
  0
VERTEX
  8
0
  6
CONTINUOUS
 10
5.283960
 20
2.884640
  0
VERTEX
  8
0
  6
CONTINUOUS
 10
4.458960
 20
2.884640
  0
SEQEND
  8
0
  0
SOLID
  8
0
 62
    15
 10
5.283960
 20
2.884640
 11
5.715160
 21
3.127080
 12
5.283960
 22
2.130040
 13
5.715160
 23
2.372480
  0
POLYLINE
  8
0
  6
CONTINUOUS
 66
     1
 40
0.000000
 41
0.000000
  0
VERTEX
  8
0
  6
CONTINUOUS
 10
5.283960
 20
2.884640
  0
VERTEX
  8
0
  6
CONTINUOUS
 10
5.715160
 20
3.127080
  0
VERTEX
  8
0
  6
CONTINUOUS
 10
5.715160
 20
2.372480
  0
VERTEX
  8
0
  6
CONTINUOUS
 10
5.283960
 20
2.130040
  0
VERTEX
  8
0
  6
CONTINUOUS
 10
5.283960
 20
2.884640
  0
SEQEND
  8
0
  0
SOLID
  8
0
 62
    15
 10
4.277240
 20
2.532640
 11
4.708440
 21
2.775080
 12
4.284280
 22
2.532640
 13
4.715040
 23
2.775080
  0
POLYLINE
  8
0
  6
CONTINUOUS
 66
     1
 40
0.000000
 41
0.000000
  0
VERTEX
  8
0
  6
CONTINUOUS
 10
4.277240
 20
2.532640
  0
VERTEX
  8
0
  6
CONTINUOUS
 10
4.708440
 20
2.775080
  0
VERTEX
  8
0
  6
CONTINUOUS
 10
4.715040
 20
2.775080
  0
VERTEX
  8
0
  6
CONTINUOUS
 10
4.284280
 20
2.532640
  0
VERTEX
  8
0
  6
CONTINUOUS
 10
4.277240
 20
2.532640
  0
SEQEND
  8
0
  0
SOLID
  8
0
 62
    15
 10
4.284280
 20
2.532640
 11
4.715040
 21
2.775080
 12
4.706680
 22
2.532640
 13
5.137880
 23
2.775080
  0
POLYLINE
  8
0
  6
CONTINUOUS
 66
     1
 40
0.000000
 41
0.000000
  0
VERTEX
  8
0
  6
CONTINUOUS
 10
4.284280
 20
2.532640
  0
VERTEX
  8
0
  6
CONTINUOUS
 10
4.715040
 20
2.775080
  0
VERTEX
  8
0
  6
CONTINUOUS
 10
5.137880
 20
2.775080
  0
VERTEX
  8
0
  6
CONTINUOUS
 10
4.706680
 20
2.532640
  0
VERTEX
  8
0
  6
CONTINUOUS
 10
4.284280
 20
2.532640
  0
SEQEND
  8
0
  0
POLYLINE
  8
0
  6
CONTINUOUS
 66
     1
 40
0.000000
 41
0.000000
  0
VERTEX
  8
0
  6
CONTINUOUS
 10
4.284280
 20
2.532640
  0
VERTEX
  8
0
  6
CONTINUOUS
 10
4.706680
 20
2.532640
  0
VERTEX
  8
0
  6
CONTINUOUS
 10
4.706680
 20
2.533960
  0
VERTEX
  8
0
  6
CONTINUOUS
 10
4.703600
 20
2.544520
  0
VERTEX
  8
0
  6
CONTINUOUS
 10
4.700080
 20
2.557280
  0
VERTEX
  8
0
  6
CONTINUOUS
 10
4.691280
 20
2.586760
  0
VERTEX
  8
0
  6
CONTINUOUS
 10
4.677640
 20
2.621080
  0
VERTEX
  8
0
  6
CONTINUOUS
 10
4.657400
 20
2.657160
  0
VERTEX
  8
0
  6
CONTINUOUS
 10
4.627920
 20
2.693240
  0
VERTEX
  8
0
  6
CONTINUOUS
 10
4.587000
 20
2.726680
  0
VERTEX
  8
0
  6
CONTINUOUS
 10
4.561040
 20
2.742080
  0
VERTEX
  8
0
  6
CONTINUOUS
 10
4.531560
 20
2.755720
  0
VERTEX
  8
0
  6
CONTINUOUS
 10
4.498120
 20
2.768040
  0
VERTEX
  8
0
  6
CONTINUOUS
 10
4.460280
 20
2.778160
  0
VERTEX
  8
0
  6
CONTINUOUS
 10
4.460280
 20
2.883320
  0
VERTEX
  8
0
  6
CONTINUOUS
 10
4.458960
 20
2.884640
  0
VERTEX
  8
0
  6
CONTINUOUS
 10
5.283960
 20
2.884640
  0
VERTEX
  8
0
  6
CONTINUOUS
 10
5.283960
 20
2.130040
  0
VERTEX
  8
0
  6
CONTINUOUS
 10
4.706680
 20
2.130040
  0
VERTEX
  8
0
  6
CONTINUOUS
 10
4.706680
 20
2.272600
  0
VERTEX
  8
0
  6
CONTINUOUS
 10
4.277240
 20
2.272600
  0
VERTEX
  8
0
  6
CONTINUOUS
 10
4.277240
 20
2.532640
  0
VERTEX
  8
0
  6
CONTINUOUS
 10
4.284280
 20
2.532640
  0
SEQEND
  8
0
  0
LINE
  8
0
  6
CONTINUOUS
 10
2.857800
 20
2.885960
 11
3.503280
 21
3.258640
  0
TEXT
  8
0
 10
3.871120
 20
1.892440
 40
0.138192
  1
BA  45A&B
 41
1.000000
  7
SN0
 71
     0
 72
     5
 11
4.700596
 21
1.892440
  0
TEXT
  8
0
 10
4.141720
 20
1.700600
 40
0.138192
  1
3/4"
 41
1.000000
  7
SN0
 71
     0
 72
     5
 11
4.431072
 21
1.700600
  0
ENDSEC
  0
EOF
