  0
SECTION
  2
HEADER
  9
$ACADVER
  1
AC1006
  9
$EXTMIN
 10
2.231680
 20
1.760440
  9
$EXTMAX
 10
6.219840
 20
4.661800
  9
$LTSCALE
 40
0.044000
  9
$PDMODE
 70
    35
  9
$PDSIZE
 40
0.035200
  0
ENDSEC
  0
SECTION
  2
TABLES
  0
TABLE
  2
LTYPE
 70
     9
  0
LTYPE
  2
CONTINUOUS
 70
    64
  3
Solid line
 72
    65
 73
     0
 40
0.000000
  0
LTYPE
  2
DASHED
 70
    64
  3
__ __ __ __ __ __ __ __ __ __ __ __ __ __ __
 72
    65
 73
     2
 40
0.000330
 49
0.000220
 49
-0.000110
  0
LTYPE
  2
HIDDEN
 70
    64
  3
 _ _ _ _ _ _ _ _ _ _ _ _ _ _ _ _ _ _ _ _ _ _
 72
    65
 73
     2
 40
0.000165
 49
0.000110
 49
-0.000055
  0
LTYPE
  2
CENTER
 70
    64
  3
____ _ ____ _ ____ _ ____ _ ____ _ ____ _ ____
 72
    65
 73
     4
 40
0.000880
 49
0.000550
 49
-0.000110
 49
0.000110
 49
-0.000110
  0
LTYPE
  2
PHANTOM
 70
    64
  3
_____ _ _ _____ _ _ _____ _ _ _____ _ _ ____
 72
    65
 73
     6
 40
0.001100
 49
0.000550
 49
-0.000110
 49
0.000110
 49
-0.000110
 49
0.000110
 49
-0.000110
  0
LTYPE
  2
DOT
 70
    64
  3
...............................................
 72
    65
 73
     2
 40
0.000110
 49
0.000000
 49
-0.000110
  0
LTYPE
  2
DASHDOT
 70
    64
  3
__ . __ . __ . __ . __ . __ . __ . __ . __ . __
 72
    65
 73
     4
 40
0.000440
 49
0.000220
 49
-0.000110
 49
0.000000
 49
-0.000110
  0
LTYPE
  2
BORDER
 70
    64
  3
__ __ . __ __ . __ __ . __ __ . __ __ . __ __
 72
    65
 73
     6
 40
0.000770
 49
0.000220
 49
-0.000110
 49
0.000220
 49
-0.000110
 49
0.000000
 49
-0.000110
  0
LTYPE
  2
DIVIDE
 70
    64
  3
__ . . __ . . __ . . __ . . __ . . __ . . __
 72
    65
 73
     6
 40
0.000550
 49
0.000220
 49
-0.000110
 49
0.000000
 49
-0.000110
 49
0.000000
 49
-0.000110
  0
LTYPE
  2
DOTDOT
 70
    64
  3
 . .  . .  . .  . .  . .  . . 
 72
    65
 73
     5
 40
0.000242
 49
-0.000110
 49
0.000000
 49
-0.000110
 49
0.000000
 49
-0.000110
  0
ENDTAB
  0
TABLE
  2
STYLE
 70
     2
  0
STYLE
 70
     0
  2
SN0
 40
0.000000
 41
0.000440
 50
0.000000
 71
     0
 42
0.000000
  3
ROMAND
  0
STYLE
 70
    68
  2
SV0
 40
0.000000
 41
0.000440
 50
0.000000
 71
     0
 42
0.000000
  3
ROMAND
  0
ENDTAB
  0
TABLE
  2
LAYER
 70
     3
  0
LAYER
  2
FOREGROUND
 70
    64
 62
     7
  6
CONTINUOUS
  0
LAYER
  2
BACKGROUND
 70
    65
 62
    -7
  6
CONTINUOUS
  0
LAYER
  2
0
 70
    64
 62
     7
  6
CONTINUOUS
  0
ENDTAB
  0
ENDSEC
  0
SECTION
  2
ENTITIES
  0
POLYLINE
  8
FOREGROUND
  6
CONTINUOUS
 66
     1
 40
0.000000
 41
0.000000
  0
VERTEX
  8
FOREGROUND
  6
CONTINUOUS
 10
0.000000
 20
6.422240
  0
VERTEX
  8
FOREGROUND
  6
CONTINUOUS
 10
8.499920
 20
6.422240
  0
VERTEX
  8
FOREGROUND
  6
CONTINUOUS
 10
8.499920
 20
-4.577760
  0
VERTEX
  8
FOREGROUND
  6
CONTINUOUS
 10
0.000000
 20
-4.577760
  0
VERTEX
  8
FOREGROUND
  6
CONTINUOUS
 10
0.000000
 20
6.422240
  0
SEQEND
  8
0
  0
POLYLINE
  8
FOREGROUND
  6
CONTINUOUS
 66
     1
 40
0.000000
 41
0.000000
  0
VERTEX
  8
FOREGROUND
  6
CONTINUOUS
 10
0.000000
 20
6.422240
  0
VERTEX
  8
FOREGROUND
  6
CONTINUOUS
 10
8.499920
 20
6.422240
  0
VERTEX
  8
FOREGROUND
  6
CONTINUOUS
 10
8.499920
 20
-4.577760
  0
VERTEX
  8
FOREGROUND
  6
CONTINUOUS
 10
0.000000
 20
-4.577760
  0
VERTEX
  8
FOREGROUND
  6
CONTINUOUS
 10
0.000000
 20
6.422240
  0
SEQEND
  8
0
  0
POLYLINE
  8
0
  6
CONTINUOUS
 66
     1
 40
0.014080
 41
0.014080
  0
VERTEX
  8
0
  6
CONTINUOUS
 10
2.239160
 20
4.653880
  0
VERTEX
  8
0
  6
CONTINUOUS
 10
3.063280
 20
4.653880
  0
VERTEX
  8
0
  6
CONTINUOUS
 10
3.068120
 20
4.626160
  0
VERTEX
  8
0
  6
CONTINUOUS
 10
3.077800
 20
4.600200
  0
VERTEX
  8
0
  6
CONTINUOUS
 10
3.092320
 20
4.576880
  0
VERTEX
  8
0
  6
CONTINUOUS
 10
3.110800
 20
4.556200
  0
VERTEX
  8
0
  6
CONTINUOUS
 10
3.132800
 20
4.539040
  0
VERTEX
  8
0
  6
CONTINUOUS
 10
3.157880
 20
4.526280
  0
VERTEX
  8
0
  6
CONTINUOUS
 10
3.184720
 20
4.517920
  0
VERTEX
  8
0
  6
CONTINUOUS
 10
3.213760
 20
4.515280
  0
VERTEX
  8
0
  6
CONTINUOUS
 10
3.242360
 20
4.517920
  0
VERTEX
  8
0
  6
CONTINUOUS
 10
3.269200
 20
4.526280
  0
VERTEX
  8
0
  6
CONTINUOUS
 10
3.293400
 20
4.539040
  0
VERTEX
  8
0
  6
CONTINUOUS
 10
3.315400
 20
4.556200
  0
VERTEX
  8
0
  6
CONTINUOUS
 10
3.333880
 20
4.576880
  0
VERTEX
  8
0
  6
CONTINUOUS
 10
3.348400
 20
4.600200
  0
VERTEX
  8
0
  6
CONTINUOUS
 10
3.358080
 20
4.626160
  0
VERTEX
  8
0
  6
CONTINUOUS
 10
3.362920
 20
4.653880
  0
VERTEX
  8
0
  6
CONTINUOUS
 10
4.080560
 20
4.653880
  0
VERTEX
  8
0
  6
CONTINUOUS
 10
4.082320
 20
4.638480
  0
VERTEX
  8
0
  6
CONTINUOUS
 10
4.089800
 20
4.611640
  0
VERTEX
  8
0
  6
CONTINUOUS
 10
4.095080
 20
4.598880
  0
VERTEX
  8
0
  6
CONTINUOUS
 10
4.109600
 20
4.575120
  0
VERTEX
  8
0
  6
CONTINUOUS
 10
4.128080
 20
4.554880
  0
VERTEX
  8
0
  6
CONTINUOUS
 10
4.150080
 20
4.537720
  0
VERTEX
  8
0
  6
CONTINUOUS
 10
4.175160
 20
4.524960
  0
VERTEX
  8
0
  6
CONTINUOUS
 10
4.202000
 20
4.516600
  0
VERTEX
  8
0
  6
CONTINUOUS
 10
4.231040
 20
4.513960
  0
VERTEX
  8
0
  6
CONTINUOUS
 10
4.259640
 20
4.516600
  0
VERTEX
  8
0
  6
CONTINUOUS
 10
4.286480
 20
4.524960
  0
VERTEX
  8
0
  6
CONTINUOUS
 10
4.310680
 20
4.537720
  0
VERTEX
  8
0
  6
CONTINUOUS
 10
4.332680
 20
4.554880
  0
VERTEX
  8
0
  6
CONTINUOUS
 10
4.351160
 20
4.575120
  0
VERTEX
  8
0
  6
CONTINUOUS
 10
4.365680
 20
4.598880
  0
VERTEX
  8
0
  6
CONTINUOUS
 10
4.375800
 20
4.624840
  0
VERTEX
  8
0
  6
CONTINUOUS
 10
4.380640
 20
4.652560
  0
VERTEX
  8
0
  6
CONTINUOUS
 10
4.381960
 20
4.653880
  0
VERTEX
  8
0
  6
CONTINUOUS
 10
5.073640
 20
4.653880
  0
VERTEX
  8
0
  6
CONTINUOUS
 10
5.078480
 20
4.623960
  0
VERTEX
  8
0
  6
CONTINUOUS
 10
5.088160
 20
4.596240
  0
VERTEX
  8
0
  6
CONTINUOUS
 10
5.103120
 20
4.570720
  0
VERTEX
  8
0
  6
CONTINUOUS
 10
5.121600
 20
4.548720
  0
VERTEX
  8
0
  6
CONTINUOUS
 10
5.143600
 20
4.530240
  0
VERTEX
  8
0
  6
CONTINUOUS
 10
5.168680
 20
4.516600
  0
VERTEX
  8
0
  6
CONTINUOUS
 10
5.181880
 20
4.511320
  0
VERTEX
  8
0
  6
CONTINUOUS
 10
5.210040
 20
4.505600
  0
VERTEX
  8
0
  6
CONTINUOUS
 10
5.224560
 20
4.504720
  0
VERTEX
  8
0
  6
CONTINUOUS
 10
5.252720
 20
4.507800
  0
VERTEX
  8
0
  6
CONTINUOUS
 10
5.266360
 20
4.511320
  0
VERTEX
  8
0
  6
CONTINUOUS
 10
5.292320
 20
4.522760
  0
VERTEX
  8
0
  6
CONTINUOUS
 10
5.315640
 20
4.539040
  0
VERTEX
  8
0
  6
CONTINUOUS
 10
5.335880
 20
4.559280
  0
VERTEX
  8
0
  6
CONTINUOUS
 10
5.352160
 20
4.583040
  0
VERTEX
  8
0
  6
CONTINUOUS
 10
5.359200
 20
4.596240
  0
VERTEX
  8
0
  6
CONTINUOUS
 10
5.368880
 20
4.623960
  0
VERTEX
  8
0
  6
CONTINUOUS
 10
5.373720
 20
4.653880
  0
VERTEX
  8
0
  6
CONTINUOUS
 10
6.203120
 20
4.653880
  0
VERTEX
  8
0
  6
CONTINUOUS
 10
6.203120
 20
4.636720
  0
VERTEX
  8
0
  6
CONTINUOUS
 10
6.203120
 20
4.642000
  0
VERTEX
  8
0
  6
CONTINUOUS
 10
6.203120
 20
3.923480
  0
VERTEX
  8
0
  6
CONTINUOUS
 10
2.239160
 20
3.923480
  0
VERTEX
  8
0
  6
CONTINUOUS
 10
2.239160
 20
4.653880
  0
SEQEND
  8
0
  0
SOLID
  8
0
 62
    15
 10
4.276360
 20
2.827880
 11
4.271520
 21
3.574120
 12
4.303200
 22
2.835800
 13
4.298360
 23
3.582040
  0
POLYLINE
  8
0
  6
CONTINUOUS
 66
     1
 40
0.000000
 41
0.000000
  0
VERTEX
  8
0
  6
CONTINUOUS
 10
4.276360
 20
2.827880
  0
VERTEX
  8
0
  6
CONTINUOUS
 10
4.271520
 20
3.574120
  0
VERTEX
  8
0
  6
CONTINUOUS
 10
4.298360
 20
3.582040
  0
VERTEX
  8
0
  6
CONTINUOUS
 10
4.303200
 20
2.835800
  0
VERTEX
  8
0
  6
CONTINUOUS
 10
4.276360
 20
2.827880
  0
SEQEND
  8
0
  0
SOLID
  8
0
 62
    15
 10
3.080000
 20
2.965160
 11
3.075160
 21
3.710960
 12
3.084400
 22
2.937440
 13
3.080000
 23
3.683240
  0
POLYLINE
  8
0
  6
CONTINUOUS
 66
     1
 40
0.000000
 41
0.000000
  0
VERTEX
  8
0
  6
CONTINUOUS
 10
3.080000
 20
2.965160
  0
VERTEX
  8
0
  6
CONTINUOUS
 10
3.075160
 20
3.710960
  0
VERTEX
  8
0
  6
CONTINUOUS
 10
3.080000
 20
3.683240
  0
VERTEX
  8
0
  6
CONTINUOUS
 10
3.084400
 20
2.937440
  0
VERTEX
  8
0
  6
CONTINUOUS
 10
3.080000
 20
2.965160
  0
SEQEND
  8
0
  0
SOLID
  8
0
 62
    15
 10
3.084400
 20
2.937440
 11
3.080000
 21
3.683240
 12
3.094520
 22
2.911480
 13
3.090120
 23
3.657280
  0
POLYLINE
  8
0
  6
CONTINUOUS
 66
     1
 40
0.000000
 41
0.000000
  0
VERTEX
  8
0
  6
CONTINUOUS
 10
3.084400
 20
2.937440
  0
VERTEX
  8
0
  6
CONTINUOUS
 10
3.080000
 20
3.683240
  0
VERTEX
  8
0
  6
CONTINUOUS
 10
3.090120
 20
3.657280
  0
VERTEX
  8
0
  6
CONTINUOUS
 10
3.094520
 20
2.911480
  0
VERTEX
  8
0
  6
CONTINUOUS
 10
3.084400
 20
2.937440
  0
SEQEND
  8
0
  0
SOLID
  8
0
 62
    15
 10
3.094520
 20
2.911480
 11
3.090120
 21
3.657280
 12
3.109040
 22
2.887720
 13
3.104640
 23
3.633960
  0
POLYLINE
  8
0
  6
CONTINUOUS
 66
     1
 40
0.000000
 41
0.000000
  0
VERTEX
  8
0
  6
CONTINUOUS
 10
3.094520
 20
2.911480
  0
VERTEX
  8
0
  6
CONTINUOUS
 10
3.090120
 20
3.657280
  0
VERTEX
  8
0
  6
CONTINUOUS
 10
3.104640
 20
3.633960
  0
VERTEX
  8
0
  6
CONTINUOUS
 10
3.109040
 20
2.887720
  0
VERTEX
  8
0
  6
CONTINUOUS
 10
3.094520
 20
2.911480
  0
SEQEND
  8
0
  0
SOLID
  8
0
 62
    15
 10
3.109040
 20
2.887720
 11
3.104640
 21
3.633960
 12
3.127520
 22
2.867040
 13
3.123120
 23
3.613280
  0
POLYLINE
  8
0
  6
CONTINUOUS
 66
     1
 40
0.000000
 41
0.000000
  0
VERTEX
  8
0
  6
CONTINUOUS
 10
3.109040
 20
2.887720
  0
VERTEX
  8
0
  6
CONTINUOUS
 10
3.104640
 20
3.633960
  0
VERTEX
  8
0
  6
CONTINUOUS
 10
3.123120
 20
3.613280
  0
VERTEX
  8
0
  6
CONTINUOUS
 10
3.127520
 20
2.867040
  0
VERTEX
  8
0
  6
CONTINUOUS
 10
3.109040
 20
2.887720
  0
SEQEND
  8
0
  0
SOLID
  8
0
 62
    15
 10
3.127520
 20
2.867040
 11
3.123120
 21
3.613280
 12
3.149520
 22
2.850320
 13
3.145120
 23
3.596120
  0
POLYLINE
  8
0
  6
CONTINUOUS
 66
     1
 40
0.000000
 41
0.000000
  0
VERTEX
  8
0
  6
CONTINUOUS
 10
3.127520
 20
2.867040
  0
VERTEX
  8
0
  6
CONTINUOUS
 10
3.123120
 20
3.613280
  0
VERTEX
  8
0
  6
CONTINUOUS
 10
3.145120
 20
3.596120
  0
VERTEX
  8
0
  6
CONTINUOUS
 10
3.149520
 20
2.850320
  0
VERTEX
  8
0
  6
CONTINUOUS
 10
3.127520
 20
2.867040
  0
SEQEND
  8
0
  0
SOLID
  8
0
 62
    15
 10
3.149520
 20
2.850320
 11
3.145120
 21
3.596120
 12
3.174600
 22
2.837560
 13
3.170200
 23
3.583360
  0
POLYLINE
  8
0
  6
CONTINUOUS
 66
     1
 40
0.000000
 41
0.000000
  0
VERTEX
  8
0
  6
CONTINUOUS
 10
3.149520
 20
2.850320
  0
VERTEX
  8
0
  6
CONTINUOUS
 10
3.145120
 20
3.596120
  0
VERTEX
  8
0
  6
CONTINUOUS
 10
3.170200
 20
3.583360
  0
VERTEX
  8
0
  6
CONTINUOUS
 10
3.174600
 20
2.837560
  0
VERTEX
  8
0
  6
CONTINUOUS
 10
3.149520
 20
2.850320
  0
SEQEND
  8
0
  0
SOLID
  8
0
 62
    15
 10
3.174600
 20
2.837560
 11
3.170200
 21
3.583360
 12
3.201440
 22
2.829200
 13
3.197040
 23
3.575440
  0
POLYLINE
  8
0
  6
CONTINUOUS
 66
     1
 40
0.000000
 41
0.000000
  0
VERTEX
  8
0
  6
CONTINUOUS
 10
3.174600
 20
2.837560
  0
VERTEX
  8
0
  6
CONTINUOUS
 10
3.170200
 20
3.583360
  0
VERTEX
  8
0
  6
CONTINUOUS
 10
3.197040
 20
3.575440
  0
VERTEX
  8
0
  6
CONTINUOUS
 10
3.201440
 20
2.829200
  0
VERTEX
  8
0
  6
CONTINUOUS
 10
3.174600
 20
2.837560
  0
SEQEND
  8
0
  0
SOLID
  8
0
 62
    15
 10
3.201440
 20
2.829200
 11
3.197040
 21
3.575440
 12
3.230480
 22
2.826560
 13
3.226080
 23
3.572360
  0
POLYLINE
  8
0
  6
CONTINUOUS
 66
     1
 40
0.000000
 41
0.000000
  0
VERTEX
  8
0
  6
CONTINUOUS
 10
3.201440
 20
2.829200
  0
VERTEX
  8
0
  6
CONTINUOUS
 10
3.197040
 20
3.575440
  0
VERTEX
  8
0
  6
CONTINUOUS
 10
3.226080
 20
3.572360
  0
VERTEX
  8
0
  6
CONTINUOUS
 10
3.230480
 20
2.826560
  0
VERTEX
  8
0
  6
CONTINUOUS
 10
3.201440
 20
2.829200
  0
SEQEND
  8
0
  0
SOLID
  8
0
 62
    15
 10
3.230480
 20
2.826560
 11
3.226080
 21
3.572360
 12
3.258640
 22
2.829200
 13
3.254240
 23
3.575440
  0
POLYLINE
  8
0
  6
CONTINUOUS
 66
     1
 40
0.000000
 41
0.000000
  0
VERTEX
  8
0
  6
CONTINUOUS
 10
3.230480
 20
2.826560
  0
VERTEX
  8
0
  6
CONTINUOUS
 10
3.226080
 20
3.572360
  0
VERTEX
  8
0
  6
CONTINUOUS
 10
3.254240
 20
3.575440
  0
VERTEX
  8
0
  6
CONTINUOUS
 10
3.258640
 20
2.829200
  0
VERTEX
  8
0
  6
CONTINUOUS
 10
3.230480
 20
2.826560
  0
SEQEND
  8
0
  0
SOLID
  8
0
 62
    15
 10
3.258640
 20
2.829200
 11
3.254240
 21
3.575440
 12
3.285480
 22
2.837560
 13
3.281080
 23
3.583360
  0
POLYLINE
  8
0
  6
CONTINUOUS
 66
     1
 40
0.000000
 41
0.000000
  0
VERTEX
  8
0
  6
CONTINUOUS
 10
3.258640
 20
2.829200
  0
VERTEX
  8
0
  6
CONTINUOUS
 10
3.254240
 20
3.575440
  0
VERTEX
  8
0
  6
CONTINUOUS
 10
3.281080
 20
3.583360
  0
VERTEX
  8
0
  6
CONTINUOUS
 10
3.285480
 20
2.837560
  0
VERTEX
  8
0
  6
CONTINUOUS
 10
3.258640
 20
2.829200
  0
SEQEND
  8
0
  0
SOLID
  8
0
 62
    15
 10
3.285480
 20
2.837560
 11
3.281080
 21
3.583360
 12
3.310120
 22
2.850320
 13
3.305720
 23
3.596120
  0
POLYLINE
  8
0
  6
CONTINUOUS
 66
     1
 40
0.000000
 41
0.000000
  0
VERTEX
  8
0
  6
CONTINUOUS
 10
3.285480
 20
2.837560
  0
VERTEX
  8
0
  6
CONTINUOUS
 10
3.281080
 20
3.583360
  0
VERTEX
  8
0
  6
CONTINUOUS
 10
3.305720
 20
3.596120
  0
VERTEX
  8
0
  6
CONTINUOUS
 10
3.310120
 20
2.850320
  0
VERTEX
  8
0
  6
CONTINUOUS
 10
3.285480
 20
2.837560
  0
SEQEND
  8
0
  0
SOLID
  8
0
 62
    15
 10
3.310120
 20
2.850320
 11
3.305720
 21
3.596120
 12
3.332120
 22
2.867040
 13
3.327720
 23
3.613280
  0
POLYLINE
  8
0
  6
CONTINUOUS
 66
     1
 40
0.000000
 41
0.000000
  0
VERTEX
  8
0
  6
CONTINUOUS
 10
3.310120
 20
2.850320
  0
VERTEX
  8
0
  6
CONTINUOUS
 10
3.305720
 20
3.596120
  0
VERTEX
  8
0
  6
CONTINUOUS
 10
3.327720
 20
3.613280
  0
VERTEX
  8
0
  6
CONTINUOUS
 10
3.332120
 20
2.867040
  0
VERTEX
  8
0
  6
CONTINUOUS
 10
3.310120
 20
2.850320
  0
SEQEND
  8
0
  0
SOLID
  8
0
 62
    15
 10
3.332120
 20
2.867040
 11
3.327720
 21
3.613280
 12
3.350600
 22
2.887720
 13
3.346200
 23
3.633960
  0
POLYLINE
  8
0
  6
CONTINUOUS
 66
     1
 40
0.000000
 41
0.000000
  0
VERTEX
  8
0
  6
CONTINUOUS
 10
3.332120
 20
2.867040
  0
VERTEX
  8
0
  6
CONTINUOUS
 10
3.327720
 20
3.613280
  0
VERTEX
  8
0
  6
CONTINUOUS
 10
3.346200
 20
3.633960
  0
VERTEX
  8
0
  6
CONTINUOUS
 10
3.350600
 20
2.887720
  0
VERTEX
  8
0
  6
CONTINUOUS
 10
3.332120
 20
2.867040
  0
SEQEND
  8
0
  0
SOLID
  8
0
 62
    15
 10
3.350600
 20
2.887720
 11
3.346200
 21
3.633960
 12
3.365120
 22
2.911480
 13
3.360720
 23
3.657280
  0
POLYLINE
  8
0
  6
CONTINUOUS
 66
     1
 40
0.000000
 41
0.000000
  0
VERTEX
  8
0
  6
CONTINUOUS
 10
3.350600
 20
2.887720
  0
VERTEX
  8
0
  6
CONTINUOUS
 10
3.346200
 20
3.633960
  0
VERTEX
  8
0
  6
CONTINUOUS
 10
3.360720
 20
3.657280
  0
VERTEX
  8
0
  6
CONTINUOUS
 10
3.365120
 20
2.911480
  0
VERTEX
  8
0
  6
CONTINUOUS
 10
3.350600
 20
2.887720
  0
SEQEND
  8
0
  0
SOLID
  8
0
 62
    15
 10
3.365120
 20
2.911480
 11
3.360720
 21
3.657280
 12
3.375240
 22
2.937440
 13
3.370400
 23
3.683240
  0
POLYLINE
  8
0
  6
CONTINUOUS
 66
     1
 40
0.000000
 41
0.000000
  0
VERTEX
  8
0
  6
CONTINUOUS
 10
3.365120
 20
2.911480
  0
VERTEX
  8
0
  6
CONTINUOUS
 10
3.360720
 20
3.657280
  0
VERTEX
  8
0
  6
CONTINUOUS
 10
3.370400
 20
3.683240
  0
VERTEX
  8
0
  6
CONTINUOUS
 10
3.375240
 20
2.937440
  0
VERTEX
  8
0
  6
CONTINUOUS
 10
3.365120
 20
2.911480
  0
SEQEND
  8
0
  0
SOLID
  8
0
 62
    15
 10
3.375240
 20
2.937440
 11
3.370400
 21
3.683240
 12
3.379640
 22
2.965160
 13
3.375240
 23
3.710960
  0
POLYLINE
  8
0
  6
CONTINUOUS
 66
     1
 40
0.000000
 41
0.000000
  0
VERTEX
  8
0
  6
CONTINUOUS
 10
3.375240
 20
2.937440
  0
VERTEX
  8
0
  6
CONTINUOUS
 10
3.370400
 20
3.683240
  0
VERTEX
  8
0
  6
CONTINUOUS
 10
3.375240
 20
3.710960
  0
VERTEX
  8
0
  6
CONTINUOUS
 10
3.379640
 20
2.965160
  0
VERTEX
  8
0
  6
CONTINUOUS
 10
3.375240
 20
2.937440
  0
SEQEND
  8
0
  0
SOLID
  8
0
 62
    15
 10
3.379640
 20
2.965160
 11
3.375240
 21
3.710960
 12
4.097280
 22
2.965160
 13
4.092440
 23
3.710960
  0
POLYLINE
  8
0
  6
CONTINUOUS
 66
     1
 40
0.000000
 41
0.000000
  0
VERTEX
  8
0
  6
CONTINUOUS
 10
3.379640
 20
2.965160
  0
VERTEX
  8
0
  6
CONTINUOUS
 10
3.375240
 20
3.710960
  0
VERTEX
  8
0
  6
CONTINUOUS
 10
4.092440
 20
3.710960
  0
VERTEX
  8
0
  6
CONTINUOUS
 10
4.097280
 20
2.965160
  0
VERTEX
  8
0
  6
CONTINUOUS
 10
3.379640
 20
2.965160
  0
SEQEND
  8
0
  0
SOLID
  8
0
 62
    15
 10
4.097280
 20
2.965160
 11
4.092440
 21
3.710960
 12
4.097280
 22
2.963840
 13
4.092880
 23
3.709640
  0
POLYLINE
  8
0
  6
CONTINUOUS
 66
     1
 40
0.000000
 41
0.000000
  0
VERTEX
  8
0
  6
CONTINUOUS
 10
4.097280
 20
2.965160
  0
VERTEX
  8
0
  6
CONTINUOUS
 10
4.092440
 20
3.710960
  0
VERTEX
  8
0
  6
CONTINUOUS
 10
4.092880
 20
3.709640
  0
VERTEX
  8
0
  6
CONTINUOUS
 10
4.097280
 20
2.963840
  0
VERTEX
  8
0
  6
CONTINUOUS
 10
4.097280
 20
2.965160
  0
SEQEND
  8
0
  0
SOLID
  8
0
 62
    15
 10
4.097280
 20
2.963840
 11
4.092880
 21
3.709640
 12
4.101680
 22
2.936120
 13
4.097280
 23
3.681920
  0
POLYLINE
  8
0
  6
CONTINUOUS
 66
     1
 40
0.000000
 41
0.000000
  0
VERTEX
  8
0
  6
CONTINUOUS
 10
4.097280
 20
2.963840
  0
VERTEX
  8
0
  6
CONTINUOUS
 10
4.092880
 20
3.709640
  0
VERTEX
  8
0
  6
CONTINUOUS
 10
4.097280
 20
3.681920
  0
VERTEX
  8
0
  6
CONTINUOUS
 10
4.101680
 20
2.936120
  0
VERTEX
  8
0
  6
CONTINUOUS
 10
4.097280
 20
2.963840
  0
SEQEND
  8
0
  0
SOLID
  8
0
 62
    15
 10
4.101680
 20
2.936120
 11
4.097280
 21
3.681920
 12
4.111800
 22
2.910160
 13
4.107400
 23
3.655960
  0
POLYLINE
  8
0
  6
CONTINUOUS
 66
     1
 40
0.000000
 41
0.000000
  0
VERTEX
  8
0
  6
CONTINUOUS
 10
4.101680
 20
2.936120
  0
VERTEX
  8
0
  6
CONTINUOUS
 10
4.097280
 20
3.681920
  0
VERTEX
  8
0
  6
CONTINUOUS
 10
4.107400
 20
3.655960
  0
VERTEX
  8
0
  6
CONTINUOUS
 10
4.111800
 20
2.910160
  0
VERTEX
  8
0
  6
CONTINUOUS
 10
4.101680
 20
2.936120
  0
SEQEND
  8
0
  0
SOLID
  8
0
 62
    15
 10
4.111800
 20
2.910160
 11
4.107400
 21
3.655960
 12
4.126320
 22
2.886400
 13
4.121920
 23
3.632640
  0
POLYLINE
  8
0
  6
CONTINUOUS
 66
     1
 40
0.000000
 41
0.000000
  0
VERTEX
  8
0
  6
CONTINUOUS
 10
4.111800
 20
2.910160
  0
VERTEX
  8
0
  6
CONTINUOUS
 10
4.107400
 20
3.655960
  0
VERTEX
  8
0
  6
CONTINUOUS
 10
4.121920
 20
3.632640
  0
VERTEX
  8
0
  6
CONTINUOUS
 10
4.126320
 20
2.886400
  0
VERTEX
  8
0
  6
CONTINUOUS
 10
4.111800
 20
2.910160
  0
SEQEND
  8
0
  0
SOLID
  8
0
 62
    15
 10
4.126320
 20
2.886400
 11
4.121920
 21
3.632640
 12
4.144800
 22
2.865720
 13
4.140400
 23
3.611960
  0
POLYLINE
  8
0
  6
CONTINUOUS
 66
     1
 40
0.000000
 41
0.000000
  0
VERTEX
  8
0
  6
CONTINUOUS
 10
4.126320
 20
2.886400
  0
VERTEX
  8
0
  6
CONTINUOUS
 10
4.121920
 20
3.632640
  0
VERTEX
  8
0
  6
CONTINUOUS
 10
4.140400
 20
3.611960
  0
VERTEX
  8
0
  6
CONTINUOUS
 10
4.144800
 20
2.865720
  0
VERTEX
  8
0
  6
CONTINUOUS
 10
4.126320
 20
2.886400
  0
SEQEND
  8
0
  0
SOLID
  8
0
 62
    15
 10
4.144800
 20
2.865720
 11
4.140400
 21
3.611960
 12
4.166800
 22
2.849000
 13
4.162400
 23
3.594800
  0
POLYLINE
  8
0
  6
CONTINUOUS
 66
     1
 40
0.000000
 41
0.000000
  0
VERTEX
  8
0
  6
CONTINUOUS
 10
4.144800
 20
2.865720
  0
VERTEX
  8
0
  6
CONTINUOUS
 10
4.140400
 20
3.611960
  0
VERTEX
  8
0
  6
CONTINUOUS
 10
4.162400
 20
3.594800
  0
VERTEX
  8
0
  6
CONTINUOUS
 10
4.166800
 20
2.849000
  0
VERTEX
  8
0
  6
CONTINUOUS
 10
4.144800
 20
2.865720
  0
SEQEND
  8
0
  0
SOLID
  8
0
 62
    15
 10
4.166800
 20
2.849000
 11
4.162400
 21
3.594800
 12
4.191880
 22
2.835800
 13
4.187480
 23
3.582040
  0
POLYLINE
  8
0
  6
CONTINUOUS
 66
     1
 40
0.000000
 41
0.000000
  0
VERTEX
  8
0
  6
CONTINUOUS
 10
4.166800
 20
2.849000
  0
VERTEX
  8
0
  6
CONTINUOUS
 10
4.162400
 20
3.594800
  0
VERTEX
  8
0
  6
CONTINUOUS
 10
4.187480
 20
3.582040
  0
VERTEX
  8
0
  6
CONTINUOUS
 10
4.191880
 20
2.835800
  0
VERTEX
  8
0
  6
CONTINUOUS
 10
4.166800
 20
2.849000
  0
SEQEND
  8
0
  0
SOLID
  8
0
 62
    15
 10
4.191880
 20
2.835800
 11
4.187480
 21
3.582040
 12
4.218720
 22
2.827880
 13
4.214320
 23
3.574120
  0
POLYLINE
  8
0
  6
CONTINUOUS
 66
     1
 40
0.000000
 41
0.000000
  0
VERTEX
  8
0
  6
CONTINUOUS
 10
4.191880
 20
2.835800
  0
VERTEX
  8
0
  6
CONTINUOUS
 10
4.187480
 20
3.582040
  0
VERTEX
  8
0
  6
CONTINUOUS
 10
4.214320
 20
3.574120
  0
VERTEX
  8
0
  6
CONTINUOUS
 10
4.218720
 20
2.827880
  0
VERTEX
  8
0
  6
CONTINUOUS
 10
4.191880
 20
2.835800
  0
SEQEND
  8
0
  0
SOLID
  8
0
 62
    15
 10
4.218720
 20
2.827880
 11
4.214320
 21
3.574120
 12
4.247760
 22
2.825240
 13
4.243360
 23
3.571040
  0
POLYLINE
  8
0
  6
CONTINUOUS
 66
     1
 40
0.000000
 41
0.000000
  0
VERTEX
  8
0
  6
CONTINUOUS
 10
4.218720
 20
2.827880
  0
VERTEX
  8
0
  6
CONTINUOUS
 10
4.214320
 20
3.574120
  0
VERTEX
  8
0
  6
CONTINUOUS
 10
4.243360
 20
3.571040
  0
VERTEX
  8
0
  6
CONTINUOUS
 10
4.247760
 20
2.825240
  0
VERTEX
  8
0
  6
CONTINUOUS
 10
4.218720
 20
2.827880
  0
SEQEND
  8
0
  0
SOLID
  8
0
 62
    15
 10
4.247760
 20
2.825240
 11
4.243360
 21
3.571040
 12
4.276360
 22
2.827880
 13
4.271520
 23
3.574120
  0
POLYLINE
  8
0
  6
CONTINUOUS
 66
     1
 40
0.000000
 41
0.000000
  0
VERTEX
  8
0
  6
CONTINUOUS
 10
4.247760
 20
2.825240
  0
VERTEX
  8
0
  6
CONTINUOUS
 10
4.243360
 20
3.571040
  0
VERTEX
  8
0
  6
CONTINUOUS
 10
4.271520
 20
3.574120
  0
VERTEX
  8
0
  6
CONTINUOUS
 10
4.276360
 20
2.827880
  0
VERTEX
  8
0
  6
CONTINUOUS
 10
4.247760
 20
2.825240
  0
SEQEND
  8
0
  0
SOLID
  8
0
 62
    15
 10
2.255880
 20
2.952840
 11
2.251480
 21
3.699080
 12
2.255880
 22
2.965160
 13
2.251480
 23
3.710960
  0
POLYLINE
  8
0
  6
CONTINUOUS
 66
     1
 40
0.000000
 41
0.000000
  0
VERTEX
  8
0
  6
CONTINUOUS
 10
2.255880
 20
2.952840
  0
VERTEX
  8
0
  6
CONTINUOUS
 10
2.251480
 20
3.699080
  0
VERTEX
  8
0
  6
CONTINUOUS
 10
2.251480
 20
3.710960
  0
VERTEX
  8
0
  6
CONTINUOUS
 10
2.255880
 20
2.965160
  0
VERTEX
  8
0
  6
CONTINUOUS
 10
2.255880
 20
2.952840
  0
SEQEND
  8
0
  0
SOLID
  8
0
 62
    15
 10
4.303200
 20
2.835800
 11
4.298360
 21
3.582040
 12
4.327400
 22
2.849000
 13
4.323000
 23
3.594800
  0
POLYLINE
  8
0
  6
CONTINUOUS
 66
     1
 40
0.000000
 41
0.000000
  0
VERTEX
  8
0
  6
CONTINUOUS
 10
4.303200
 20
2.835800
  0
VERTEX
  8
0
  6
CONTINUOUS
 10
4.298360
 20
3.582040
  0
VERTEX
  8
0
  6
CONTINUOUS
 10
4.323000
 20
3.594800
  0
VERTEX
  8
0
  6
CONTINUOUS
 10
4.327400
 20
2.849000
  0
VERTEX
  8
0
  6
CONTINUOUS
 10
4.303200
 20
2.835800
  0
SEQEND
  8
0
  0
SOLID
  8
0
 62
    15
 10
4.327400
 20
2.849000
 11
4.323000
 21
3.594800
 12
4.349400
 22
2.865720
 13
4.345000
 23
3.611960
  0
POLYLINE
  8
0
  6
CONTINUOUS
 66
     1
 40
0.000000
 41
0.000000
  0
VERTEX
  8
0
  6
CONTINUOUS
 10
4.327400
 20
2.849000
  0
VERTEX
  8
0
  6
CONTINUOUS
 10
4.323000
 20
3.594800
  0
VERTEX
  8
0
  6
CONTINUOUS
 10
4.345000
 20
3.611960
  0
VERTEX
  8
0
  6
CONTINUOUS
 10
4.349400
 20
2.865720
  0
VERTEX
  8
0
  6
CONTINUOUS
 10
4.327400
 20
2.849000
  0
SEQEND
  8
0
  0
SOLID
  8
0
 62
    15
 10
4.349400
 20
2.865720
 11
4.345000
 21
3.611960
 12
4.367880
 22
2.886400
 13
4.363480
 23
3.632640
  0
POLYLINE
  8
0
  6
CONTINUOUS
 66
     1
 40
0.000000
 41
0.000000
  0
VERTEX
  8
0
  6
CONTINUOUS
 10
4.349400
 20
2.865720
  0
VERTEX
  8
0
  6
CONTINUOUS
 10
4.345000
 20
3.611960
  0
VERTEX
  8
0
  6
CONTINUOUS
 10
4.363480
 20
3.632640
  0
VERTEX
  8
0
  6
CONTINUOUS
 10
4.367880
 20
2.886400
  0
VERTEX
  8
0
  6
CONTINUOUS
 10
4.349400
 20
2.865720
  0
SEQEND
  8
0
  0
SOLID
  8
0
 62
    15
 10
4.367880
 20
2.886400
 11
4.363480
 21
3.632640
 12
4.382400
 22
2.910160
 13
4.378000
 23
3.655960
  0
POLYLINE
  8
0
  6
CONTINUOUS
 66
     1
 40
0.000000
 41
0.000000
  0
VERTEX
  8
0
  6
CONTINUOUS
 10
4.367880
 20
2.886400
  0
VERTEX
  8
0
  6
CONTINUOUS
 10
4.363480
 20
3.632640
  0
VERTEX
  8
0
  6
CONTINUOUS
 10
4.378000
 20
3.655960
  0
VERTEX
  8
0
  6
CONTINUOUS
 10
4.382400
 20
2.910160
  0
VERTEX
  8
0
  6
CONTINUOUS
 10
4.367880
 20
2.886400
  0
SEQEND
  8
0
  0
SOLID
  8
0
 62
    15
 10
4.382400
 20
2.910160
 11
4.378000
 21
3.655960
 12
4.392520
 22
2.936120
 13
4.388120
 23
3.681920
  0
POLYLINE
  8
0
  6
CONTINUOUS
 66
     1
 40
0.000000
 41
0.000000
  0
VERTEX
  8
0
  6
CONTINUOUS
 10
4.382400
 20
2.910160
  0
VERTEX
  8
0
  6
CONTINUOUS
 10
4.378000
 20
3.655960
  0
VERTEX
  8
0
  6
CONTINUOUS
 10
4.388120
 20
3.681920
  0
VERTEX
  8
0
  6
CONTINUOUS
 10
4.392520
 20
2.936120
  0
VERTEX
  8
0
  6
CONTINUOUS
 10
4.382400
 20
2.910160
  0
SEQEND
  8
0
  0
SOLID
  8
0
 62
    15
 10
4.392520
 20
2.936120
 11
4.388120
 21
3.681920
 12
4.396920
 22
2.963840
 13
4.392520
 23
3.709640
  0
POLYLINE
  8
0
  6
CONTINUOUS
 66
     1
 40
0.000000
 41
0.000000
  0
VERTEX
  8
0
  6
CONTINUOUS
 10
4.392520
 20
2.936120
  0
VERTEX
  8
0
  6
CONTINUOUS
 10
4.388120
 20
3.681920
  0
VERTEX
  8
0
  6
CONTINUOUS
 10
4.392520
 20
3.709640
  0
VERTEX
  8
0
  6
CONTINUOUS
 10
4.396920
 20
2.963840
  0
VERTEX
  8
0
  6
CONTINUOUS
 10
4.392520
 20
2.936120
  0
SEQEND
  8
0
  0
SOLID
  8
0
 62
    15
 10
4.396920
 20
2.963840
 11
4.392520
 21
3.709640
 12
4.398680
 22
2.965160
 13
4.393840
 23
3.710960
  0
POLYLINE
  8
0
  6
CONTINUOUS
 66
     1
 40
0.000000
 41
0.000000
  0
VERTEX
  8
0
  6
CONTINUOUS
 10
4.396920
 20
2.963840
  0
VERTEX
  8
0
  6
CONTINUOUS
 10
4.392520
 20
3.709640
  0
VERTEX
  8
0
  6
CONTINUOUS
 10
4.393840
 20
3.710960
  0
VERTEX
  8
0
  6
CONTINUOUS
 10
4.398680
 20
2.965160
  0
VERTEX
  8
0
  6
CONTINUOUS
 10
4.396920
 20
2.963840
  0
SEQEND
  8
0
  0
SOLID
  8
0
 62
    15
 10
5.095200
 20
2.935240
 11
5.090800
 21
3.681040
 12
5.105320
 22
2.907080
 13
5.100920
 23
3.653320
  0
POLYLINE
  8
0
  6
CONTINUOUS
 66
     1
 40
0.000000
 41
0.000000
  0
VERTEX
  8
0
  6
CONTINUOUS
 10
5.095200
 20
2.935240
  0
VERTEX
  8
0
  6
CONTINUOUS
 10
5.090800
 20
3.681040
  0
VERTEX
  8
0
  6
CONTINUOUS
 10
5.100920
 20
3.653320
  0
VERTEX
  8
0
  6
CONTINUOUS
 10
5.105320
 20
2.907080
  0
VERTEX
  8
0
  6
CONTINUOUS
 10
5.095200
 20
2.935240
  0
SEQEND
  8
0
  0
SOLID
  8
0
 62
    15
 10
5.090360
 20
2.965160
 11
5.085960
 21
3.710960
 12
5.095200
 22
2.935240
 13
5.090800
 23
3.681040
  0
POLYLINE
  8
0
  6
CONTINUOUS
 66
     1
 40
0.000000
 41
0.000000
  0
VERTEX
  8
0
  6
CONTINUOUS
 10
5.090360
 20
2.965160
  0
VERTEX
  8
0
  6
CONTINUOUS
 10
5.085960
 20
3.710960
  0
VERTEX
  8
0
  6
CONTINUOUS
 10
5.090800
 20
3.681040
  0
VERTEX
  8
0
  6
CONTINUOUS
 10
5.095200
 20
2.935240
  0
VERTEX
  8
0
  6
CONTINUOUS
 10
5.090360
 20
2.965160
  0
SEQEND
  8
0
  0
SOLID
  8
0
 62
    15
 10
4.398680
 20
2.965160
 11
4.393840
 21
3.710960
 12
5.090360
 22
2.965160
 13
5.085960
 23
3.710960
  0
POLYLINE
  8
0
  6
CONTINUOUS
 66
     1
 40
0.000000
 41
0.000000
  0
VERTEX
  8
0
  6
CONTINUOUS
 10
4.398680
 20
2.965160
  0
VERTEX
  8
0
  6
CONTINUOUS
 10
4.393840
 20
3.710960
  0
VERTEX
  8
0
  6
CONTINUOUS
 10
5.085960
 20
3.710960
  0
VERTEX
  8
0
  6
CONTINUOUS
 10
5.090360
 20
2.965160
  0
VERTEX
  8
0
  6
CONTINUOUS
 10
4.398680
 20
2.965160
  0
SEQEND
  8
0
  0
SOLID
  8
0
 62
    15
 10
5.105320
 20
2.907080
 11
5.100920
 21
3.653320
 12
5.119840
 22
2.882000
 13
5.115440
 23
3.627800
  0
POLYLINE
  8
0
  6
CONTINUOUS
 66
     1
 40
0.000000
 41
0.000000
  0
VERTEX
  8
0
  6
CONTINUOUS
 10
5.105320
 20
2.907080
  0
VERTEX
  8
0
  6
CONTINUOUS
 10
5.100920
 20
3.653320
  0
VERTEX
  8
0
  6
CONTINUOUS
 10
5.115440
 20
3.627800
  0
VERTEX
  8
0
  6
CONTINUOUS
 10
5.119840
 20
2.882000
  0
VERTEX
  8
0
  6
CONTINUOUS
 10
5.105320
 20
2.907080
  0
SEQEND
  8
0
  0
SOLID
  8
0
 62
    15
 10
5.119840
 20
2.882000
 11
5.115440
 21
3.627800
 12
5.138320
 22
2.859560
 13
5.133920
 23
3.605800
  0
POLYLINE
  8
0
  6
CONTINUOUS
 66
     1
 40
0.000000
 41
0.000000
  0
VERTEX
  8
0
  6
CONTINUOUS
 10
5.119840
 20
2.882000
  0
VERTEX
  8
0
  6
CONTINUOUS
 10
5.115440
 20
3.627800
  0
VERTEX
  8
0
  6
CONTINUOUS
 10
5.133920
 20
3.605800
  0
VERTEX
  8
0
  6
CONTINUOUS
 10
5.138320
 20
2.859560
  0
VERTEX
  8
0
  6
CONTINUOUS
 10
5.119840
 20
2.882000
  0
SEQEND
  8
0
  0
SOLID
  8
0
 62
    15
 10
5.138320
 20
2.859560
 11
5.133920
 21
3.605800
 12
5.160320
 22
2.841520
 13
5.155920
 23
3.587320
  0
POLYLINE
  8
0
  6
CONTINUOUS
 66
     1
 40
0.000000
 41
0.000000
  0
VERTEX
  8
0
  6
CONTINUOUS
 10
5.138320
 20
2.859560
  0
VERTEX
  8
0
  6
CONTINUOUS
 10
5.133920
 20
3.605800
  0
VERTEX
  8
0
  6
CONTINUOUS
 10
5.155920
 20
3.587320
  0
VERTEX
  8
0
  6
CONTINUOUS
 10
5.160320
 20
2.841520
  0
VERTEX
  8
0
  6
CONTINUOUS
 10
5.138320
 20
2.859560
  0
SEQEND
  8
0
  0
SOLID
  8
0
 62
    15
 10
5.160320
 20
2.841520
 11
5.155920
 21
3.587320
 12
5.184960
 22
2.827440
 13
5.180560
 23
3.573680
  0
POLYLINE
  8
0
  6
CONTINUOUS
 66
     1
 40
0.000000
 41
0.000000
  0
VERTEX
  8
0
  6
CONTINUOUS
 10
5.160320
 20
2.841520
  0
VERTEX
  8
0
  6
CONTINUOUS
 10
5.155920
 20
3.587320
  0
VERTEX
  8
0
  6
CONTINUOUS
 10
5.180560
 20
3.573680
  0
VERTEX
  8
0
  6
CONTINUOUS
 10
5.184960
 20
2.827440
  0
VERTEX
  8
0
  6
CONTINUOUS
 10
5.160320
 20
2.841520
  0
SEQEND
  8
0
  0
SOLID
  8
0
 62
    15
 10
5.184960
 20
2.827440
 11
5.180560
 21
3.573680
 12
5.212240
 22
2.818640
 13
5.207840
 23
3.564880
  0
POLYLINE
  8
0
  6
CONTINUOUS
 66
     1
 40
0.000000
 41
0.000000
  0
VERTEX
  8
0
  6
CONTINUOUS
 10
5.184960
 20
2.827440
  0
VERTEX
  8
0
  6
CONTINUOUS
 10
5.180560
 20
3.573680
  0
VERTEX
  8
0
  6
CONTINUOUS
 10
5.207840
 20
3.564880
  0
VERTEX
  8
0
  6
CONTINUOUS
 10
5.212240
 20
2.818640
  0
VERTEX
  8
0
  6
CONTINUOUS
 10
5.184960
 20
2.827440
  0
SEQEND
  8
0
  0
SOLID
  8
0
 62
    15
 10
5.212240
 20
2.818640
 11
5.207840
 21
3.564880
 12
5.241280
 22
2.815560
 13
5.236440
 23
3.561800
  0
POLYLINE
  8
0
  6
CONTINUOUS
 66
     1
 40
0.000000
 41
0.000000
  0
VERTEX
  8
0
  6
CONTINUOUS
 10
5.212240
 20
2.818640
  0
VERTEX
  8
0
  6
CONTINUOUS
 10
5.207840
 20
3.564880
  0
VERTEX
  8
0
  6
CONTINUOUS
 10
5.236440
 20
3.561800
  0
VERTEX
  8
0
  6
CONTINUOUS
 10
5.241280
 20
2.815560
  0
VERTEX
  8
0
  6
CONTINUOUS
 10
5.212240
 20
2.818640
  0
SEQEND
  8
0
  0
SOLID
  8
0
 62
    15
 10
5.241280
 20
2.815560
 11
5.236440
 21
3.561800
 12
5.269440
 22
2.818640
 13
5.265040
 23
3.564880
  0
POLYLINE
  8
0
  6
CONTINUOUS
 66
     1
 40
0.000000
 41
0.000000
  0
VERTEX
  8
0
  6
CONTINUOUS
 10
5.241280
 20
2.815560
  0
VERTEX
  8
0
  6
CONTINUOUS
 10
5.236440
 20
3.561800
  0
VERTEX
  8
0
  6
CONTINUOUS
 10
5.265040
 20
3.564880
  0
VERTEX
  8
0
  6
CONTINUOUS
 10
5.269440
 20
2.818640
  0
VERTEX
  8
0
  6
CONTINUOUS
 10
5.241280
 20
2.815560
  0
SEQEND
  8
0
  0
SOLID
  8
0
 62
    15
 10
5.269440
 20
2.818640
 11
5.265040
 21
3.564880
 12
5.296280
 22
2.827440
 13
5.291880
 23
3.573680
  0
POLYLINE
  8
0
  6
CONTINUOUS
 66
     1
 40
0.000000
 41
0.000000
  0
VERTEX
  8
0
  6
CONTINUOUS
 10
5.269440
 20
2.818640
  0
VERTEX
  8
0
  6
CONTINUOUS
 10
5.265040
 20
3.564880
  0
VERTEX
  8
0
  6
CONTINUOUS
 10
5.291880
 20
3.573680
  0
VERTEX
  8
0
  6
CONTINUOUS
 10
5.296280
 20
2.827440
  0
VERTEX
  8
0
  6
CONTINUOUS
 10
5.269440
 20
2.818640
  0
SEQEND
  8
0
  0
SOLID
  8
0
 62
    15
 10
5.296280
 20
2.827440
 11
5.291880
 21
3.573680
 12
5.320920
 22
2.841520
 13
5.316520
 23
3.587320
  0
POLYLINE
  8
0
  6
CONTINUOUS
 66
     1
 40
0.000000
 41
0.000000
  0
VERTEX
  8
0
  6
CONTINUOUS
 10
5.296280
 20
2.827440
  0
VERTEX
  8
0
  6
CONTINUOUS
 10
5.291880
 20
3.573680
  0
VERTEX
  8
0
  6
CONTINUOUS
 10
5.316520
 20
3.587320
  0
VERTEX
  8
0
  6
CONTINUOUS
 10
5.320920
 20
2.841520
  0
VERTEX
  8
0
  6
CONTINUOUS
 10
5.296280
 20
2.827440
  0
SEQEND
  8
0
  0
SOLID
  8
0
 62
    15
 10
5.320920
 20
2.841520
 11
5.316520
 21
3.587320
 12
5.342920
 22
2.859560
 13
5.338520
 23
3.605800
  0
POLYLINE
  8
0
  6
CONTINUOUS
 66
     1
 40
0.000000
 41
0.000000
  0
VERTEX
  8
0
  6
CONTINUOUS
 10
5.320920
 20
2.841520
  0
VERTEX
  8
0
  6
CONTINUOUS
 10
5.316520
 20
3.587320
  0
VERTEX
  8
0
  6
CONTINUOUS
 10
5.338520
 20
3.605800
  0
VERTEX
  8
0
  6
CONTINUOUS
 10
5.342920
 20
2.859560
  0
VERTEX
  8
0
  6
CONTINUOUS
 10
5.320920
 20
2.841520
  0
SEQEND
  8
0
  0
SOLID
  8
0
 62
    15
 10
5.342920
 20
2.859560
 11
5.338520
 21
3.605800
 12
5.361400
 22
2.882000
 13
5.357000
 23
3.627800
  0
POLYLINE
  8
0
  6
CONTINUOUS
 66
     1
 40
0.000000
 41
0.000000
  0
VERTEX
  8
0
  6
CONTINUOUS
 10
5.342920
 20
2.859560
  0
VERTEX
  8
0
  6
CONTINUOUS
 10
5.338520
 20
3.605800
  0
VERTEX
  8
0
  6
CONTINUOUS
 10
5.357000
 20
3.627800
  0
VERTEX
  8
0
  6
CONTINUOUS
 10
5.361400
 20
2.882000
  0
VERTEX
  8
0
  6
CONTINUOUS
 10
5.342920
 20
2.859560
  0
SEQEND
  8
0
  0
SOLID
  8
0
 62
    15
 10
5.361400
 20
2.882000
 11
5.357000
 21
3.627800
 12
5.375920
 22
2.907080
 13
5.371080
 23
3.653320
  0
POLYLINE
  8
0
  6
CONTINUOUS
 66
     1
 40
0.000000
 41
0.000000
  0
VERTEX
  8
0
  6
CONTINUOUS
 10
5.361400
 20
2.882000
  0
VERTEX
  8
0
  6
CONTINUOUS
 10
5.357000
 20
3.627800
  0
VERTEX
  8
0
  6
CONTINUOUS
 10
5.371080
 20
3.653320
  0
VERTEX
  8
0
  6
CONTINUOUS
 10
5.375920
 20
2.907080
  0
VERTEX
  8
0
  6
CONTINUOUS
 10
5.361400
 20
2.882000
  0
SEQEND
  8
0
  0
SOLID
  8
0
 62
    15
 10
5.375920
 20
2.907080
 11
5.371080
 21
3.653320
 12
5.385600
 22
2.935240
 13
5.381200
 23
3.681040
  0
POLYLINE
  8
0
  6
CONTINUOUS
 66
     1
 40
0.000000
 41
0.000000
  0
VERTEX
  8
0
  6
CONTINUOUS
 10
5.375920
 20
2.907080
  0
VERTEX
  8
0
  6
CONTINUOUS
 10
5.371080
 20
3.653320
  0
VERTEX
  8
0
  6
CONTINUOUS
 10
5.381200
 20
3.681040
  0
VERTEX
  8
0
  6
CONTINUOUS
 10
5.385600
 20
2.935240
  0
VERTEX
  8
0
  6
CONTINUOUS
 10
5.375920
 20
2.907080
  0
SEQEND
  8
0
  0
SOLID
  8
0
 62
    15
 10
5.385600
 20
2.935240
 11
5.381200
 21
3.681040
 12
5.390440
 22
2.965160
 13
5.386040
 23
3.710960
  0
POLYLINE
  8
0
  6
CONTINUOUS
 66
     1
 40
0.000000
 41
0.000000
  0
VERTEX
  8
0
  6
CONTINUOUS
 10
5.385600
 20
2.935240
  0
VERTEX
  8
0
  6
CONTINUOUS
 10
5.381200
 20
3.681040
  0
VERTEX
  8
0
  6
CONTINUOUS
 10
5.386040
 20
3.710960
  0
VERTEX
  8
0
  6
CONTINUOUS
 10
5.390440
 20
2.965160
  0
VERTEX
  8
0
  6
CONTINUOUS
 10
5.385600
 20
2.935240
  0
SEQEND
  8
0
  0
SOLID
  8
0
 62
    15
 10
5.390440
 20
2.965160
 11
5.386040
 21
3.710960
 12
6.219840
 22
2.965160
 13
6.215440
 23
3.710960
  0
POLYLINE
  8
0
  6
CONTINUOUS
 66
     1
 40
0.000000
 41
0.000000
  0
VERTEX
  8
0
  6
CONTINUOUS
 10
5.390440
 20
2.965160
  0
VERTEX
  8
0
  6
CONTINUOUS
 10
5.386040
 20
3.710960
  0
VERTEX
  8
0
  6
CONTINUOUS
 10
6.215440
 20
3.710960
  0
VERTEX
  8
0
  6
CONTINUOUS
 10
6.219840
 20
2.965160
  0
VERTEX
  8
0
  6
CONTINUOUS
 10
5.390440
 20
2.965160
  0
SEQEND
  8
0
  0
SOLID
  8
0
 62
    15
 10
2.255880
 20
2.234320
 11
2.251480
 21
2.980560
 12
2.255880
 22
2.952840
 13
2.251480
 23
3.699080
  0
POLYLINE
  8
0
  6
CONTINUOUS
 66
     1
 40
0.000000
 41
0.000000
  0
VERTEX
  8
0
  6
CONTINUOUS
 10
2.255880
 20
2.234320
  0
VERTEX
  8
0
  6
CONTINUOUS
 10
2.251480
 20
2.980560
  0
VERTEX
  8
0
  6
CONTINUOUS
 10
2.251480
 20
3.699080
  0
VERTEX
  8
0
  6
CONTINUOUS
 10
2.255880
 20
2.952840
  0
VERTEX
  8
0
  6
CONTINUOUS
 10
2.255880
 20
2.234320
  0
SEQEND
  8
0
  0
SOLID
  8
0
 62
    15
 10
2.255880
 20
2.965160
 11
2.251480
 21
3.710960
 12
3.080000
 22
2.965160
 13
3.075160
 23
3.710960
  0
POLYLINE
  8
0
  6
CONTINUOUS
 66
     1
 40
0.000000
 41
0.000000
  0
VERTEX
  8
0
  6
CONTINUOUS
 10
2.255880
 20
2.965160
  0
VERTEX
  8
0
  6
CONTINUOUS
 10
2.251480
 20
3.710960
  0
VERTEX
  8
0
  6
CONTINUOUS
 10
3.075160
 20
3.710960
  0
VERTEX
  8
0
  6
CONTINUOUS
 10
3.080000
 20
2.965160
  0
VERTEX
  8
0
  6
CONTINUOUS
 10
2.255880
 20
2.965160
  0
SEQEND
  8
0
  0
POLYLINE
  8
0
  6
CONTINUOUS
 66
     1
 40
0.000000
 41
0.000000
  0
VERTEX
  8
0
  6
CONTINUOUS
 10
2.255880
 20
2.965160
  0
VERTEX
  8
0
  6
CONTINUOUS
 10
3.080000
 20
2.965160
  0
VERTEX
  8
0
  6
CONTINUOUS
 10
3.084400
 20
2.937440
  0
VERTEX
  8
0
  6
CONTINUOUS
 10
3.094520
 20
2.911480
  0
VERTEX
  8
0
  6
CONTINUOUS
 10
3.109040
 20
2.887720
  0
VERTEX
  8
0
  6
CONTINUOUS
 10
3.127520
 20
2.867040
  0
VERTEX
  8
0
  6
CONTINUOUS
 10
3.149520
 20
2.850320
  0
VERTEX
  8
0
  6
CONTINUOUS
 10
3.174600
 20
2.837560
  0
VERTEX
  8
0
  6
CONTINUOUS
 10
3.201440
 20
2.829200
  0
VERTEX
  8
0
  6
CONTINUOUS
 10
3.230480
 20
2.826560
  0
VERTEX
  8
0
  6
CONTINUOUS
 10
3.258640
 20
2.829200
  0
VERTEX
  8
0
  6
CONTINUOUS
 10
3.285480
 20
2.837560
  0
VERTEX
  8
0
  6
CONTINUOUS
 10
3.310120
 20
2.850320
  0
VERTEX
  8
0
  6
CONTINUOUS
 10
3.332120
 20
2.867040
  0
VERTEX
  8
0
  6
CONTINUOUS
 10
3.350600
 20
2.887720
  0
VERTEX
  8
0
  6
CONTINUOUS
 10
3.365120
 20
2.911480
  0
VERTEX
  8
0
  6
CONTINUOUS
 10
3.375240
 20
2.937440
  0
VERTEX
  8
0
  6
CONTINUOUS
 10
3.379640
 20
2.965160
  0
VERTEX
  8
0
  6
CONTINUOUS
 10
4.097280
 20
2.965160
  0
VERTEX
  8
0
  6
CONTINUOUS
 10
4.101680
 20
2.936120
  0
VERTEX
  8
0
  6
CONTINUOUS
 10
4.111800
 20
2.910160
  0
VERTEX
  8
0
  6
CONTINUOUS
 10
4.126320
 20
2.886400
  0
VERTEX
  8
0
  6
CONTINUOUS
 10
4.144800
 20
2.865720
  0
VERTEX
  8
0
  6
CONTINUOUS
 10
4.166800
 20
2.849000
  0
VERTEX
  8
0
  6
CONTINUOUS
 10
4.191880
 20
2.835800
  0
VERTEX
  8
0
  6
CONTINUOUS
 10
4.218720
 20
2.827880
  0
VERTEX
  8
0
  6
CONTINUOUS
 10
4.247760
 20
2.825240
  0
VERTEX
  8
0
  6
CONTINUOUS
 10
4.276360
 20
2.827880
  0
VERTEX
  8
0
  6
CONTINUOUS
 10
4.303200
 20
2.835800
  0
VERTEX
  8
0
  6
CONTINUOUS
 10
4.327400
 20
2.849000
  0
VERTEX
  8
0
  6
CONTINUOUS
 10
4.349400
 20
2.865720
  0
VERTEX
  8
0
  6
CONTINUOUS
 10
4.367880
 20
2.886400
  0
VERTEX
  8
0
  6
CONTINUOUS
 10
4.382400
 20
2.910160
  0
VERTEX
  8
0
  6
CONTINUOUS
 10
4.392520
 20
2.936120
  0
VERTEX
  8
0
  6
CONTINUOUS
 10
4.396920
 20
2.963840
  0
VERTEX
  8
0
  6
CONTINUOUS
 10
4.398680
 20
2.965160
  0
VERTEX
  8
0
  6
CONTINUOUS
 10
5.090360
 20
2.965160
  0
VERTEX
  8
0
  6
CONTINUOUS
 10
5.095200
 20
2.935240
  0
VERTEX
  8
0
  6
CONTINUOUS
 10
5.105320
 20
2.907080
  0
VERTEX
  8
0
  6
CONTINUOUS
 10
5.119840
 20
2.882000
  0
VERTEX
  8
0
  6
CONTINUOUS
 10
5.138320
 20
2.859560
  0
VERTEX
  8
0
  6
CONTINUOUS
 10
5.160320
 20
2.841520
  0
VERTEX
  8
0
  6
CONTINUOUS
 10
5.184960
 20
2.827440
  0
VERTEX
  8
0
  6
CONTINUOUS
 10
5.212240
 20
2.818640
  0
VERTEX
  8
0
  6
CONTINUOUS
 10
5.241280
 20
2.815560
  0
VERTEX
  8
0
  6
CONTINUOUS
 10
5.269440
 20
2.818640
  0
VERTEX
  8
0
  6
CONTINUOUS
 10
5.296280
 20
2.827440
  0
VERTEX
  8
0
  6
CONTINUOUS
 10
5.320920
 20
2.841520
  0
VERTEX
  8
0
  6
CONTINUOUS
 10
5.342920
 20
2.859560
  0
VERTEX
  8
0
  6
CONTINUOUS
 10
5.361400
 20
2.882000
  0
VERTEX
  8
0
  6
CONTINUOUS
 10
5.375920
 20
2.907080
  0
VERTEX
  8
0
  6
CONTINUOUS
 10
5.385600
 20
2.935240
  0
VERTEX
  8
0
  6
CONTINUOUS
 10
5.390440
 20
2.965160
  0
VERTEX
  8
0
  6
CONTINUOUS
 10
6.219840
 20
2.965160
  0
VERTEX
  8
0
  6
CONTINUOUS
 10
6.219840
 20
2.234320
  0
VERTEX
  8
0
  6
CONTINUOUS
 10
2.255880
 20
2.234320
  0
VERTEX
  8
0
  6
CONTINUOUS
 10
2.255880
 20
2.965160
  0
SEQEND
  8
0
  0
TEXT
  8
0
 10
3.985080
 20
1.996280
 40
0.138195
  1
BA  42
 41
1.000000
  7
SN0
 71
     0
 72
     5
 11
4.482802
 21
1.996280
  0
TEXT
  8
0
 10
3.926120
 20
1.804440
 40
0.138195
  1
3/4" x 4"
 41
1.000000
  7
SN0
 71
     0
 72
     5
 11
4.540695
 21
1.804440
  0
ENDSEC
  0
EOF
