  0
SECTION
  2
HEADER
  9
$ACADVER
  1
AC1006
  9
$EXTMIN
 10
5.412000
 20
0.393360
  9
$EXTMAX
 10
8.026040
 20
2.209680
  9
$LTSCALE
 40
0.044000
  9
$PDMODE
 70
    35
  9
$PDSIZE
 40
0.035200
  0
ENDSEC
  0
SECTION
  2
TABLES
  0
TABLE
  2
LTYPE
 70
     9
  0
LTYPE
  2
CONTINUOUS
 70
    64
  3
Solid line
 72
    65
 73
     0
 40
0.000000
  0
LTYPE
  2
DASHED
 70
    64
  3
__ __ __ __ __ __ __ __ __ __ __ __ __ __ __
 72
    65
 73
     2
 40
0.000330
 49
0.000220
 49
-0.000110
  0
LTYPE
  2
HIDDEN
 70
    64
  3
 _ _ _ _ _ _ _ _ _ _ _ _ _ _ _ _ _ _ _ _ _ _
 72
    65
 73
     2
 40
0.000165
 49
0.000110
 49
-0.000055
  0
LTYPE
  2
CENTER
 70
    64
  3
____ _ ____ _ ____ _ ____ _ ____ _ ____ _ ____
 72
    65
 73
     4
 40
0.000880
 49
0.000550
 49
-0.000110
 49
0.000110
 49
-0.000110
  0
LTYPE
  2
PHANTOM
 70
    64
  3
_____ _ _ _____ _ _ _____ _ _ _____ _ _ ____
 72
    65
 73
     6
 40
0.001100
 49
0.000550
 49
-0.000110
 49
0.000110
 49
-0.000110
 49
0.000110
 49
-0.000110
  0
LTYPE
  2
DOT
 70
    64
  3
...............................................
 72
    65
 73
     2
 40
0.000110
 49
0.000000
 49
-0.000110
  0
LTYPE
  2
DASHDOT
 70
    64
  3
__ . __ . __ . __ . __ . __ . __ . __ . __ . __
 72
    65
 73
     4
 40
0.000440
 49
0.000220
 49
-0.000110
 49
0.000000
 49
-0.000110
  0
LTYPE
  2
BORDER
 70
    64
  3
__ __ . __ __ . __ __ . __ __ . __ __ . __ __
 72
    65
 73
     6
 40
0.000770
 49
0.000220
 49
-0.000110
 49
0.000220
 49
-0.000110
 49
0.000000
 49
-0.000110
  0
LTYPE
  2
DIVIDE
 70
    64
  3
__ . . __ . . __ . . __ . . __ . . __ . . __
 72
    65
 73
     6
 40
0.000550
 49
0.000220
 49
-0.000110
 49
0.000000
 49
-0.000110
 49
0.000000
 49
-0.000110
  0
LTYPE
  2
DOTDOT
 70
    64
  3
 . .  . .  . .  . .  . .  . . 
 72
    65
 73
     5
 40
0.000242
 49
-0.000110
 49
0.000000
 49
-0.000110
 49
0.000000
 49
-0.000110
  0
ENDTAB
  0
TABLE
  2
STYLE
 70
     2
  0
STYLE
 70
     0
  2
SN0
 40
0.000000
 41
0.000440
 50
0.000000
 71
     0
 42
0.000000
  3
ROMAND
  0
STYLE
 70
    68
  2
SV0
 40
0.000000
 41
0.000440
 50
0.000000
 71
     0
 42
0.000000
  3
ROMAND
  0
ENDTAB
  0
TABLE
  2
LAYER
 70
     3
  0
LAYER
  2
FOREGROUND
 70
    64
 62
     7
  6
CONTINUOUS
  0
LAYER
  2
BACKGROUND
 70
    65
 62
    -7
  6
CONTINUOUS
  0
LAYER
  2
0
 70
    64
 62
     7
  6
CONTINUOUS
  0
ENDTAB
  0
ENDSEC
  0
SECTION
  2
ENTITIES
  0
POLYLINE
  8
FOREGROUND
  6
CONTINUOUS
 66
     1
 40
0.000000
 41
0.000000
  0
VERTEX
  8
FOREGROUND
  6
CONTINUOUS
 10
0.000000
 20
2.603040
  0
VERTEX
  8
FOREGROUND
  6
CONTINUOUS
 10
8.499920
 20
2.603040
  0
VERTEX
  8
FOREGROUND
  6
CONTINUOUS
 10
8.499920
 20
-8.396960
  0
VERTEX
  8
FOREGROUND
  6
CONTINUOUS
 10
0.000000
 20
-8.396960
  0
VERTEX
  8
FOREGROUND
  6
CONTINUOUS
 10
0.000000
 20
2.603040
  0
SEQEND
  8
0
  0
POLYLINE
  8
FOREGROUND
  6
CONTINUOUS
 66
     1
 40
0.000000
 41
0.000000
  0
VERTEX
  8
FOREGROUND
  6
CONTINUOUS
 10
0.000000
 20
2.603040
  0
VERTEX
  8
FOREGROUND
  6
CONTINUOUS
 10
8.499920
 20
2.603040
  0
VERTEX
  8
FOREGROUND
  6
CONTINUOUS
 10
8.499920
 20
-8.396960
  0
VERTEX
  8
FOREGROUND
  6
CONTINUOUS
 10
0.000000
 20
-8.396960
  0
VERTEX
  8
FOREGROUND
  6
CONTINUOUS
 10
0.000000
 20
2.603040
  0
SEQEND
  8
0
  0
POLYLINE
  8
0
  6
CONTINUOUS
 66
     1
 40
0.014080
 41
0.014080
  0
VERTEX
  8
0
  6
CONTINUOUS
 10
7.179920
 20
1.593680
  0
VERTEX
  8
0
  6
CONTINUOUS
 10
7.281120
 20
1.593680
  0
VERTEX
  8
0
  6
CONTINUOUS
 10
7.281120
 20
1.757800
  0
VERTEX
  8
0
  6
CONTINUOUS
 10
7.279800
 20
1.760440
  0
VERTEX
  8
0
  6
CONTINUOUS
 10
7.244160
 20
1.762200
  0
VERTEX
  8
0
  6
CONTINUOUS
 10
7.197960
 20
1.768800
  0
VERTEX
  8
0
  6
CONTINUOUS
 10
7.159240
 20
1.779800
  0
VERTEX
  8
0
  6
CONTINUOUS
 10
7.128000
 20
1.794320
  0
VERTEX
  8
0
  6
CONTINUOUS
 10
7.102920
 20
1.811920
  0
VERTEX
  8
0
  6
CONTINUOUS
 10
7.089280
 20
1.825120
  0
VERTEX
  8
0
  6
CONTINUOUS
 10
7.077840
 20
1.839200
  0
VERTEX
  8
0
  6
CONTINUOUS
 10
7.068160
 20
1.854160
  0
VERTEX
  8
0
  6
CONTINUOUS
 10
7.054080
 20
1.885400
  0
VERTEX
  8
0
  6
CONTINUOUS
 10
7.044840
 20
1.917520
  0
VERTEX
  8
0
  6
CONTINUOUS
 10
7.038680
 20
1.949640
  0
VERTEX
  8
0
  6
CONTINUOUS
 10
6.857400
 20
1.949640
  0
VERTEX
  8
0
  6
CONTINUOUS
 10
6.856520
 20
1.975160
  0
VERTEX
  8
0
  6
CONTINUOUS
 10
6.854320
 20
1.990120
  0
VERTEX
  8
0
  6
CONTINUOUS
 10
6.845520
 20
2.018280
  0
VERTEX
  8
0
  6
CONTINUOUS
 10
6.831440
 20
2.043800
  0
VERTEX
  8
0
  6
CONTINUOUS
 10
6.812520
 20
2.065360
  0
VERTEX
  8
0
  6
CONTINUOUS
 10
6.790080
 20
2.082960
  0
VERTEX
  8
0
  6
CONTINUOUS
 10
6.763680
 20
2.096160
  0
VERTEX
  8
0
  6
CONTINUOUS
 10
6.735080
 20
2.104520
  0
VERTEX
  8
0
  6
CONTINUOUS
 10
6.703840
 20
2.107160
  0
VERTEX
  8
0
  6
CONTINUOUS
 10
6.672600
 20
2.104080
  0
VERTEX
  8
0
  6
CONTINUOUS
 10
6.643560
 20
2.094840
  0
VERTEX
  8
0
  6
CONTINUOUS
 10
6.617160
 20
2.080320
  0
VERTEX
  8
0
  6
CONTINUOUS
 10
6.593840
 20
2.061400
  0
VERTEX
  8
0
  6
CONTINUOUS
 10
6.574920
 20
2.038080
  0
VERTEX
  8
0
  6
CONTINUOUS
 10
6.560400
 20
2.011680
  0
VERTEX
  8
0
  6
CONTINUOUS
 10
6.551160
 20
1.982640
  0
VERTEX
  8
0
  6
CONTINUOUS
 10
6.548080
 20
1.951400
  0
VERTEX
  8
0
  6
CONTINUOUS
 10
6.548080
 20
1.593680
  0
VERTEX
  8
0
  6
CONTINUOUS
 10
7.183880
 20
1.593680
  0
VERTEX
  8
0
  6
CONTINUOUS
 10
7.179920
 20
1.593680
  0
SEQEND
  8
0
  0
TEXT
  8
0
 10
5.631560
 20
0.628320
 40
0.138026
  1
BA  39
 41
1.000000
  7
SN0
 71
     0
 72
     5
 11
6.129143
 21
0.628320
  0
TEXT
  8
0
 10
5.503520
 20
0.436920
 40
0.138026
  1
1/2" x 3/4"
 41
1.000000
  7
SN0
 71
     0
 72
     5
 11
6.256233
 21
0.436920
  0
SOLID
  8
0
 62
     7
 10
5.824280
 20
1.215720
 11
5.822960
 21
1.955360
 12
6.005560
 22
1.215720
 13
6.004240
 23
1.955360
  0
POLYLINE
  8
0
  6
CONTINUOUS
 66
     1
 40
0.000000
 41
0.000000
  0
VERTEX
  8
0
  6
CONTINUOUS
 10
5.824280
 20
1.215720
  0
VERTEX
  8
0
  6
CONTINUOUS
 10
5.822960
 20
1.955360
  0
VERTEX
  8
0
  6
CONTINUOUS
 10
6.004240
 20
1.955360
  0
VERTEX
  8
0
  6
CONTINUOUS
 10
6.005560
 20
1.215720
  0
VERTEX
  8
0
  6
CONTINUOUS
 10
5.824280
 20
1.215720
  0
SEQEND
  8
0
  0
SOLID
  8
0
 62
    15
 10
5.514960
 20
0.859760
 11
5.513640
 21
1.599400
 12
5.514960
 22
1.217040
 13
5.513640
 23
1.956680
  0
POLYLINE
  8
0
  6
CONTINUOUS
 66
     1
 40
0.000000
 41
0.000000
  0
VERTEX
  8
0
  6
CONTINUOUS
 10
5.514960
 20
0.859760
  0
VERTEX
  8
0
  6
CONTINUOUS
 10
5.513640
 20
1.599400
  0
VERTEX
  8
0
  6
CONTINUOUS
 10
5.513640
 20
1.956680
  0
VERTEX
  8
0
  6
CONTINUOUS
 10
5.514960
 20
1.217040
  0
VERTEX
  8
0
  6
CONTINUOUS
 10
5.514960
 20
0.859760
  0
SEQEND
  8
0
  0
SOLID
  8
0
 62
    15
 10
5.518040
 20
1.248280
 11
5.516720
 21
1.987920
 12
5.527280
 22
1.277320
 13
5.525960
 23
2.017400
  0
POLYLINE
  8
0
  6
CONTINUOUS
 66
     1
 40
0.000000
 41
0.000000
  0
VERTEX
  8
0
  6
CONTINUOUS
 10
5.518040
 20
1.248280
  0
VERTEX
  8
0
  6
CONTINUOUS
 10
5.516720
 20
1.987920
  0
VERTEX
  8
0
  6
CONTINUOUS
 10
5.525960
 20
2.017400
  0
VERTEX
  8
0
  6
CONTINUOUS
 10
5.527280
 20
1.277320
  0
VERTEX
  8
0
  6
CONTINUOUS
 10
5.518040
 20
1.248280
  0
SEQEND
  8
0
  0
SOLID
  8
0
 62
    15
 10
5.527280
 20
1.277320
 11
5.525960
 21
2.017400
 12
5.541800
 22
1.303720
 13
5.540480
 23
2.043800
  0
POLYLINE
  8
0
  6
CONTINUOUS
 66
     1
 40
0.000000
 41
0.000000
  0
VERTEX
  8
0
  6
CONTINUOUS
 10
5.527280
 20
1.277320
  0
VERTEX
  8
0
  6
CONTINUOUS
 10
5.525960
 20
2.017400
  0
VERTEX
  8
0
  6
CONTINUOUS
 10
5.540480
 20
2.043800
  0
VERTEX
  8
0
  6
CONTINUOUS
 10
5.541800
 20
1.303720
  0
VERTEX
  8
0
  6
CONTINUOUS
 10
5.527280
 20
1.277320
  0
SEQEND
  8
0
  0
SOLID
  8
0
 62
     7
 10
5.541800
 20
1.303720
 11
5.540480
 21
2.043800
 12
5.561160
 22
1.327040
 13
5.559400
 23
2.066680
  0
POLYLINE
  8
0
  6
CONTINUOUS
 66
     1
 40
0.000000
 41
0.000000
  0
VERTEX
  8
0
  6
CONTINUOUS
 10
5.541800
 20
1.303720
  0
VERTEX
  8
0
  6
CONTINUOUS
 10
5.540480
 20
2.043800
  0
VERTEX
  8
0
  6
CONTINUOUS
 10
5.559400
 20
2.066680
  0
VERTEX
  8
0
  6
CONTINUOUS
 10
5.561160
 20
1.327040
  0
VERTEX
  8
0
  6
CONTINUOUS
 10
5.541800
 20
1.303720
  0
SEQEND
  8
0
  0
SOLID
  8
0
 62
     7
 10
5.561160
 20
1.327040
 11
5.559400
 21
2.066680
 12
5.584040
 22
1.345960
 13
5.582720
 23
2.086040
  0
POLYLINE
  8
0
  6
CONTINUOUS
 66
     1
 40
0.000000
 41
0.000000
  0
VERTEX
  8
0
  6
CONTINUOUS
 10
5.561160
 20
1.327040
  0
VERTEX
  8
0
  6
CONTINUOUS
 10
5.559400
 20
2.066680
  0
VERTEX
  8
0
  6
CONTINUOUS
 10
5.582720
 20
2.086040
  0
VERTEX
  8
0
  6
CONTINUOUS
 10
5.584040
 20
1.345960
  0
VERTEX
  8
0
  6
CONTINUOUS
 10
5.561160
 20
1.327040
  0
SEQEND
  8
0
  0
SOLID
  8
0
 62
     7
 10
5.584040
 20
1.345960
 11
5.582720
 21
2.086040
 12
5.610440
 22
1.360480
 13
5.609120
 23
2.100560
  0
POLYLINE
  8
0
  6
CONTINUOUS
 66
     1
 40
0.000000
 41
0.000000
  0
VERTEX
  8
0
  6
CONTINUOUS
 10
5.584040
 20
1.345960
  0
VERTEX
  8
0
  6
CONTINUOUS
 10
5.582720
 20
2.086040
  0
VERTEX
  8
0
  6
CONTINUOUS
 10
5.609120
 20
2.100560
  0
VERTEX
  8
0
  6
CONTINUOUS
 10
5.610440
 20
1.360480
  0
VERTEX
  8
0
  6
CONTINUOUS
 10
5.584040
 20
1.345960
  0
SEQEND
  8
0
  0
SOLID
  8
0
 62
     7
 10
5.610440
 20
1.360480
 11
5.609120
 21
2.100560
 12
5.639920
 22
1.369720
 13
5.638160
 23
2.109800
  0
POLYLINE
  8
0
  6
CONTINUOUS
 66
     1
 40
0.000000
 41
0.000000
  0
VERTEX
  8
0
  6
CONTINUOUS
 10
5.610440
 20
1.360480
  0
VERTEX
  8
0
  6
CONTINUOUS
 10
5.609120
 20
2.100560
  0
VERTEX
  8
0
  6
CONTINUOUS
 10
5.638160
 20
2.109800
  0
VERTEX
  8
0
  6
CONTINUOUS
 10
5.639920
 20
1.369720
  0
VERTEX
  8
0
  6
CONTINUOUS
 10
5.610440
 20
1.360480
  0
SEQEND
  8
0
  0
SOLID
  8
0
 62
     7
 10
5.639920
 20
1.369720
 11
5.638160
 21
2.109800
 12
5.671160
 22
1.372800
 13
5.669400
 23
2.112880
  0
POLYLINE
  8
0
  6
CONTINUOUS
 66
     1
 40
0.000000
 41
0.000000
  0
VERTEX
  8
0
  6
CONTINUOUS
 10
5.639920
 20
1.369720
  0
VERTEX
  8
0
  6
CONTINUOUS
 10
5.638160
 20
2.109800
  0
VERTEX
  8
0
  6
CONTINUOUS
 10
5.669400
 20
2.112880
  0
VERTEX
  8
0
  6
CONTINUOUS
 10
5.671160
 20
1.372800
  0
VERTEX
  8
0
  6
CONTINUOUS
 10
5.639920
 20
1.369720
  0
SEQEND
  8
0
  0
SOLID
  8
0
 62
     7
 10
5.671160
 20
1.372800
 11
5.669400
 21
2.112880
 12
5.701960
 22
1.370160
 13
5.700640
 23
2.109800
  0
POLYLINE
  8
0
  6
CONTINUOUS
 66
     1
 40
0.000000
 41
0.000000
  0
VERTEX
  8
0
  6
CONTINUOUS
 10
5.671160
 20
1.372800
  0
VERTEX
  8
0
  6
CONTINUOUS
 10
5.669400
 20
2.112880
  0
VERTEX
  8
0
  6
CONTINUOUS
 10
5.700640
 20
2.109800
  0
VERTEX
  8
0
  6
CONTINUOUS
 10
5.701960
 20
1.370160
  0
VERTEX
  8
0
  6
CONTINUOUS
 10
5.671160
 20
1.372800
  0
SEQEND
  8
0
  0
SOLID
  8
0
 62
    15
 10
5.701960
 20
1.370160
 11
5.700640
 21
2.109800
 12
5.731000
 22
1.361800
 13
5.729680
 23
2.101880
  0
POLYLINE
  8
0
  6
CONTINUOUS
 66
     1
 40
0.000000
 41
0.000000
  0
VERTEX
  8
0
  6
CONTINUOUS
 10
5.701960
 20
1.370160
  0
VERTEX
  8
0
  6
CONTINUOUS
 10
5.700640
 20
2.109800
  0
VERTEX
  8
0
  6
CONTINUOUS
 10
5.729680
 20
2.101880
  0
VERTEX
  8
0
  6
CONTINUOUS
 10
5.731000
 20
1.361800
  0
VERTEX
  8
0
  6
CONTINUOUS
 10
5.701960
 20
1.370160
  0
SEQEND
  8
0
  0
SOLID
  8
0
 62
    15
 10
5.731000
 20
1.361800
 11
5.729680
 21
2.101880
 12
5.756960
 22
1.348600
 13
5.755640
 23
2.088680
  0
POLYLINE
  8
0
  6
CONTINUOUS
 66
     1
 40
0.000000
 41
0.000000
  0
VERTEX
  8
0
  6
CONTINUOUS
 10
5.731000
 20
1.361800
  0
VERTEX
  8
0
  6
CONTINUOUS
 10
5.729680
 20
2.101880
  0
VERTEX
  8
0
  6
CONTINUOUS
 10
5.755640
 20
2.088680
  0
VERTEX
  8
0
  6
CONTINUOUS
 10
5.756960
 20
1.348600
  0
VERTEX
  8
0
  6
CONTINUOUS
 10
5.731000
 20
1.361800
  0
SEQEND
  8
0
  0
SOLID
  8
0
 62
    15
 10
5.756960
 20
1.348600
 11
5.755640
 21
2.088680
 12
5.779840
 22
1.331000
 13
5.778080
 23
2.070640
  0
POLYLINE
  8
0
  6
CONTINUOUS
 66
     1
 40
0.000000
 41
0.000000
  0
VERTEX
  8
0
  6
CONTINUOUS
 10
5.756960
 20
1.348600
  0
VERTEX
  8
0
  6
CONTINUOUS
 10
5.755640
 20
2.088680
  0
VERTEX
  8
0
  6
CONTINUOUS
 10
5.778080
 20
2.070640
  0
VERTEX
  8
0
  6
CONTINUOUS
 10
5.779840
 20
1.331000
  0
VERTEX
  8
0
  6
CONTINUOUS
 10
5.756960
 20
1.348600
  0
SEQEND
  8
0
  0
SOLID
  8
0
 62
    15
 10
5.779840
 20
1.331000
 11
5.778080
 21
2.070640
 12
5.798320
 22
1.309440
 13
5.797000
 23
2.049080
  0
POLYLINE
  8
0
  6
CONTINUOUS
 66
     1
 40
0.000000
 41
0.000000
  0
VERTEX
  8
0
  6
CONTINUOUS
 10
5.779840
 20
1.331000
  0
VERTEX
  8
0
  6
CONTINUOUS
 10
5.778080
 20
2.070640
  0
VERTEX
  8
0
  6
CONTINUOUS
 10
5.797000
 20
2.049080
  0
VERTEX
  8
0
  6
CONTINUOUS
 10
5.798320
 20
1.309440
  0
VERTEX
  8
0
  6
CONTINUOUS
 10
5.779840
 20
1.331000
  0
SEQEND
  8
0
  0
SOLID
  8
0
 62
    15
 10
5.798320
 20
1.309440
 11
5.797000
 21
2.049080
 12
5.812400
 22
1.283920
 13
5.811080
 23
2.024000
  0
POLYLINE
  8
0
  6
CONTINUOUS
 66
     1
 40
0.000000
 41
0.000000
  0
VERTEX
  8
0
  6
CONTINUOUS
 10
5.798320
 20
1.309440
  0
VERTEX
  8
0
  6
CONTINUOUS
 10
5.797000
 20
2.049080
  0
VERTEX
  8
0
  6
CONTINUOUS
 10
5.811080
 20
2.024000
  0
VERTEX
  8
0
  6
CONTINUOUS
 10
5.812400
 20
1.283920
  0
VERTEX
  8
0
  6
CONTINUOUS
 10
5.798320
 20
1.309440
  0
SEQEND
  8
0
  0
SOLID
  8
0
 62
    15
 10
5.812400
 20
1.283920
 11
5.811080
 21
2.024000
 12
5.821200
 22
1.255760
 13
5.819880
 23
1.995840
  0
POLYLINE
  8
0
  6
CONTINUOUS
 66
     1
 40
0.000000
 41
0.000000
  0
VERTEX
  8
0
  6
CONTINUOUS
 10
5.812400
 20
1.283920
  0
VERTEX
  8
0
  6
CONTINUOUS
 10
5.811080
 20
2.024000
  0
VERTEX
  8
0
  6
CONTINUOUS
 10
5.819880
 20
1.995840
  0
VERTEX
  8
0
  6
CONTINUOUS
 10
5.821200
 20
1.255760
  0
VERTEX
  8
0
  6
CONTINUOUS
 10
5.812400
 20
1.283920
  0
SEQEND
  8
0
  0
SOLID
  8
0
 62
    15
 10
5.514960
 20
1.217040
 11
5.513640
 21
1.956680
 12
5.518040
 22
1.248280
 13
5.516720
 23
1.987920
  0
POLYLINE
  8
0
  6
CONTINUOUS
 66
     1
 40
0.000000
 41
0.000000
  0
VERTEX
  8
0
  6
CONTINUOUS
 10
5.514960
 20
1.217040
  0
VERTEX
  8
0
  6
CONTINUOUS
 10
5.513640
 20
1.956680
  0
VERTEX
  8
0
  6
CONTINUOUS
 10
5.516720
 20
1.987920
  0
VERTEX
  8
0
  6
CONTINUOUS
 10
5.518040
 20
1.248280
  0
VERTEX
  8
0
  6
CONTINUOUS
 10
5.514960
 20
1.217040
  0
SEQEND
  8
0
  0
SOLID
  8
0
 62
    15
 10
5.821200
 20
1.255760
 11
5.819880
 21
1.995840
 12
5.824280
 22
1.224960
 13
5.822960
 23
1.964600
  0
POLYLINE
  8
0
  6
CONTINUOUS
 66
     1
 40
0.000000
 41
0.000000
  0
VERTEX
  8
0
  6
CONTINUOUS
 10
5.821200
 20
1.255760
  0
VERTEX
  8
0
  6
CONTINUOUS
 10
5.819880
 20
1.995840
  0
VERTEX
  8
0
  6
CONTINUOUS
 10
5.822960
 20
1.964600
  0
VERTEX
  8
0
  6
CONTINUOUS
 10
5.824280
 20
1.224960
  0
VERTEX
  8
0
  6
CONTINUOUS
 10
5.821200
 20
1.255760
  0
SEQEND
  8
0
  0
SOLID
  8
0
 62
    15
 10
6.005560
 20
1.215720
 11
6.004240
 21
1.955360
 12
6.012160
 22
1.183600
 13
6.010400
 23
1.923240
  0
POLYLINE
  8
0
  6
CONTINUOUS
 66
     1
 40
0.000000
 41
0.000000
  0
VERTEX
  8
0
  6
CONTINUOUS
 10
6.005560
 20
1.215720
  0
VERTEX
  8
0
  6
CONTINUOUS
 10
6.004240
 20
1.955360
  0
VERTEX
  8
0
  6
CONTINUOUS
 10
6.010400
 20
1.923240
  0
VERTEX
  8
0
  6
CONTINUOUS
 10
6.012160
 20
1.183600
  0
VERTEX
  8
0
  6
CONTINUOUS
 10
6.005560
 20
1.215720
  0
SEQEND
  8
0
  0
SOLID
  8
0
 62
    15
 10
6.012160
 20
1.183600
 11
6.010400
 21
1.923240
 12
6.021400
 22
1.151040
 13
6.019640
 23
1.891120
  0
POLYLINE
  8
0
  6
CONTINUOUS
 66
     1
 40
0.000000
 41
0.000000
  0
VERTEX
  8
0
  6
CONTINUOUS
 10
6.012160
 20
1.183600
  0
VERTEX
  8
0
  6
CONTINUOUS
 10
6.010400
 20
1.923240
  0
VERTEX
  8
0
  6
CONTINUOUS
 10
6.019640
 20
1.891120
  0
VERTEX
  8
0
  6
CONTINUOUS
 10
6.021400
 20
1.151040
  0
VERTEX
  8
0
  6
CONTINUOUS
 10
6.012160
 20
1.183600
  0
SEQEND
  8
0
  0
SOLID
  8
0
 62
    15
 10
6.021400
 20
1.151040
 11
6.019640
 21
1.891120
 12
6.035480
 22
1.119800
 13
6.034160
 23
1.859880
  0
POLYLINE
  8
0
  6
CONTINUOUS
 66
     1
 40
0.000000
 41
0.000000
  0
VERTEX
  8
0
  6
CONTINUOUS
 10
6.021400
 20
1.151040
  0
VERTEX
  8
0
  6
CONTINUOUS
 10
6.019640
 20
1.891120
  0
VERTEX
  8
0
  6
CONTINUOUS
 10
6.034160
 20
1.859880
  0
VERTEX
  8
0
  6
CONTINUOUS
 10
6.035480
 20
1.119800
  0
VERTEX
  8
0
  6
CONTINUOUS
 10
6.021400
 20
1.151040
  0
SEQEND
  8
0
  0
SOLID
  8
0
 62
    15
 10
6.035480
 20
1.119800
 11
6.034160
 21
1.859880
 12
6.056160
 22
1.091200
 13
6.054840
 23
1.830840
  0
POLYLINE
  8
0
  6
CONTINUOUS
 66
     1
 40
0.000000
 41
0.000000
  0
VERTEX
  8
0
  6
CONTINUOUS
 10
6.035480
 20
1.119800
  0
VERTEX
  8
0
  6
CONTINUOUS
 10
6.034160
 20
1.859880
  0
VERTEX
  8
0
  6
CONTINUOUS
 10
6.054840
 20
1.830840
  0
VERTEX
  8
0
  6
CONTINUOUS
 10
6.056160
 20
1.091200
  0
VERTEX
  8
0
  6
CONTINUOUS
 10
6.035480
 20
1.119800
  0
SEQEND
  8
0
  0
SOLID
  8
0
 62
    15
 10
6.056160
 20
1.091200
 11
6.054840
 21
1.830840
 12
6.069800
 22
1.078000
 13
6.068480
 23
1.817640
  0
POLYLINE
  8
0
  6
CONTINUOUS
 66
     1
 40
0.000000
 41
0.000000
  0
VERTEX
  8
0
  6
CONTINUOUS
 10
6.056160
 20
1.091200
  0
VERTEX
  8
0
  6
CONTINUOUS
 10
6.054840
 20
1.830840
  0
VERTEX
  8
0
  6
CONTINUOUS
 10
6.068480
 20
1.817640
  0
VERTEX
  8
0
  6
CONTINUOUS
 10
6.069800
 20
1.078000
  0
VERTEX
  8
0
  6
CONTINUOUS
 10
6.056160
 20
1.091200
  0
SEQEND
  8
0
  0
SOLID
  8
0
 62
    15
 10
6.069800
 20
1.078000
 11
6.068480
 21
1.817640
 12
6.086080
 22
1.065680
 13
6.084760
 23
1.805760
  0
POLYLINE
  8
0
  6
CONTINUOUS
 66
     1
 40
0.000000
 41
0.000000
  0
VERTEX
  8
0
  6
CONTINUOUS
 10
6.069800
 20
1.078000
  0
VERTEX
  8
0
  6
CONTINUOUS
 10
6.068480
 20
1.817640
  0
VERTEX
  8
0
  6
CONTINUOUS
 10
6.084760
 20
1.805760
  0
VERTEX
  8
0
  6
CONTINUOUS
 10
6.086080
 20
1.065680
  0
VERTEX
  8
0
  6
CONTINUOUS
 10
6.069800
 20
1.078000
  0
SEQEND
  8
0
  0
SOLID
  8
0
 62
    15
 10
6.086080
 20
1.065680
 11
6.084760
 21
1.805760
 12
6.105000
 22
1.055120
 13
6.103240
 23
1.794760
  0
POLYLINE
  8
0
  6
CONTINUOUS
 66
     1
 40
0.000000
 41
0.000000
  0
VERTEX
  8
0
  6
CONTINUOUS
 10
6.086080
 20
1.065680
  0
VERTEX
  8
0
  6
CONTINUOUS
 10
6.084760
 20
1.805760
  0
VERTEX
  8
0
  6
CONTINUOUS
 10
6.103240
 20
1.794760
  0
VERTEX
  8
0
  6
CONTINUOUS
 10
6.105000
 20
1.055120
  0
VERTEX
  8
0
  6
CONTINUOUS
 10
6.086080
 20
1.065680
  0
SEQEND
  8
0
  0
SOLID
  8
0
 62
    15
 10
6.105000
 20
1.055120
 11
6.103240
 21
1.794760
 12
6.126560
 22
1.045880
 13
6.124800
 23
1.785520
  0
POLYLINE
  8
0
  6
CONTINUOUS
 66
     1
 40
0.000000
 41
0.000000
  0
VERTEX
  8
0
  6
CONTINUOUS
 10
6.105000
 20
1.055120
  0
VERTEX
  8
0
  6
CONTINUOUS
 10
6.103240
 20
1.794760
  0
VERTEX
  8
0
  6
CONTINUOUS
 10
6.124800
 20
1.785520
  0
VERTEX
  8
0
  6
CONTINUOUS
 10
6.126560
 20
1.045880
  0
VERTEX
  8
0
  6
CONTINUOUS
 10
6.105000
 20
1.055120
  0
SEQEND
  8
0
  0
SOLID
  8
0
 62
     7
 10
6.147240
 20
0.859760
 11
6.145480
 21
1.599400
 12
6.151200
 22
0.859760
 13
6.149440
 23
1.599400
  0
POLYLINE
  8
0
  6
CONTINUOUS
 66
     1
 40
0.000000
 41
0.000000
  0
VERTEX
  8
0
  6
CONTINUOUS
 10
6.147240
 20
0.859760
  0
VERTEX
  8
0
  6
CONTINUOUS
 10
6.145480
 20
1.599400
  0
VERTEX
  8
0
  6
CONTINUOUS
 10
6.149440
 20
1.599400
  0
VERTEX
  8
0
  6
CONTINUOUS
 10
6.151200
 20
0.859760
  0
VERTEX
  8
0
  6
CONTINUOUS
 10
6.147240
 20
0.859760
  0
SEQEND
  8
0
  0
SOLID
  8
0
 62
     7
 10
6.151200
 20
1.037960
 11
6.149880
 21
1.778040
 12
6.179360
 22
1.032240
 13
6.178040
 23
1.771880
  0
POLYLINE
  8
0
  6
CONTINUOUS
 66
     1
 40
0.000000
 41
0.000000
  0
VERTEX
  8
0
  6
CONTINUOUS
 10
6.151200
 20
1.037960
  0
VERTEX
  8
0
  6
CONTINUOUS
 10
6.149880
 20
1.778040
  0
VERTEX
  8
0
  6
CONTINUOUS
 10
6.178040
 20
1.771880
  0
VERTEX
  8
0
  6
CONTINUOUS
 10
6.179360
 20
1.032240
  0
VERTEX
  8
0
  6
CONTINUOUS
 10
6.151200
 20
1.037960
  0
SEQEND
  8
0
  0
SOLID
  8
0
 62
     7
 10
6.179360
 20
1.032240
 11
6.178040
 21
1.771880
 12
6.211480
 22
1.028280
 13
6.209720
 23
1.767920
  0
POLYLINE
  8
0
  6
CONTINUOUS
 66
     1
 40
0.000000
 41
0.000000
  0
VERTEX
  8
0
  6
CONTINUOUS
 10
6.179360
 20
1.032240
  0
VERTEX
  8
0
  6
CONTINUOUS
 10
6.178040
 20
1.771880
  0
VERTEX
  8
0
  6
CONTINUOUS
 10
6.209720
 20
1.767920
  0
VERTEX
  8
0
  6
CONTINUOUS
 10
6.211480
 20
1.028280
  0
VERTEX
  8
0
  6
CONTINUOUS
 10
6.179360
 20
1.032240
  0
SEQEND
  8
0
  0
SOLID
  8
0
 62
     7
 10
6.211480
 20
1.028280
 11
6.209720
 21
1.767920
 12
6.247120
 22
1.026520
 13
6.245360
 23
1.766160
  0
POLYLINE
  8
0
  6
CONTINUOUS
 66
     1
 40
0.000000
 41
0.000000
  0
VERTEX
  8
0
  6
CONTINUOUS
 10
6.211480
 20
1.028280
  0
VERTEX
  8
0
  6
CONTINUOUS
 10
6.209720
 20
1.767920
  0
VERTEX
  8
0
  6
CONTINUOUS
 10
6.245360
 20
1.766160
  0
VERTEX
  8
0
  6
CONTINUOUS
 10
6.247120
 20
1.026520
  0
VERTEX
  8
0
  6
CONTINUOUS
 10
6.211480
 20
1.028280
  0
SEQEND
  8
0
  0
SOLID
  8
0
 62
    15
 10
6.247120
 20
1.026520
 11
6.245360
 21
1.766160
 12
6.248440
 22
1.023440
 13
6.247120
 23
1.763520
  0
POLYLINE
  8
0
  6
CONTINUOUS
 66
     1
 40
0.000000
 41
0.000000
  0
VERTEX
  8
0
  6
CONTINUOUS
 10
6.247120
 20
1.026520
  0
VERTEX
  8
0
  6
CONTINUOUS
 10
6.245360
 20
1.766160
  0
VERTEX
  8
0
  6
CONTINUOUS
 10
6.247120
 20
1.763520
  0
VERTEX
  8
0
  6
CONTINUOUS
 10
6.248440
 20
1.023440
  0
VERTEX
  8
0
  6
CONTINUOUS
 10
6.247120
 20
1.026520
  0
SEQEND
  8
0
  0
SOLID
  8
0
 62
    15
 10
6.126560
 20
1.045880
 11
6.124800
 21
1.785520
 12
6.151200
 22
1.037960
 13
6.149880
 23
1.778040
  0
POLYLINE
  8
0
  6
CONTINUOUS
 66
     1
 40
0.000000
 41
0.000000
  0
VERTEX
  8
0
  6
CONTINUOUS
 10
6.126560
 20
1.045880
  0
VERTEX
  8
0
  6
CONTINUOUS
 10
6.124800
 20
1.785520
  0
VERTEX
  8
0
  6
CONTINUOUS
 10
6.149880
 20
1.778040
  0
VERTEX
  8
0
  6
CONTINUOUS
 10
6.151200
 20
1.037960
  0
VERTEX
  8
0
  6
CONTINUOUS
 10
6.126560
 20
1.045880
  0
SEQEND
  8
0
  0
POLYLINE
  8
0
  6
CONTINUOUS
 66
     1
 40
0.000000
 41
0.000000
  0
VERTEX
  8
0
  6
CONTINUOUS
 10
6.151200
 20
0.859760
  0
VERTEX
  8
0
  6
CONTINUOUS
 10
5.514960
 20
0.859760
  0
VERTEX
  8
0
  6
CONTINUOUS
 10
5.514960
 20
1.217040
  0
VERTEX
  8
0
  6
CONTINUOUS
 10
5.518040
 20
1.248280
  0
VERTEX
  8
0
  6
CONTINUOUS
 10
5.527280
 20
1.277320
  0
VERTEX
  8
0
  6
CONTINUOUS
 10
5.541800
 20
1.303720
  0
VERTEX
  8
0
  6
CONTINUOUS
 10
5.561160
 20
1.327040
  0
VERTEX
  8
0
  6
CONTINUOUS
 10
5.584040
 20
1.345960
  0
VERTEX
  8
0
  6
CONTINUOUS
 10
5.610440
 20
1.360480
  0
VERTEX
  8
0
  6
CONTINUOUS
 10
5.639920
 20
1.369720
  0
VERTEX
  8
0
  6
CONTINUOUS
 10
5.671160
 20
1.372800
  0
VERTEX
  8
0
  6
CONTINUOUS
 10
5.701960
 20
1.370160
  0
VERTEX
  8
0
  6
CONTINUOUS
 10
5.731000
 20
1.361800
  0
VERTEX
  8
0
  6
CONTINUOUS
 10
5.756960
 20
1.348600
  0
VERTEX
  8
0
  6
CONTINUOUS
 10
5.779840
 20
1.331000
  0
VERTEX
  8
0
  6
CONTINUOUS
 10
5.798320
 20
1.309440
  0
VERTEX
  8
0
  6
CONTINUOUS
 10
5.812400
 20
1.283920
  0
VERTEX
  8
0
  6
CONTINUOUS
 10
5.821200
 20
1.255760
  0
VERTEX
  8
0
  6
CONTINUOUS
 10
5.824280
 20
1.224960
  0
VERTEX
  8
0
  6
CONTINUOUS
 10
5.824280
 20
1.215720
  0
VERTEX
  8
0
  6
CONTINUOUS
 10
6.005560
 20
1.215720
  0
VERTEX
  8
0
  6
CONTINUOUS
 10
6.012160
 20
1.183600
  0
VERTEX
  8
0
  6
CONTINUOUS
 10
6.021400
 20
1.151040
  0
VERTEX
  8
0
  6
CONTINUOUS
 10
6.035480
 20
1.119800
  0
VERTEX
  8
0
  6
CONTINUOUS
 10
6.056160
 20
1.091200
  0
VERTEX
  8
0
  6
CONTINUOUS
 10
6.069800
 20
1.078000
  0
VERTEX
  8
0
  6
CONTINUOUS
 10
6.086080
 20
1.065680
  0
VERTEX
  8
0
  6
CONTINUOUS
 10
6.105000
 20
1.055120
  0
VERTEX
  8
0
  6
CONTINUOUS
 10
6.126560
 20
1.045880
  0
VERTEX
  8
0
  6
CONTINUOUS
 10
6.151200
 20
1.037960
  0
VERTEX
  8
0
  6
CONTINUOUS
 10
6.179360
 20
1.032240
  0
VERTEX
  8
0
  6
CONTINUOUS
 10
6.211480
 20
1.028280
  0
VERTEX
  8
0
  6
CONTINUOUS
 10
6.247120
 20
1.026520
  0
VERTEX
  8
0
  6
CONTINUOUS
 10
6.248440
 20
1.023440
  0
VERTEX
  8
0
  6
CONTINUOUS
 10
6.248440
 20
0.859760
  0
VERTEX
  8
0
  6
CONTINUOUS
 10
6.147240
 20
0.859760
  0
VERTEX
  8
0
  6
CONTINUOUS
 10
6.151200
 20
0.859760
  0
SEQEND
  8
0
  0
TEXT
  8
0
 10
7.619040
 20
2.057880
 40
0.138026
  1
panel
 41
1.000000
  7
SN0
 71
     0
 72
     5
 11
8.024608
 21
2.057880
  0
TEXT
  8
0
 10
7.729920
 20
1.866040
 40
0.138026
  1
39
 41
1.000000
  7
SN0
 71
     0
 72
     5
 11
7.914602
 21
1.866040
  0
ENDSEC
  0
EOF
