  0
SECTION
  2
HEADER
  9
$ACADVER
  1
AC1006
  9
$EXTMIN
 10
1.697080
 20
0.477840
  9
$EXTMAX
 10
6.900080
 20
4.953960
  9
$LTSCALE
 40
0.044000
  9
$PDMODE
 70
    35
  9
$PDSIZE
 40
0.035200
  0
ENDSEC
  0
SECTION
  2
TABLES
  0
TABLE
  2
LTYPE
 70
     9
  0
LTYPE
  2
CONTINUOUS
 70
    64
  3
Solid line
 72
    65
 73
     0
 40
0.000000
  0
LTYPE
  2
DASHED
 70
    64
  3
__ __ __ __ __ __ __ __ __ __ __ __ __ __ __
 72
    65
 73
     2
 40
0.000330
 49
0.000220
 49
-0.000110
  0
LTYPE
  2
HIDDEN
 70
    64
  3
 _ _ _ _ _ _ _ _ _ _ _ _ _ _ _ _ _ _ _ _ _ _
 72
    65
 73
     2
 40
0.000165
 49
0.000110
 49
-0.000055
  0
LTYPE
  2
CENTER
 70
    64
  3
____ _ ____ _ ____ _ ____ _ ____ _ ____ _ ____
 72
    65
 73
     4
 40
0.000880
 49
0.000550
 49
-0.000110
 49
0.000110
 49
-0.000110
  0
LTYPE
  2
PHANTOM
 70
    64
  3
_____ _ _ _____ _ _ _____ _ _ _____ _ _ ____
 72
    65
 73
     6
 40
0.001100
 49
0.000550
 49
-0.000110
 49
0.000110
 49
-0.000110
 49
0.000110
 49
-0.000110
  0
LTYPE
  2
DOT
 70
    64
  3
...............................................
 72
    65
 73
     2
 40
0.000110
 49
0.000000
 49
-0.000110
  0
LTYPE
  2
DASHDOT
 70
    64
  3
__ . __ . __ . __ . __ . __ . __ . __ . __ . __
 72
    65
 73
     4
 40
0.000440
 49
0.000220
 49
-0.000110
 49
0.000000
 49
-0.000110
  0
LTYPE
  2
BORDER
 70
    64
  3
__ __ . __ __ . __ __ . __ __ . __ __ . __ __
 72
    65
 73
     6
 40
0.000770
 49
0.000220
 49
-0.000110
 49
0.000220
 49
-0.000110
 49
0.000000
 49
-0.000110
  0
LTYPE
  2
DIVIDE
 70
    64
  3
__ . . __ . . __ . . __ . . __ . . __ . . __
 72
    65
 73
     6
 40
0.000550
 49
0.000220
 49
-0.000110
 49
0.000000
 49
-0.000110
 49
0.000000
 49
-0.000110
  0
LTYPE
  2
DOTDOT
 70
    64
  3
 . .  . .  . .  . .  . .  . . 
 72
    65
 73
     5
 40
0.000242
 49
-0.000110
 49
0.000000
 49
-0.000110
 49
0.000000
 49
-0.000110
  0
ENDTAB
  0
TABLE
  2
STYLE
 70
     2
  0
STYLE
 70
     0
  2
SN0
 40
0.000000
 41
0.000440
 50
0.000000
 71
     0
 42
0.000000
  3
ROMAND
  0
STYLE
 70
    68
  2
SV0
 40
0.000000
 41
0.000440
 50
0.000000
 71
     0
 42
0.000000
  3
ROMAND
  0
ENDTAB
  0
TABLE
  2
LAYER
 70
     3
  0
LAYER
  2
FOREGROUND
 70
    64
 62
     7
  6
CONTINUOUS
  0
LAYER
  2
BACKGROUND
 70
    65
 62
    -7
  6
CONTINUOUS
  0
LAYER
  2
0
 70
    64
 62
     7
  6
CONTINUOUS
  0
ENDTAB
  0
ENDSEC
  0
SECTION
  2
ENTITIES
  0
POLYLINE
  8
FOREGROUND
  6
CONTINUOUS
 66
     1
 40
0.000000
 41
0.000000
  0
VERTEX
  8
FOREGROUND
  6
CONTINUOUS
 10
0.000000
 20
5.431800
  0
VERTEX
  8
FOREGROUND
  6
CONTINUOUS
 10
8.499920
 20
5.431800
  0
VERTEX
  8
FOREGROUND
  6
CONTINUOUS
 10
8.499920
 20
-5.568200
  0
VERTEX
  8
FOREGROUND
  6
CONTINUOUS
 10
0.000000
 20
-5.568200
  0
VERTEX
  8
FOREGROUND
  6
CONTINUOUS
 10
0.000000
 20
5.431800
  0
SEQEND
  8
0
  0
POLYLINE
  8
FOREGROUND
  6
CONTINUOUS
 66
     1
 40
0.000000
 41
0.000000
  0
VERTEX
  8
FOREGROUND
  6
CONTINUOUS
 10
0.000000
 20
5.431800
  0
VERTEX
  8
FOREGROUND
  6
CONTINUOUS
 10
8.499920
 20
5.431800
  0
VERTEX
  8
FOREGROUND
  6
CONTINUOUS
 10
8.499920
 20
-5.568200
  0
VERTEX
  8
FOREGROUND
  6
CONTINUOUS
 10
0.000000
 20
-5.568200
  0
VERTEX
  8
FOREGROUND
  6
CONTINUOUS
 10
0.000000
 20
5.431800
  0
SEQEND
  8
0
  0
POLYLINE
  8
0
  6
CONTINUOUS
 66
     1
 40
0.014080
 41
0.014080
  0
VERTEX
  8
0
  6
CONTINUOUS
 10
3.064600
 20
3.998280
  0
VERTEX
  8
0
  6
CONTINUOUS
 10
3.123120
 20
3.936240
  0
VERTEX
  8
0
  6
CONTINUOUS
 10
3.170640
 20
3.872000
  0
VERTEX
  8
0
  6
CONTINUOUS
 10
3.196600
 20
3.828440
  0
VERTEX
  8
0
  6
CONTINUOUS
 10
3.218600
 20
3.784440
  0
VERTEX
  8
0
  6
CONTINUOUS
 10
3.236200
 20
3.739560
  0
VERTEX
  8
0
  6
CONTINUOUS
 10
3.249840
 20
3.694240
  0
VERTEX
  8
0
  6
CONTINUOUS
 10
3.259520
 20
3.648920
  0
VERTEX
  8
0
  6
CONTINUOUS
 10
3.266120
 20
3.603160
  0
VERTEX
  8
0
  6
CONTINUOUS
 10
3.269200
 20
3.557400
  0
VERTEX
  8
0
  6
CONTINUOUS
 10
3.268760
 20
3.511200
  0
VERTEX
  8
0
  6
CONTINUOUS
 10
3.265680
 20
3.465440
  0
VERTEX
  8
0
  6
CONTINUOUS
 10
3.255560
 20
3.396800
  0
VERTEX
  8
0
  6
CONTINUOUS
 10
3.251160
 20
3.374360
  0
VERTEX
  8
0
  6
CONTINUOUS
 10
3.239720
 20
3.329040
  0
VERTEX
  8
0
  6
CONTINUOUS
 10
3.226520
 20
3.284160
  0
VERTEX
  8
0
  6
CONTINUOUS
 10
3.211120
 20
3.240160
  0
VERTEX
  8
0
  6
CONTINUOUS
 10
3.193960
 20
3.196600
  0
VERTEX
  8
0
  6
CONTINUOUS
 10
3.175040
 20
3.153920
  0
VERTEX
  8
0
  6
CONTINUOUS
 10
3.132800
 20
3.070760
  0
VERTEX
  8
0
  6
CONTINUOUS
 10
3.085720
 20
2.991560
  0
VERTEX
  8
0
  6
CONTINUOUS
 10
3.036000
 20
2.917200
  0
VERTEX
  8
0
  6
CONTINUOUS
 10
2.984520
 20
2.848120
  0
VERTEX
  8
0
  6
CONTINUOUS
 10
2.933480
 20
2.785640
  0
VERTEX
  8
0
  6
CONTINUOUS
 10
2.825680
 20
2.667720
  0
VERTEX
  8
0
  6
CONTINUOUS
 10
2.737680
 20
2.563440
  0
VERTEX
  8
0
  6
CONTINUOUS
 10
2.658040
 20
2.460040
  0
VERTEX
  8
0
  6
CONTINUOUS
 10
2.586320
 20
2.360160
  0
VERTEX
  8
0
  6
CONTINUOUS
 10
2.504480
 20
2.234320
  0
VERTEX
  8
0
  6
CONTINUOUS
 10
2.438920
 20
2.122120
  0
VERTEX
  8
0
  6
CONTINUOUS
 10
2.389640
 20
2.027520
  0
VERTEX
  8
0
  6
CONTINUOUS
 10
2.357520
 20
1.955800
  0
VERTEX
  8
0
  6
CONTINUOUS
 10
2.345200
 20
1.919280
  0
VERTEX
  8
0
  6
CONTINUOUS
 10
2.343000
 20
1.904320
  0
VERTEX
  8
0
  6
CONTINUOUS
 10
2.343440
 20
1.899920
  0
VERTEX
  8
0
  6
CONTINUOUS
 10
2.383480
 20
1.900800
  0
VERTEX
  8
0
  6
CONTINUOUS
 10
2.420440
 20
1.898160
  0
VERTEX
  8
0
  6
CONTINUOUS
 10
2.455640
 20
1.892000
  0
VERTEX
  8
0
  6
CONTINUOUS
 10
2.488200
 20
1.882760
  0
VERTEX
  8
0
  6
CONTINUOUS
 10
2.519000
 20
1.870440
  0
VERTEX
  8
0
  6
CONTINUOUS
 10
2.547600
 20
1.855480
  0
VERTEX
  8
0
  6
CONTINUOUS
 10
2.585880
 20
1.828200
  0
VERTEX
  8
0
  6
CONTINUOUS
 10
2.619760
 20
1.796080
  0
VERTEX
  8
0
  6
CONTINUOUS
 10
2.647920
 20
1.760000
  0
VERTEX
  8
0
  6
CONTINUOUS
 10
2.670800
 20
1.720840
  0
VERTEX
  8
0
  6
CONTINUOUS
 10
2.688400
 20
1.679040
  0
VERTEX
  8
0
  6
CONTINUOUS
 10
2.699840
 20
1.635920
  0
VERTEX
  8
0
  6
CONTINUOUS
 10
2.706000
 20
1.591920
  0
VERTEX
  8
0
  6
CONTINUOUS
 10
2.706880
 20
1.562440
  0
VERTEX
  8
0
  6
CONTINUOUS
 10
2.702920
 20
1.519320
  0
VERTEX
  8
0
  6
CONTINUOUS
 10
2.692800
 20
1.477520
  0
VERTEX
  8
0
  6
CONTINUOUS
 10
2.676080
 20
1.437480
  0
VERTEX
  8
0
  6
CONTINUOUS
 10
2.661560
 20
1.412840
  0
VERTEX
  8
0
  6
CONTINUOUS
 10
2.644400
 20
1.389520
  0
VERTEX
  8
0
  6
CONTINUOUS
 10
2.612720
 20
1.358280
  0
VERTEX
  8
0
  6
CONTINUOUS
 10
2.574000
 20
1.331880
  0
VERTEX
  8
0
  6
CONTINUOUS
 10
2.544520
 20
1.317800
  0
VERTEX
  8
0
  6
CONTINUOUS
 10
2.511960
 20
1.305920
  0
VERTEX
  8
0
  6
CONTINUOUS
 10
2.476320
 20
1.297560
  0
VERTEX
  8
0
  6
CONTINUOUS
 10
2.437600
 20
1.292280
  0
VERTEX
  8
0
  6
CONTINUOUS
 10
2.395360
 20
1.290520
  0
VERTEX
  8
0
  6
CONTINUOUS
 10
2.394040
 20
1.289200
  0
VERTEX
  8
0
  6
CONTINUOUS
 10
2.394040
 20
1.145320
  0
VERTEX
  8
0
  6
CONTINUOUS
 10
2.354000
 20
1.139600
  0
VERTEX
  8
0
  6
CONTINUOUS
 10
2.315720
 20
1.130800
  0
VERTEX
  8
0
  6
CONTINUOUS
 10
2.279200
 20
1.119800
  0
VERTEX
  8
0
  6
CONTINUOUS
 10
2.227280
 20
1.098680
  0
VERTEX
  8
0
  6
CONTINUOUS
 10
2.180200
 20
1.072280
  0
VERTEX
  8
0
  6
CONTINUOUS
 10
2.137520
 20
1.041040
  0
VERTEX
  8
0
  6
CONTINUOUS
 10
2.101000
 20
1.004960
  0
VERTEX
  8
0
  6
CONTINUOUS
 10
2.069760
 20
0.964920
  0
VERTEX
  8
0
  6
CONTINUOUS
 10
2.045560
 20
0.920920
  0
VERTEX
  8
0
  6
CONTINUOUS
 10
2.027960
 20
0.873400
  0
VERTEX
  8
0
  6
CONTINUOUS
 10
2.017840
 20
0.822360
  0
VERTEX
  8
0
  6
CONTINUOUS
 10
2.015640
 20
0.782320
  0
VERTEX
  8
0
  6
CONTINUOUS
 10
1.705000
 20
0.782320
  0
VERTEX
  8
0
  6
CONTINUOUS
 10
1.705000
 20
4.861120
  0
VERTEX
  8
0
  6
CONTINUOUS
 10
3.243680
 20
4.861120
  0
VERTEX
  8
0
  6
CONTINUOUS
 10
3.243680
 20
4.126320
  0
VERTEX
  8
0
  6
CONTINUOUS
 10
3.060640
 20
4.126320
  0
VERTEX
  8
0
  6
CONTINUOUS
 10
3.060640
 20
4.005320
  0
VERTEX
  8
0
  6
CONTINUOUS
 10
3.064600
 20
3.998280
  0
SEQEND
  8
0
  0
SOLID
  8
0
 62
    15
 10
4.685120
 20
2.047760
 11
5.286160
 21
1.680800
 12
4.675880
 22
2.021800
 13
5.276480
 23
1.654840
  0
POLYLINE
  8
0
  6
CONTINUOUS
 66
     1
 40
0.000000
 41
0.000000
  0
VERTEX
  8
0
  6
CONTINUOUS
 10
4.685120
 20
2.047760
  0
VERTEX
  8
0
  6
CONTINUOUS
 10
5.286160
 20
1.680800
  0
VERTEX
  8
0
  6
CONTINUOUS
 10
5.276480
 20
1.654840
  0
VERTEX
  8
0
  6
CONTINUOUS
 10
4.675880
 20
2.021800
  0
VERTEX
  8
0
  6
CONTINUOUS
 10
4.685120
 20
2.047760
  0
SEQEND
  8
0
  0
SOLID
  8
0
 62
    15
 10
5.467440
 20
4.007080
 11
6.068480
 21
3.640120
 12
5.524200
 22
3.920840
 13
6.125240
 23
3.553880
  0
POLYLINE
  8
0
  6
CONTINUOUS
 66
     1
 40
0.000000
 41
0.000000
  0
VERTEX
  8
0
  6
CONTINUOUS
 10
5.467440
 20
4.007080
  0
VERTEX
  8
0
  6
CONTINUOUS
 10
6.068480
 20
3.640120
  0
VERTEX
  8
0
  6
CONTINUOUS
 10
6.125240
 20
3.553880
  0
VERTEX
  8
0
  6
CONTINUOUS
 10
5.524200
 20
3.920840
  0
VERTEX
  8
0
  6
CONTINUOUS
 10
5.467440
 20
4.007080
  0
SEQEND
  8
0
  0
SOLID
  8
0
 62
    15
 10
5.524200
 20
3.920840
 11
6.125240
 21
3.553880
 12
5.563800
 22
3.831520
 13
6.164400
 23
3.464560
  0
POLYLINE
  8
0
  6
CONTINUOUS
 66
     1
 40
0.000000
 41
0.000000
  0
VERTEX
  8
0
  6
CONTINUOUS
 10
5.524200
 20
3.920840
  0
VERTEX
  8
0
  6
CONTINUOUS
 10
6.125240
 20
3.553880
  0
VERTEX
  8
0
  6
CONTINUOUS
 10
6.164400
 20
3.464560
  0
VERTEX
  8
0
  6
CONTINUOUS
 10
5.563800
 20
3.831520
  0
VERTEX
  8
0
  6
CONTINUOUS
 10
5.524200
 20
3.920840
  0
SEQEND
  8
0
  0
SOLID
  8
0
 62
    15
 10
5.563800
 20
3.831520
 11
6.164400
 21
3.464560
 12
5.587120
 22
3.740880
 13
6.188160
 23
3.373920
  0
POLYLINE
  8
0
  6
CONTINUOUS
 66
     1
 40
0.000000
 41
0.000000
  0
VERTEX
  8
0
  6
CONTINUOUS
 10
5.563800
 20
3.831520
  0
VERTEX
  8
0
  6
CONTINUOUS
 10
6.164400
 20
3.464560
  0
VERTEX
  8
0
  6
CONTINUOUS
 10
6.188160
 20
3.373920
  0
VERTEX
  8
0
  6
CONTINUOUS
 10
5.587120
 20
3.740880
  0
VERTEX
  8
0
  6
CONTINUOUS
 10
5.563800
 20
3.831520
  0
SEQEND
  8
0
  0
SOLID
  8
0
 62
    15
 10
5.587120
 20
3.740880
 11
6.188160
 21
3.373920
 12
5.596800
 22
3.649360
 13
6.197400
 23
3.282400
  0
POLYLINE
  8
0
  6
CONTINUOUS
 66
     1
 40
0.000000
 41
0.000000
  0
VERTEX
  8
0
  6
CONTINUOUS
 10
5.587120
 20
3.740880
  0
VERTEX
  8
0
  6
CONTINUOUS
 10
6.188160
 20
3.373920
  0
VERTEX
  8
0
  6
CONTINUOUS
 10
6.197400
 20
3.282400
  0
VERTEX
  8
0
  6
CONTINUOUS
 10
5.596800
 20
3.649360
  0
VERTEX
  8
0
  6
CONTINUOUS
 10
5.587120
 20
3.740880
  0
SEQEND
  8
0
  0
SOLID
  8
0
 62
    15
 10
5.596800
 20
3.649360
 11
6.197400
 21
3.282400
 12
5.593280
 22
3.557400
 13
6.193880
 23
3.190440
  0
POLYLINE
  8
0
  6
CONTINUOUS
 66
     1
 40
0.000000
 41
0.000000
  0
VERTEX
  8
0
  6
CONTINUOUS
 10
5.596800
 20
3.649360
  0
VERTEX
  8
0
  6
CONTINUOUS
 10
6.197400
 20
3.282400
  0
VERTEX
  8
0
  6
CONTINUOUS
 10
6.193880
 20
3.190440
  0
VERTEX
  8
0
  6
CONTINUOUS
 10
5.593280
 20
3.557400
  0
VERTEX
  8
0
  6
CONTINUOUS
 10
5.596800
 20
3.649360
  0
SEQEND
  8
0
  0
SOLID
  8
0
 62
    15
 10
5.593280
 20
3.557400
 11
6.193880
 21
3.190440
 12
5.578760
 22
3.466320
 13
6.179360
 23
3.099360
  0
POLYLINE
  8
0
  6
CONTINUOUS
 66
     1
 40
0.000000
 41
0.000000
  0
VERTEX
  8
0
  6
CONTINUOUS
 10
5.593280
 20
3.557400
  0
VERTEX
  8
0
  6
CONTINUOUS
 10
6.193880
 20
3.190440
  0
VERTEX
  8
0
  6
CONTINUOUS
 10
6.179360
 20
3.099360
  0
VERTEX
  8
0
  6
CONTINUOUS
 10
5.578760
 20
3.466320
  0
VERTEX
  8
0
  6
CONTINUOUS
 10
5.593280
 20
3.557400
  0
SEQEND
  8
0
  0
SOLID
  8
0
 62
    15
 10
5.578760
 20
3.466320
 11
6.179360
 21
3.099360
 12
5.554120
 22
3.376560
 13
6.155160
 23
3.009600
  0
POLYLINE
  8
0
  6
CONTINUOUS
 66
     1
 40
0.000000
 41
0.000000
  0
VERTEX
  8
0
  6
CONTINUOUS
 10
5.578760
 20
3.466320
  0
VERTEX
  8
0
  6
CONTINUOUS
 10
6.179360
 20
3.099360
  0
VERTEX
  8
0
  6
CONTINUOUS
 10
6.155160
 20
3.009600
  0
VERTEX
  8
0
  6
CONTINUOUS
 10
5.554120
 20
3.376560
  0
VERTEX
  8
0
  6
CONTINUOUS
 10
5.578760
 20
3.466320
  0
SEQEND
  8
0
  0
SOLID
  8
0
 62
    15
 10
5.554120
 20
3.376560
 11
6.155160
 21
3.009600
 12
5.521560
 22
3.288560
 13
6.122160
 23
2.921600
  0
POLYLINE
  8
0
  6
CONTINUOUS
 66
     1
 40
0.000000
 41
0.000000
  0
VERTEX
  8
0
  6
CONTINUOUS
 10
5.554120
 20
3.376560
  0
VERTEX
  8
0
  6
CONTINUOUS
 10
6.155160
 20
3.009600
  0
VERTEX
  8
0
  6
CONTINUOUS
 10
6.122160
 20
2.921600
  0
VERTEX
  8
0
  6
CONTINUOUS
 10
5.521560
 20
3.288560
  0
VERTEX
  8
0
  6
CONTINUOUS
 10
5.554120
 20
3.376560
  0
SEQEND
  8
0
  0
SOLID
  8
0
 62
    15
 10
5.521560
 20
3.288560
 11
6.122160
 21
2.921600
 12
5.481960
 22
3.203640
 13
6.083000
 23
2.836680
  0
POLYLINE
  8
0
  6
CONTINUOUS
 66
     1
 40
0.000000
 41
0.000000
  0
VERTEX
  8
0
  6
CONTINUOUS
 10
5.521560
 20
3.288560
  0
VERTEX
  8
0
  6
CONTINUOUS
 10
6.122160
 20
2.921600
  0
VERTEX
  8
0
  6
CONTINUOUS
 10
6.083000
 20
2.836680
  0
VERTEX
  8
0
  6
CONTINUOUS
 10
5.481960
 20
3.203640
  0
VERTEX
  8
0
  6
CONTINUOUS
 10
5.521560
 20
3.288560
  0
SEQEND
  8
0
  0
SOLID
  8
0
 62
    15
 10
5.481960
 20
3.203640
 11
6.083000
 21
2.836680
 12
5.388680
 22
3.045680
 13
5.989720
 23
2.678720
  0
POLYLINE
  8
0
  6
CONTINUOUS
 66
     1
 40
0.000000
 41
0.000000
  0
VERTEX
  8
0
  6
CONTINUOUS
 10
5.481960
 20
3.203640
  0
VERTEX
  8
0
  6
CONTINUOUS
 10
6.083000
 20
2.836680
  0
VERTEX
  8
0
  6
CONTINUOUS
 10
5.989720
 20
2.678720
  0
VERTEX
  8
0
  6
CONTINUOUS
 10
5.388680
 20
3.045680
  0
VERTEX
  8
0
  6
CONTINUOUS
 10
5.481960
 20
3.203640
  0
SEQEND
  8
0
  0
SOLID
  8
0
 62
    15
 10
5.388680
 20
3.045680
 11
5.989720
 21
2.678720
 12
5.286160
 22
2.907960
 13
5.887200
 23
2.541000
  0
POLYLINE
  8
0
  6
CONTINUOUS
 66
     1
 40
0.000000
 41
0.000000
  0
VERTEX
  8
0
  6
CONTINUOUS
 10
5.388680
 20
3.045680
  0
VERTEX
  8
0
  6
CONTINUOUS
 10
5.989720
 20
2.678720
  0
VERTEX
  8
0
  6
CONTINUOUS
 10
5.887200
 20
2.541000
  0
VERTEX
  8
0
  6
CONTINUOUS
 10
5.286160
 20
2.907960
  0
VERTEX
  8
0
  6
CONTINUOUS
 10
5.388680
 20
3.045680
  0
SEQEND
  8
0
  0
SOLID
  8
0
 62
    15
 10
5.286160
 20
2.907960
 11
5.887200
 21
2.541000
 12
5.235560
 22
2.849000
 13
5.836600
 23
2.482040
  0
POLYLINE
  8
0
  6
CONTINUOUS
 66
     1
 40
0.000000
 41
0.000000
  0
VERTEX
  8
0
  6
CONTINUOUS
 10
5.286160
 20
2.907960
  0
VERTEX
  8
0
  6
CONTINUOUS
 10
5.887200
 20
2.541000
  0
VERTEX
  8
0
  6
CONTINUOUS
 10
5.836600
 20
2.482040
  0
VERTEX
  8
0
  6
CONTINUOUS
 10
5.235560
 20
2.849000
  0
VERTEX
  8
0
  6
CONTINUOUS
 10
5.286160
 20
2.907960
  0
SEQEND
  8
0
  0
SOLID
  8
0
 62
    15
 10
5.235560
 20
2.849000
 11
5.836600
 21
2.482040
 12
5.187160
 22
2.797520
 13
5.787760
 23
2.430560
  0
POLYLINE
  8
0
  6
CONTINUOUS
 66
     1
 40
0.000000
 41
0.000000
  0
VERTEX
  8
0
  6
CONTINUOUS
 10
5.235560
 20
2.849000
  0
VERTEX
  8
0
  6
CONTINUOUS
 10
5.836600
 20
2.482040
  0
VERTEX
  8
0
  6
CONTINUOUS
 10
5.787760
 20
2.430560
  0
VERTEX
  8
0
  6
CONTINUOUS
 10
5.187160
 20
2.797520
  0
VERTEX
  8
0
  6
CONTINUOUS
 10
5.235560
 20
2.849000
  0
SEQEND
  8
0
  0
SOLID
  8
0
 62
    15
 10
5.187160
 20
2.797520
 11
5.787760
 21
2.430560
 12
5.184080
 22
2.794440
 13
5.785120
 23
2.427480
  0
POLYLINE
  8
0
  6
CONTINUOUS
 66
     1
 40
0.000000
 41
0.000000
  0
VERTEX
  8
0
  6
CONTINUOUS
 10
5.187160
 20
2.797520
  0
VERTEX
  8
0
  6
CONTINUOUS
 10
5.787760
 20
2.430560
  0
VERTEX
  8
0
  6
CONTINUOUS
 10
5.785120
 20
2.427480
  0
VERTEX
  8
0
  6
CONTINUOUS
 10
5.184080
 20
2.794440
  0
VERTEX
  8
0
  6
CONTINUOUS
 10
5.187160
 20
2.797520
  0
SEQEND
  8
0
  0
SOLID
  8
0
 62
    15
 10
5.184080
 20
2.794440
 11
5.785120
 21
2.427480
 12
5.065280
 22
2.655400
 13
5.666320
 23
2.288440
  0
POLYLINE
  8
0
  6
CONTINUOUS
 66
     1
 40
0.000000
 41
0.000000
  0
VERTEX
  8
0
  6
CONTINUOUS
 10
5.184080
 20
2.794440
  0
VERTEX
  8
0
  6
CONTINUOUS
 10
5.785120
 20
2.427480
  0
VERTEX
  8
0
  6
CONTINUOUS
 10
5.666320
 20
2.288440
  0
VERTEX
  8
0
  6
CONTINUOUS
 10
5.065280
 20
2.655400
  0
VERTEX
  8
0
  6
CONTINUOUS
 10
5.184080
 20
2.794440
  0
SEQEND
  8
0
  0
SOLID
  8
0
 62
    15
 10
5.065280
 20
2.655400
 11
5.666320
 21
2.288440
 12
4.960560
 22
2.518560
 13
5.561600
 23
2.151600
  0
POLYLINE
  8
0
  6
CONTINUOUS
 66
     1
 40
0.000000
 41
0.000000
  0
VERTEX
  8
0
  6
CONTINUOUS
 10
5.065280
 20
2.655400
  0
VERTEX
  8
0
  6
CONTINUOUS
 10
5.666320
 20
2.288440
  0
VERTEX
  8
0
  6
CONTINUOUS
 10
5.561600
 20
2.151600
  0
VERTEX
  8
0
  6
CONTINUOUS
 10
4.960560
 20
2.518560
  0
VERTEX
  8
0
  6
CONTINUOUS
 10
5.065280
 20
2.655400
  0
SEQEND
  8
0
  0
SOLID
  8
0
 62
    15
 10
4.960560
 20
2.518560
 11
5.561600
 21
2.151600
 12
4.871240
 22
2.387880
 13
5.471840
 23
2.020920
  0
POLYLINE
  8
0
  6
CONTINUOUS
 66
     1
 40
0.000000
 41
0.000000
  0
VERTEX
  8
0
  6
CONTINUOUS
 10
4.960560
 20
2.518560
  0
VERTEX
  8
0
  6
CONTINUOUS
 10
5.561600
 20
2.151600
  0
VERTEX
  8
0
  6
CONTINUOUS
 10
5.471840
 20
2.020920
  0
VERTEX
  8
0
  6
CONTINUOUS
 10
4.871240
 20
2.387880
  0
VERTEX
  8
0
  6
CONTINUOUS
 10
4.960560
 20
2.518560
  0
SEQEND
  8
0
  0
SOLID
  8
0
 62
    15
 10
4.871240
 20
2.387880
 11
5.471840
 21
2.020920
 12
4.796880
 22
2.268200
 13
5.397920
 23
1.901240
  0
POLYLINE
  8
0
  6
CONTINUOUS
 66
     1
 40
0.000000
 41
0.000000
  0
VERTEX
  8
0
  6
CONTINUOUS
 10
4.871240
 20
2.387880
  0
VERTEX
  8
0
  6
CONTINUOUS
 10
5.471840
 20
2.020920
  0
VERTEX
  8
0
  6
CONTINUOUS
 10
5.397920
 20
1.901240
  0
VERTEX
  8
0
  6
CONTINUOUS
 10
4.796880
 20
2.268200
  0
VERTEX
  8
0
  6
CONTINUOUS
 10
4.871240
 20
2.387880
  0
SEQEND
  8
0
  0
SOLID
  8
0
 62
    15
 10
4.796880
 20
2.268200
 11
5.397920
 21
1.901240
 12
4.739680
 22
2.164360
 13
5.340280
 23
1.797400
  0
POLYLINE
  8
0
  6
CONTINUOUS
 66
     1
 40
0.000000
 41
0.000000
  0
VERTEX
  8
0
  6
CONTINUOUS
 10
4.796880
 20
2.268200
  0
VERTEX
  8
0
  6
CONTINUOUS
 10
5.397920
 20
1.901240
  0
VERTEX
  8
0
  6
CONTINUOUS
 10
5.340280
 20
1.797400
  0
VERTEX
  8
0
  6
CONTINUOUS
 10
4.739680
 20
2.164360
  0
VERTEX
  8
0
  6
CONTINUOUS
 10
4.796880
 20
2.268200
  0
SEQEND
  8
0
  0
SOLID
  8
0
 62
    15
 10
4.739680
 20
2.164360
 11
5.340280
 21
1.797400
 12
4.698760
 22
2.080760
 13
5.299800
 23
1.713800
  0
POLYLINE
  8
0
  6
CONTINUOUS
 66
     1
 40
0.000000
 41
0.000000
  0
VERTEX
  8
0
  6
CONTINUOUS
 10
4.739680
 20
2.164360
  0
VERTEX
  8
0
  6
CONTINUOUS
 10
5.340280
 20
1.797400
  0
VERTEX
  8
0
  6
CONTINUOUS
 10
5.299800
 20
1.713800
  0
VERTEX
  8
0
  6
CONTINUOUS
 10
4.698760
 20
2.080760
  0
VERTEX
  8
0
  6
CONTINUOUS
 10
4.739680
 20
2.164360
  0
SEQEND
  8
0
  0
SOLID
  8
0
 62
    15
 10
4.698760
 20
2.080760
 11
5.299800
 21
1.713800
 12
4.685120
 22
2.047760
 13
5.286160
 23
1.680800
  0
POLYLINE
  8
0
  6
CONTINUOUS
 66
     1
 40
0.000000
 41
0.000000
  0
VERTEX
  8
0
  6
CONTINUOUS
 10
4.698760
 20
2.080760
  0
VERTEX
  8
0
  6
CONTINUOUS
 10
5.299800
 20
1.713800
  0
VERTEX
  8
0
  6
CONTINUOUS
 10
5.286160
 20
1.680800
  0
VERTEX
  8
0
  6
CONTINUOUS
 10
4.685120
 20
2.047760
  0
VERTEX
  8
0
  6
CONTINUOUS
 10
4.698760
 20
2.080760
  0
SEQEND
  8
0
  0
SOLID
  8
0
 62
    15
 10
4.675880
 20
2.021800
 11
5.276480
 21
1.654840
 12
4.671040
 22
2.002880
 13
5.272080
 23
1.635920
  0
POLYLINE
  8
0
  6
CONTINUOUS
 66
     1
 40
0.000000
 41
0.000000
  0
VERTEX
  8
0
  6
CONTINUOUS
 10
4.675880
 20
2.021800
  0
VERTEX
  8
0
  6
CONTINUOUS
 10
5.276480
 20
1.654840
  0
VERTEX
  8
0
  6
CONTINUOUS
 10
5.272080
 20
1.635920
  0
VERTEX
  8
0
  6
CONTINUOUS
 10
4.671040
 20
2.002880
  0
VERTEX
  8
0
  6
CONTINUOUS
 10
4.675880
 20
2.021800
  0
SEQEND
  8
0
  0
SOLID
  8
0
 62
    15
 10
4.966280
 20
1.864720
 11
5.567320
 21
1.497760
 12
4.998400
 22
1.812800
 13
5.599000
 23
1.445840
  0
POLYLINE
  8
0
  6
CONTINUOUS
 66
     1
 40
0.000000
 41
0.000000
  0
VERTEX
  8
0
  6
CONTINUOUS
 10
4.966280
 20
1.864720
  0
VERTEX
  8
0
  6
CONTINUOUS
 10
5.567320
 20
1.497760
  0
VERTEX
  8
0
  6
CONTINUOUS
 10
5.599000
 20
1.445840
  0
VERTEX
  8
0
  6
CONTINUOUS
 10
4.998400
 20
1.812800
  0
VERTEX
  8
0
  6
CONTINUOUS
 10
4.966280
 20
1.864720
  0
SEQEND
  8
0
  0
SOLID
  8
0
 62
    15
 10
4.671040
 20
2.002880
 11
5.272080
 21
1.635920
 12
4.671040
 22
1.991880
 13
5.271640
 23
1.624920
  0
POLYLINE
  8
0
  6
CONTINUOUS
 66
     1
 40
0.000000
 41
0.000000
  0
VERTEX
  8
0
  6
CONTINUOUS
 10
4.671040
 20
2.002880
  0
VERTEX
  8
0
  6
CONTINUOUS
 10
5.272080
 20
1.635920
  0
VERTEX
  8
0
  6
CONTINUOUS
 10
5.271640
 20
1.624920
  0
VERTEX
  8
0
  6
CONTINUOUS
 10
4.671040
 20
1.991880
  0
VERTEX
  8
0
  6
CONTINUOUS
 10
4.671040
 20
2.002880
  0
SEQEND
  8
0
  0
SOLID
  8
0
 62
    15
 10
4.874760
 20
1.947440
 11
5.475800
 21
1.580480
 12
4.925360
 22
1.910040
 13
5.525960
 23
1.543080
  0
POLYLINE
  8
0
  6
CONTINUOUS
 66
     1
 40
0.000000
 41
0.000000
  0
VERTEX
  8
0
  6
CONTINUOUS
 10
4.874760
 20
1.947440
  0
VERTEX
  8
0
  6
CONTINUOUS
 10
5.475800
 20
1.580480
  0
VERTEX
  8
0
  6
CONTINUOUS
 10
5.525960
 20
1.543080
  0
VERTEX
  8
0
  6
CONTINUOUS
 10
4.925360
 20
1.910040
  0
VERTEX
  8
0
  6
CONTINUOUS
 10
4.874760
 20
1.947440
  0
SEQEND
  8
0
  0
SOLID
  8
0
 62
    15
 10
4.925360
 20
1.910040
 11
5.525960
 21
1.543080
 12
4.966280
 22
1.864720
 13
5.567320
 23
1.497760
  0
POLYLINE
  8
0
  6
CONTINUOUS
 66
     1
 40
0.000000
 41
0.000000
  0
VERTEX
  8
0
  6
CONTINUOUS
 10
4.925360
 20
1.910040
  0
VERTEX
  8
0
  6
CONTINUOUS
 10
5.525960
 20
1.543080
  0
VERTEX
  8
0
  6
CONTINUOUS
 10
5.567320
 20
1.497760
  0
VERTEX
  8
0
  6
CONTINUOUS
 10
4.966280
 20
1.864720
  0
VERTEX
  8
0
  6
CONTINUOUS
 10
4.925360
 20
1.910040
  0
SEQEND
  8
0
  0
SOLID
  8
0
 62
    15
 10
5.392200
 20
4.090680
 11
5.993240
 21
3.723720
 12
5.467440
 22
4.007080
 13
6.068480
 23
3.640120
  0
POLYLINE
  8
0
  6
CONTINUOUS
 66
     1
 40
0.000000
 41
0.000000
  0
VERTEX
  8
0
  6
CONTINUOUS
 10
5.392200
 20
4.090680
  0
VERTEX
  8
0
  6
CONTINUOUS
 10
5.993240
 20
3.723720
  0
VERTEX
  8
0
  6
CONTINUOUS
 10
6.068480
 20
3.640120
  0
VERTEX
  8
0
  6
CONTINUOUS
 10
5.467440
 20
4.007080
  0
VERTEX
  8
0
  6
CONTINUOUS
 10
5.392200
 20
4.090680
  0
SEQEND
  8
0
  0
SOLID
  8
0
 62
    15
 10
4.998400
 20
1.812800
 11
5.599000
 21
1.445840
 12
5.019960
 22
1.756920
 13
5.621000
 23
1.389960
  0
POLYLINE
  8
0
  6
CONTINUOUS
 66
     1
 40
0.000000
 41
0.000000
  0
VERTEX
  8
0
  6
CONTINUOUS
 10
4.998400
 20
1.812800
  0
VERTEX
  8
0
  6
CONTINUOUS
 10
5.599000
 20
1.445840
  0
VERTEX
  8
0
  6
CONTINUOUS
 10
5.621000
 20
1.389960
  0
VERTEX
  8
0
  6
CONTINUOUS
 10
5.019960
 20
1.756920
  0
VERTEX
  8
0
  6
CONTINUOUS
 10
4.998400
 20
1.812800
  0
SEQEND
  8
0
  0
SOLID
  8
0
 62
    15
 10
5.019960
 20
1.756920
 11
5.621000
 21
1.389960
 12
5.031840
 22
1.698840
 13
5.632880
 23
1.331880
  0
POLYLINE
  8
0
  6
CONTINUOUS
 66
     1
 40
0.000000
 41
0.000000
  0
VERTEX
  8
0
  6
CONTINUOUS
 10
5.019960
 20
1.756920
  0
VERTEX
  8
0
  6
CONTINUOUS
 10
5.621000
 20
1.389960
  0
VERTEX
  8
0
  6
CONTINUOUS
 10
5.632880
 20
1.331880
  0
VERTEX
  8
0
  6
CONTINUOUS
 10
5.031840
 20
1.698840
  0
VERTEX
  8
0
  6
CONTINUOUS
 10
5.019960
 20
1.756920
  0
SEQEND
  8
0
  0
SOLID
  8
0
 62
    15
 10
5.031840
 20
1.698840
 11
5.632880
 21
1.331880
 12
5.033600
 22
1.640320
 13
5.634200
 23
1.273360
  0
POLYLINE
  8
0
  6
CONTINUOUS
 66
     1
 40
0.000000
 41
0.000000
  0
VERTEX
  8
0
  6
CONTINUOUS
 10
5.031840
 20
1.698840
  0
VERTEX
  8
0
  6
CONTINUOUS
 10
5.632880
 20
1.331880
  0
VERTEX
  8
0
  6
CONTINUOUS
 10
5.634200
 20
1.273360
  0
VERTEX
  8
0
  6
CONTINUOUS
 10
5.033600
 20
1.640320
  0
VERTEX
  8
0
  6
CONTINUOUS
 10
5.031840
 20
1.698840
  0
SEQEND
  8
0
  0
SOLID
  8
0
 62
    15
 10
5.033600
 20
1.640320
 11
5.634200
 21
1.273360
 12
5.023920
 22
1.583120
 13
5.624960
 23
1.216160
  0
POLYLINE
  8
0
  6
CONTINUOUS
 66
     1
 40
0.000000
 41
0.000000
  0
VERTEX
  8
0
  6
CONTINUOUS
 10
5.033600
 20
1.640320
  0
VERTEX
  8
0
  6
CONTINUOUS
 10
5.634200
 20
1.273360
  0
VERTEX
  8
0
  6
CONTINUOUS
 10
5.624960
 20
1.216160
  0
VERTEX
  8
0
  6
CONTINUOUS
 10
5.023920
 20
1.583120
  0
VERTEX
  8
0
  6
CONTINUOUS
 10
5.033600
 20
1.640320
  0
SEQEND
  8
0
  0
SOLID
  8
0
 62
    15
 10
5.023920
 20
1.583120
 11
5.624960
 21
1.216160
 12
5.003680
 22
1.529880
 13
5.604280
 23
1.162920
  0
POLYLINE
  8
0
  6
CONTINUOUS
 66
     1
 40
0.000000
 41
0.000000
  0
VERTEX
  8
0
  6
CONTINUOUS
 10
5.023920
 20
1.583120
  0
VERTEX
  8
0
  6
CONTINUOUS
 10
5.624960
 20
1.216160
  0
VERTEX
  8
0
  6
CONTINUOUS
 10
5.604280
 20
1.162920
  0
VERTEX
  8
0
  6
CONTINUOUS
 10
5.003680
 20
1.529880
  0
VERTEX
  8
0
  6
CONTINUOUS
 10
5.023920
 20
1.583120
  0
SEQEND
  8
0
  0
SOLID
  8
0
 62
    15
 10
5.003680
 20
1.529880
 11
5.604280
 21
1.162920
 12
4.971560
 22
1.481920
 13
5.572600
 23
1.114960
  0
POLYLINE
  8
0
  6
CONTINUOUS
 66
     1
 40
0.000000
 41
0.000000
  0
VERTEX
  8
0
  6
CONTINUOUS
 10
5.003680
 20
1.529880
  0
VERTEX
  8
0
  6
CONTINUOUS
 10
5.604280
 20
1.162920
  0
VERTEX
  8
0
  6
CONTINUOUS
 10
5.572600
 20
1.114960
  0
VERTEX
  8
0
  6
CONTINUOUS
 10
4.971560
 20
1.481920
  0
VERTEX
  8
0
  6
CONTINUOUS
 10
5.003680
 20
1.529880
  0
SEQEND
  8
0
  0
SOLID
  8
0
 62
    15
 10
4.971560
 20
1.481920
 11
5.572600
 21
1.114960
 12
4.928000
 22
1.441000
 13
5.528600
 23
1.074040
  0
POLYLINE
  8
0
  6
CONTINUOUS
 66
     1
 40
0.000000
 41
0.000000
  0
VERTEX
  8
0
  6
CONTINUOUS
 10
4.971560
 20
1.481920
  0
VERTEX
  8
0
  6
CONTINUOUS
 10
5.572600
 20
1.114960
  0
VERTEX
  8
0
  6
CONTINUOUS
 10
5.528600
 20
1.074040
  0
VERTEX
  8
0
  6
CONTINUOUS
 10
4.928000
 20
1.441000
  0
VERTEX
  8
0
  6
CONTINUOUS
 10
4.971560
 20
1.481920
  0
SEQEND
  8
0
  0
SOLID
  8
0
 62
    15
 10
4.928000
 20
1.441000
 11
5.528600
 21
1.074040
 12
4.872120
 22
1.409760
 13
5.473160
 23
1.042800
  0
POLYLINE
  8
0
  6
CONTINUOUS
 66
     1
 40
0.000000
 41
0.000000
  0
VERTEX
  8
0
  6
CONTINUOUS
 10
4.928000
 20
1.441000
  0
VERTEX
  8
0
  6
CONTINUOUS
 10
5.528600
 20
1.074040
  0
VERTEX
  8
0
  6
CONTINUOUS
 10
5.473160
 20
1.042800
  0
VERTEX
  8
0
  6
CONTINUOUS
 10
4.872120
 20
1.409760
  0
VERTEX
  8
0
  6
CONTINUOUS
 10
4.928000
 20
1.441000
  0
SEQEND
  8
0
  0
SOLID
  8
0
 62
    15
 10
4.872120
 20
1.409760
 11
5.473160
 21
1.042800
 12
4.803920
 22
1.389520
 13
5.404960
 23
1.022560
  0
POLYLINE
  8
0
  6
CONTINUOUS
 66
     1
 40
0.000000
 41
0.000000
  0
VERTEX
  8
0
  6
CONTINUOUS
 10
4.872120
 20
1.409760
  0
VERTEX
  8
0
  6
CONTINUOUS
 10
5.473160
 20
1.042800
  0
VERTEX
  8
0
  6
CONTINUOUS
 10
5.404960
 20
1.022560
  0
VERTEX
  8
0
  6
CONTINUOUS
 10
4.803920
 20
1.389520
  0
VERTEX
  8
0
  6
CONTINUOUS
 10
4.872120
 20
1.409760
  0
SEQEND
  8
0
  0
SOLID
  8
0
 62
    15
 10
4.803920
 20
1.389520
 11
5.404960
 21
1.022560
 12
4.722960
 22
1.382480
 13
5.324000
 23
1.015520
  0
POLYLINE
  8
0
  6
CONTINUOUS
 66
     1
 40
0.000000
 41
0.000000
  0
VERTEX
  8
0
  6
CONTINUOUS
 10
4.803920
 20
1.389520
  0
VERTEX
  8
0
  6
CONTINUOUS
 10
5.404960
 20
1.022560
  0
VERTEX
  8
0
  6
CONTINUOUS
 10
5.324000
 20
1.015520
  0
VERTEX
  8
0
  6
CONTINUOUS
 10
4.722960
 20
1.382480
  0
VERTEX
  8
0
  6
CONTINUOUS
 10
4.803920
 20
1.389520
  0
SEQEND
  8
0
  0
SOLID
  8
0
 62
    15
 10
4.722960
 20
1.382480
 11
5.324000
 21
1.015520
 12
4.721640
 22
1.381160
 13
5.322680
 23
1.014200
  0
POLYLINE
  8
0
  6
CONTINUOUS
 66
     1
 40
0.000000
 41
0.000000
  0
VERTEX
  8
0
  6
CONTINUOUS
 10
4.722960
 20
1.382480
  0
VERTEX
  8
0
  6
CONTINUOUS
 10
5.324000
 20
1.015520
  0
VERTEX
  8
0
  6
CONTINUOUS
 10
5.322680
 20
1.014200
  0
VERTEX
  8
0
  6
CONTINUOUS
 10
4.721640
 20
1.381160
  0
VERTEX
  8
0
  6
CONTINUOUS
 10
4.722960
 20
1.382480
  0
SEQEND
  8
0
  0
SOLID
  8
0
 62
    15
 10
4.721640
 20
1.381160
 11
5.322680
 21
1.014200
 12
4.721640
 22
1.237280
 13
5.322680
 23
0.870320
  0
POLYLINE
  8
0
  6
CONTINUOUS
 66
     1
 40
0.000000
 41
0.000000
  0
VERTEX
  8
0
  6
CONTINUOUS
 10
4.721640
 20
1.381160
  0
VERTEX
  8
0
  6
CONTINUOUS
 10
5.322680
 20
1.014200
  0
VERTEX
  8
0
  6
CONTINUOUS
 10
5.322680
 20
0.870320
  0
VERTEX
  8
0
  6
CONTINUOUS
 10
4.721640
 20
1.237280
  0
VERTEX
  8
0
  6
CONTINUOUS
 10
4.721640
 20
1.381160
  0
SEQEND
  8
0
  0
SOLID
  8
0
 62
    15
 10
4.721640
 20
1.237280
 11
5.322680
 21
0.870320
 12
4.643320
 22
1.223200
 13
5.244360
 23
0.855800
  0
POLYLINE
  8
0
  6
CONTINUOUS
 66
     1
 40
0.000000
 41
0.000000
  0
VERTEX
  8
0
  6
CONTINUOUS
 10
4.721640
 20
1.237280
  0
VERTEX
  8
0
  6
CONTINUOUS
 10
5.322680
 20
0.870320
  0
VERTEX
  8
0
  6
CONTINUOUS
 10
5.244360
 20
0.855800
  0
VERTEX
  8
0
  6
CONTINUOUS
 10
4.643320
 20
1.223200
  0
VERTEX
  8
0
  6
CONTINUOUS
 10
4.721640
 20
1.237280
  0
SEQEND
  8
0
  0
SOLID
  8
0
 62
    15
 10
4.643320
 20
1.223200
 11
5.244360
 21
0.855800
 12
4.571600
 22
1.198560
 13
5.172640
 23
0.831600
  0
POLYLINE
  8
0
  6
CONTINUOUS
 66
     1
 40
0.000000
 41
0.000000
  0
VERTEX
  8
0
  6
CONTINUOUS
 10
4.643320
 20
1.223200
  0
VERTEX
  8
0
  6
CONTINUOUS
 10
5.244360
 20
0.855800
  0
VERTEX
  8
0
  6
CONTINUOUS
 10
5.172640
 20
0.831600
  0
VERTEX
  8
0
  6
CONTINUOUS
 10
4.571600
 20
1.198560
  0
VERTEX
  8
0
  6
CONTINUOUS
 10
4.643320
 20
1.223200
  0
SEQEND
  8
0
  0
SOLID
  8
0
 62
    15
 10
4.571600
 20
1.198560
 11
5.172640
 21
0.831600
 12
4.507360
 22
1.164240
 13
5.108400
 23
0.797280
  0
POLYLINE
  8
0
  6
CONTINUOUS
 66
     1
 40
0.000000
 41
0.000000
  0
VERTEX
  8
0
  6
CONTINUOUS
 10
4.571600
 20
1.198560
  0
VERTEX
  8
0
  6
CONTINUOUS
 10
5.172640
 20
0.831600
  0
VERTEX
  8
0
  6
CONTINUOUS
 10
5.108400
 20
0.797280
  0
VERTEX
  8
0
  6
CONTINUOUS
 10
4.507360
 20
1.164240
  0
VERTEX
  8
0
  6
CONTINUOUS
 10
4.571600
 20
1.198560
  0
SEQEND
  8
0
  0
SOLID
  8
0
 62
    15
 10
4.507360
 20
1.164240
 11
5.108400
 21
0.797280
 12
4.452360
 22
1.121560
 13
5.052960
 23
0.754600
  0
POLYLINE
  8
0
  6
CONTINUOUS
 66
     1
 40
0.000000
 41
0.000000
  0
VERTEX
  8
0
  6
CONTINUOUS
 10
4.507360
 20
1.164240
  0
VERTEX
  8
0
  6
CONTINUOUS
 10
5.108400
 20
0.797280
  0
VERTEX
  8
0
  6
CONTINUOUS
 10
5.052960
 20
0.754600
  0
VERTEX
  8
0
  6
CONTINUOUS
 10
4.452360
 20
1.121560
  0
VERTEX
  8
0
  6
CONTINUOUS
 10
4.507360
 20
1.164240
  0
SEQEND
  8
0
  0
SOLID
  8
0
 62
    15
 10
4.452360
 20
1.121560
 11
5.052960
 21
0.754600
 12
4.407040
 22
1.070960
 13
5.007640
 23
0.704000
  0
POLYLINE
  8
0
  6
CONTINUOUS
 66
     1
 40
0.000000
 41
0.000000
  0
VERTEX
  8
0
  6
CONTINUOUS
 10
4.452360
 20
1.121560
  0
VERTEX
  8
0
  6
CONTINUOUS
 10
5.052960
 20
0.754600
  0
VERTEX
  8
0
  6
CONTINUOUS
 10
5.007640
 20
0.704000
  0
VERTEX
  8
0
  6
CONTINUOUS
 10
4.407040
 20
1.070960
  0
VERTEX
  8
0
  6
CONTINUOUS
 10
4.452360
 20
1.121560
  0
SEQEND
  8
0
  0
SOLID
  8
0
 62
    15
 10
4.407040
 20
1.070960
 11
5.007640
 21
0.704000
 12
4.372720
 22
1.012880
 13
4.973760
 23
0.645920
  0
POLYLINE
  8
0
  6
CONTINUOUS
 66
     1
 40
0.000000
 41
0.000000
  0
VERTEX
  8
0
  6
CONTINUOUS
 10
4.407040
 20
1.070960
  0
VERTEX
  8
0
  6
CONTINUOUS
 10
5.007640
 20
0.704000
  0
VERTEX
  8
0
  6
CONTINUOUS
 10
4.973760
 20
0.645920
  0
VERTEX
  8
0
  6
CONTINUOUS
 10
4.372720
 20
1.012880
  0
VERTEX
  8
0
  6
CONTINUOUS
 10
4.407040
 20
1.070960
  0
SEQEND
  8
0
  0
SOLID
  8
0
 62
    15
 10
4.372720
 20
1.012880
 11
4.973760
 21
0.645920
 12
4.351160
 22
0.948640
 13
4.951760
 23
0.581680
  0
POLYLINE
  8
0
  6
CONTINUOUS
 66
     1
 40
0.000000
 41
0.000000
  0
VERTEX
  8
0
  6
CONTINUOUS
 10
4.372720
 20
1.012880
  0
VERTEX
  8
0
  6
CONTINUOUS
 10
4.973760
 20
0.645920
  0
VERTEX
  8
0
  6
CONTINUOUS
 10
4.951760
 20
0.581680
  0
VERTEX
  8
0
  6
CONTINUOUS
 10
4.351160
 20
0.948640
  0
VERTEX
  8
0
  6
CONTINUOUS
 10
4.372720
 20
1.012880
  0
SEQEND
  8
0
  0
SOLID
  8
0
 62
    15
 10
4.351160
 20
0.948640
 11
4.951760
 21
0.581680
 12
4.342800
 22
0.878680
 13
4.943840
 23
0.511720
  0
POLYLINE
  8
0
  6
CONTINUOUS
 66
     1
 40
0.000000
 41
0.000000
  0
VERTEX
  8
0
  6
CONTINUOUS
 10
4.351160
 20
0.948640
  0
VERTEX
  8
0
  6
CONTINUOUS
 10
4.951760
 20
0.581680
  0
VERTEX
  8
0
  6
CONTINUOUS
 10
4.943840
 20
0.511720
  0
VERTEX
  8
0
  6
CONTINUOUS
 10
4.342800
 20
0.878680
  0
VERTEX
  8
0
  6
CONTINUOUS
 10
4.351160
 20
0.948640
  0
SEQEND
  8
0
  0
SOLID
  8
0
 62
    15
 10
4.342800
 20
0.878680
 11
4.943840
 21
0.511720
 12
4.342800
 22
0.874720
 13
4.943840
 23
0.507760
  0
POLYLINE
  8
0
  6
CONTINUOUS
 66
     1
 40
0.000000
 41
0.000000
  0
VERTEX
  8
0
  6
CONTINUOUS
 10
4.342800
 20
0.878680
  0
VERTEX
  8
0
  6
CONTINUOUS
 10
4.943840
 20
0.511720
  0
VERTEX
  8
0
  6
CONTINUOUS
 10
4.943840
 20
0.507760
  0
VERTEX
  8
0
  6
CONTINUOUS
 10
4.342800
 20
0.874720
  0
VERTEX
  8
0
  6
CONTINUOUS
 10
4.342800
 20
0.878680
  0
SEQEND
  8
0
  0
SOLID
  8
0
 62
    15
 10
4.342800
 20
0.874720
 11
4.943840
 21
0.507760
 12
4.032160
 22
0.874720
 13
4.633200
 23
0.507760
  0
POLYLINE
  8
0
  6
CONTINUOUS
 66
     1
 40
0.000000
 41
0.000000
  0
VERTEX
  8
0
  6
CONTINUOUS
 10
4.342800
 20
0.874720
  0
VERTEX
  8
0
  6
CONTINUOUS
 10
4.943840
 20
0.507760
  0
VERTEX
  8
0
  6
CONTINUOUS
 10
4.633200
 20
0.507760
  0
VERTEX
  8
0
  6
CONTINUOUS
 10
4.032160
 20
0.874720
  0
VERTEX
  8
0
  6
CONTINUOUS
 10
4.342800
 20
0.874720
  0
SEQEND
  8
0
  0
SOLID
  8
0
 62
    15
 10
5.570840
 20
4.953080
 11
6.171880
 21
4.586120
 12
5.570840
 22
4.218720
 13
6.171880
 23
3.851760
  0
POLYLINE
  8
0
  6
CONTINUOUS
 66
     1
 40
0.000000
 41
0.000000
  0
VERTEX
  8
0
  6
CONTINUOUS
 10
5.570840
 20
4.953080
  0
VERTEX
  8
0
  6
CONTINUOUS
 10
6.171880
 20
4.586120
  0
VERTEX
  8
0
  6
CONTINUOUS
 10
6.171880
 20
3.851760
  0
VERTEX
  8
0
  6
CONTINUOUS
 10
5.570840
 20
4.218720
  0
VERTEX
  8
0
  6
CONTINUOUS
 10
5.570840
 20
4.953080
  0
SEQEND
  8
0
  0
SOLID
  8
0
 62
    15
 10
5.570840
 20
4.218720
 11
6.171880
 21
3.851760
 12
5.388240
 22
4.218720
 13
5.989280
 23
3.851760
  0
POLYLINE
  8
0
  6
CONTINUOUS
 66
     1
 40
0.000000
 41
0.000000
  0
VERTEX
  8
0
  6
CONTINUOUS
 10
5.570840
 20
4.218720
  0
VERTEX
  8
0
  6
CONTINUOUS
 10
6.171880
 20
3.851760
  0
VERTEX
  8
0
  6
CONTINUOUS
 10
5.989280
 20
3.851760
  0
VERTEX
  8
0
  6
CONTINUOUS
 10
5.388240
 20
4.218720
  0
VERTEX
  8
0
  6
CONTINUOUS
 10
5.570840
 20
4.218720
  0
SEQEND
  8
0
  0
SOLID
  8
0
 62
    15
 10
5.388240
 20
4.218720
 11
5.989280
 21
3.851760
 12
5.388240
 22
4.097280
 13
5.989280
 23
3.730320
  0
POLYLINE
  8
0
  6
CONTINUOUS
 66
     1
 40
0.000000
 41
0.000000
  0
VERTEX
  8
0
  6
CONTINUOUS
 10
5.388240
 20
4.218720
  0
VERTEX
  8
0
  6
CONTINUOUS
 10
5.989280
 20
3.851760
  0
VERTEX
  8
0
  6
CONTINUOUS
 10
5.989280
 20
3.730320
  0
VERTEX
  8
0
  6
CONTINUOUS
 10
5.388240
 20
4.097280
  0
VERTEX
  8
0
  6
CONTINUOUS
 10
5.388240
 20
4.218720
  0
SEQEND
  8
0
  0
SOLID
  8
0
 62
    15
 10
5.388240
 20
4.097280
 11
5.989280
 21
3.730320
 12
5.392200
 22
4.090680
 13
5.993240
 23
3.723720
  0
POLYLINE
  8
0
  6
CONTINUOUS
 66
     1
 40
0.000000
 41
0.000000
  0
VERTEX
  8
0
  6
CONTINUOUS
 10
5.388240
 20
4.097280
  0
VERTEX
  8
0
  6
CONTINUOUS
 10
5.989280
 20
3.730320
  0
VERTEX
  8
0
  6
CONTINUOUS
 10
5.993240
 20
3.723720
  0
VERTEX
  8
0
  6
CONTINUOUS
 10
5.392200
 20
4.090680
  0
VERTEX
  8
0
  6
CONTINUOUS
 10
5.388240
 20
4.097280
  0
SEQEND
  8
0
  0
POLYLINE
  8
0
  6
CONTINUOUS
 66
     1
 40
0.000000
 41
0.000000
  0
VERTEX
  8
0
  6
CONTINUOUS
 10
5.392200
 20
4.090680
  0
VERTEX
  8
0
  6
CONTINUOUS
 10
5.467440
 20
4.007080
  0
VERTEX
  8
0
  6
CONTINUOUS
 10
5.524200
 20
3.920840
  0
VERTEX
  8
0
  6
CONTINUOUS
 10
5.563800
 20
3.831520
  0
VERTEX
  8
0
  6
CONTINUOUS
 10
5.587120
 20
3.740880
  0
VERTEX
  8
0
  6
CONTINUOUS
 10
5.596800
 20
3.649360
  0
VERTEX
  8
0
  6
CONTINUOUS
 10
5.593280
 20
3.557400
  0
VERTEX
  8
0
  6
CONTINUOUS
 10
5.578760
 20
3.466320
  0
VERTEX
  8
0
  6
CONTINUOUS
 10
5.554120
 20
3.376560
  0
VERTEX
  8
0
  6
CONTINUOUS
 10
5.521560
 20
3.288560
  0
VERTEX
  8
0
  6
CONTINUOUS
 10
5.481960
 20
3.203640
  0
VERTEX
  8
0
  6
CONTINUOUS
 10
5.388680
 20
3.045680
  0
VERTEX
  8
0
  6
CONTINUOUS
 10
5.286160
 20
2.907960
  0
VERTEX
  8
0
  6
CONTINUOUS
 10
5.235560
 20
2.849000
  0
VERTEX
  8
0
  6
CONTINUOUS
 10
5.184080
 20
2.794440
  0
VERTEX
  8
0
  6
CONTINUOUS
 10
5.065280
 20
2.655400
  0
VERTEX
  8
0
  6
CONTINUOUS
 10
4.960560
 20
2.518560
  0
VERTEX
  8
0
  6
CONTINUOUS
 10
4.871240
 20
2.387880
  0
VERTEX
  8
0
  6
CONTINUOUS
 10
4.796880
 20
2.268200
  0
VERTEX
  8
0
  6
CONTINUOUS
 10
4.739680
 20
2.164360
  0
VERTEX
  8
0
  6
CONTINUOUS
 10
4.698760
 20
2.080760
  0
VERTEX
  8
0
  6
CONTINUOUS
 10
4.675880
 20
2.021800
  0
VERTEX
  8
0
  6
CONTINUOUS
 10
4.671040
 20
2.002880
  0
VERTEX
  8
0
  6
CONTINUOUS
 10
4.671040
 20
1.991880
  0
VERTEX
  8
0
  6
CONTINUOUS
 10
4.748040
 20
1.990560
  0
VERTEX
  8
0
  6
CONTINUOUS
 10
4.815800
 20
1.975160
  0
VERTEX
  8
0
  6
CONTINUOUS
 10
4.874760
 20
1.947440
  0
VERTEX
  8
0
  6
CONTINUOUS
 10
4.925360
 20
1.910040
  0
VERTEX
  8
0
  6
CONTINUOUS
 10
4.966280
 20
1.864720
  0
VERTEX
  8
0
  6
CONTINUOUS
 10
4.998400
 20
1.812800
  0
VERTEX
  8
0
  6
CONTINUOUS
 10
5.019960
 20
1.756920
  0
VERTEX
  8
0
  6
CONTINUOUS
 10
5.031840
 20
1.698840
  0
VERTEX
  8
0
  6
CONTINUOUS
 10
5.033600
 20
1.640320
  0
VERTEX
  8
0
  6
CONTINUOUS
 10
5.023920
 20
1.583120
  0
VERTEX
  8
0
  6
CONTINUOUS
 10
5.003680
 20
1.529880
  0
VERTEX
  8
0
  6
CONTINUOUS
 10
4.971560
 20
1.481920
  0
VERTEX
  8
0
  6
CONTINUOUS
 10
4.928000
 20
1.441000
  0
VERTEX
  8
0
  6
CONTINUOUS
 10
4.872120
 20
1.409760
  0
VERTEX
  8
0
  6
CONTINUOUS
 10
4.803920
 20
1.389520
  0
VERTEX
  8
0
  6
CONTINUOUS
 10
4.722960
 20
1.382480
  0
VERTEX
  8
0
  6
CONTINUOUS
 10
4.721640
 20
1.381160
  0
VERTEX
  8
0
  6
CONTINUOUS
 10
4.721640
 20
1.237280
  0
VERTEX
  8
0
  6
CONTINUOUS
 10
4.643320
 20
1.223200
  0
VERTEX
  8
0
  6
CONTINUOUS
 10
4.571600
 20
1.198560
  0
VERTEX
  8
0
  6
CONTINUOUS
 10
4.507360
 20
1.164240
  0
VERTEX
  8
0
  6
CONTINUOUS
 10
4.452360
 20
1.121560
  0
VERTEX
  8
0
  6
CONTINUOUS
 10
4.407040
 20
1.070960
  0
VERTEX
  8
0
  6
CONTINUOUS
 10
4.372720
 20
1.012880
  0
VERTEX
  8
0
  6
CONTINUOUS
 10
4.351160
 20
0.948640
  0
VERTEX
  8
0
  6
CONTINUOUS
 10
4.342800
 20
0.874720
  0
VERTEX
  8
0
  6
CONTINUOUS
 10
4.032160
 20
0.874720
  0
VERTEX
  8
0
  6
CONTINUOUS
 10
4.032160
 20
4.953080
  0
VERTEX
  8
0
  6
CONTINUOUS
 10
5.570840
 20
4.953080
  0
VERTEX
  8
0
  6
CONTINUOUS
 10
5.570840
 20
4.218720
  0
VERTEX
  8
0
  6
CONTINUOUS
 10
5.388240
 20
4.218720
  0
VERTEX
  8
0
  6
CONTINUOUS
 10
5.388240
 20
4.097280
  0
VERTEX
  8
0
  6
CONTINUOUS
 10
5.392200
 20
4.090680
  0
SEQEND
  8
0
  0
TEXT
  8
0
 10
5.961120
 20
0.713680
 40
0.138080
  1
BA  38
 41
1.000000
  7
SN0
 71
     0
 72
     5
 11
6.459828
 21
0.713680
  0
TEXT
  8
0
 10
5.639040
 20
0.522280
 40
0.138080
  1
1-9/16" x 4-1/8"
 41
1.000000
  7
SN0
 71
     0
 72
     5
 11
6.780838
 21
0.522280
  0
ENDSEC
  0
EOF
