  0
SECTION
  2
HEADER
  9
$ACADVER
  1
AC1006
  9
$EXTMIN
 10
2.148520
 20
1.835240
  9
$EXTMAX
 10
6.027560
 20
5.059120
  9
$LTSCALE
 40
0.044000
  9
$PDMODE
 70
    35
  9
$PDSIZE
 40
0.035200
  0
ENDSEC
  0
SECTION
  2
TABLES
  0
TABLE
  2
LTYPE
 70
     9
  0
LTYPE
  2
CONTINUOUS
 70
    64
  3
Solid line
 72
    65
 73
     0
 40
0.000000
  0
LTYPE
  2
DASHED
 70
    64
  3
__ __ __ __ __ __ __ __ __ __ __ __ __ __ __
 72
    65
 73
     2
 40
0.000330
 49
0.000220
 49
-0.000110
  0
LTYPE
  2
HIDDEN
 70
    64
  3
 _ _ _ _ _ _ _ _ _ _ _ _ _ _ _ _ _ _ _ _ _ _
 72
    65
 73
     2
 40
0.000165
 49
0.000110
 49
-0.000055
  0
LTYPE
  2
CENTER
 70
    64
  3
____ _ ____ _ ____ _ ____ _ ____ _ ____ _ ____
 72
    65
 73
     4
 40
0.000880
 49
0.000550
 49
-0.000110
 49
0.000110
 49
-0.000110
  0
LTYPE
  2
PHANTOM
 70
    64
  3
_____ _ _ _____ _ _ _____ _ _ _____ _ _ ____
 72
    65
 73
     6
 40
0.001100
 49
0.000550
 49
-0.000110
 49
0.000110
 49
-0.000110
 49
0.000110
 49
-0.000110
  0
LTYPE
  2
DOT
 70
    64
  3
...............................................
 72
    65
 73
     2
 40
0.000110
 49
0.000000
 49
-0.000110
  0
LTYPE
  2
DASHDOT
 70
    64
  3
__ . __ . __ . __ . __ . __ . __ . __ . __ . __
 72
    65
 73
     4
 40
0.000440
 49
0.000220
 49
-0.000110
 49
0.000000
 49
-0.000110
  0
LTYPE
  2
BORDER
 70
    64
  3
__ __ . __ __ . __ __ . __ __ . __ __ . __ __
 72
    65
 73
     6
 40
0.000770
 49
0.000220
 49
-0.000110
 49
0.000220
 49
-0.000110
 49
0.000000
 49
-0.000110
  0
LTYPE
  2
DIVIDE
 70
    64
  3
__ . . __ . . __ . . __ . . __ . . __ . . __
 72
    65
 73
     6
 40
0.000550
 49
0.000220
 49
-0.000110
 49
0.000000
 49
-0.000110
 49
0.000000
 49
-0.000110
  0
LTYPE
  2
DOTDOT
 70
    64
  3
 . .  . .  . .  . .  . .  . . 
 72
    65
 73
     5
 40
0.000242
 49
-0.000110
 49
0.000000
 49
-0.000110
 49
0.000000
 49
-0.000110
  0
ENDTAB
  0
TABLE
  2
STYLE
 70
     2
  0
STYLE
 70
     0
  2
SN0
 40
0.000000
 41
0.000440
 50
0.000000
 71
     0
 42
0.000000
  3
ROMAND
  0
STYLE
 70
    68
  2
SV0
 40
0.000000
 41
0.000440
 50
0.000000
 71
     0
 42
0.000000
  3
ROMAND
  0
ENDTAB
  0
TABLE
  2
LAYER
 70
     3
  0
LAYER
  2
FOREGROUND
 70
    64
 62
     7
  6
CONTINUOUS
  0
LAYER
  2
BACKGROUND
 70
    65
 62
    -7
  6
CONTINUOUS
  0
LAYER
  2
0
 70
    64
 62
     7
  6
CONTINUOUS
  0
ENDTAB
  0
ENDSEC
  0
SECTION
  2
ENTITIES
  0
POLYLINE
  8
FOREGROUND
  6
CONTINUOUS
 66
     1
 40
0.000000
 41
0.000000
  0
VERTEX
  8
FOREGROUND
  6
CONTINUOUS
 10
0.000000
 20
6.894360
  0
VERTEX
  8
FOREGROUND
  6
CONTINUOUS
 10
8.499920
 20
6.894360
  0
VERTEX
  8
FOREGROUND
  6
CONTINUOUS
 10
8.499920
 20
-4.105640
  0
VERTEX
  8
FOREGROUND
  6
CONTINUOUS
 10
0.000000
 20
-4.105640
  0
VERTEX
  8
FOREGROUND
  6
CONTINUOUS
 10
0.000000
 20
6.894360
  0
SEQEND
  8
0
  0
POLYLINE
  8
FOREGROUND
  6
CONTINUOUS
 66
     1
 40
0.000000
 41
0.000000
  0
VERTEX
  8
FOREGROUND
  6
CONTINUOUS
 10
0.000000
 20
6.894360
  0
VERTEX
  8
FOREGROUND
  6
CONTINUOUS
 10
8.499920
 20
6.894360
  0
VERTEX
  8
FOREGROUND
  6
CONTINUOUS
 10
8.499920
 20
-4.105640
  0
VERTEX
  8
FOREGROUND
  6
CONTINUOUS
 10
0.000000
 20
-4.105640
  0
VERTEX
  8
FOREGROUND
  6
CONTINUOUS
 10
0.000000
 20
6.894360
  0
SEQEND
  8
0
  0
POLYLINE
  8
0
  6
CONTINUOUS
 66
     1
 40
0.014080
 41
0.014080
  0
VERTEX
  8
0
  6
CONTINUOUS
 10
5.093440
 20
4.740560
  0
VERTEX
  8
0
  6
CONTINUOUS
 10
5.035800
 20
4.777520
  0
VERTEX
  8
0
  6
CONTINUOUS
 10
4.977280
 20
4.812280
  0
VERTEX
  8
0
  6
CONTINUOUS
 10
4.918760
 20
4.844400
  0
VERTEX
  8
0
  6
CONTINUOUS
 10
4.859800
 20
4.874320
  0
VERTEX
  8
0
  6
CONTINUOUS
 10
4.800840
 20
4.901600
  0
VERTEX
  8
0
  6
CONTINUOUS
 10
4.741000
 20
4.926680
  0
VERTEX
  8
0
  6
CONTINUOUS
 10
4.681600
 20
4.949560
  0
VERTEX
  8
0
  6
CONTINUOUS
 10
4.621760
 20
4.969800
  0
VERTEX
  8
0
  6
CONTINUOUS
 10
4.561920
 20
4.988280
  0
VERTEX
  8
0
  6
CONTINUOUS
 10
4.502080
 20
5.004120
  0
VERTEX
  8
0
  6
CONTINUOUS
 10
4.442240
 20
5.017320
  0
VERTEX
  8
0
  6
CONTINUOUS
 10
4.382400
 20
5.028760
  0
VERTEX
  8
0
  6
CONTINUOUS
 10
4.323000
 20
5.038000
  0
VERTEX
  8
0
  6
CONTINUOUS
 10
4.263600
 20
5.044600
  0
VERTEX
  8
0
  6
CONTINUOUS
 10
4.204640
 20
5.049000
  0
VERTEX
  8
0
  6
CONTINUOUS
 10
4.146120
 20
5.051640
  0
VERTEX
  8
0
  6
CONTINUOUS
 10
4.087600
 20
5.051640
  0
VERTEX
  8
0
  6
CONTINUOUS
 10
4.029520
 20
5.049440
  0
VERTEX
  8
0
  6
CONTINUOUS
 10
3.972320
 20
5.045480
  0
VERTEX
  8
0
  6
CONTINUOUS
 10
3.915560
 20
5.038880
  0
VERTEX
  8
0
  6
CONTINUOUS
 10
3.859240
 20
5.030520
  0
VERTEX
  8
0
  6
CONTINUOUS
 10
3.803800
 20
5.019960
  0
VERTEX
  8
0
  6
CONTINUOUS
 10
3.748800
 20
5.007200
  0
VERTEX
  8
0
  6
CONTINUOUS
 10
3.694680
 20
4.992240
  0
VERTEX
  8
0
  6
CONTINUOUS
 10
3.641440
 20
4.975520
  0
VERTEX
  8
0
  6
CONTINUOUS
 10
3.589080
 20
4.956600
  0
VERTEX
  8
0
  6
CONTINUOUS
 10
3.538040
 20
4.935480
  0
VERTEX
  8
0
  6
CONTINUOUS
 10
3.487440
 20
4.912600
  0
VERTEX
  8
0
  6
CONTINUOUS
 10
3.438160
 20
4.887520
  0
VERTEX
  8
0
  6
CONTINUOUS
 10
3.390200
 20
4.860680
  0
VERTEX
  8
0
  6
CONTINUOUS
 10
3.343120
 20
4.831640
  0
VERTEX
  8
0
  6
CONTINUOUS
 10
3.297360
 20
4.800400
  0
VERTEX
  8
0
  6
CONTINUOUS
 10
3.272280
 20
4.791600
  0
VERTEX
  8
0
  6
CONTINUOUS
 10
3.248960
 20
4.788520
  0
VERTEX
  8
0
  6
CONTINUOUS
 10
3.234440
 20
4.788960
  0
VERTEX
  8
0
  6
CONTINUOUS
 10
3.208920
 20
4.794680
  0
VERTEX
  8
0
  6
CONTINUOUS
 10
3.187360
 20
4.805240
  0
VERTEX
  8
0
  6
CONTINUOUS
 10
3.169760
 20
4.817560
  0
VERTEX
  8
0
  6
CONTINUOUS
 10
3.144240
 20
4.841760
  0
VERTEX
  8
0
  6
CONTINUOUS
 10
2.995080
 20
5.035360
  0
VERTEX
  8
0
  6
CONTINUOUS
 10
2.986720
 20
5.036680
  0
VERTEX
  8
0
  6
CONTINUOUS
 10
2.201760
 20
5.036680
  0
VERTEX
  8
0
  6
CONTINUOUS
 10
2.201760
 20
4.286040
  0
VERTEX
  8
0
  6
CONTINUOUS
 10
2.199120
 20
4.284280
  0
VERTEX
  8
0
  6
CONTINUOUS
 10
6.018760
 20
4.284280
  0
VERTEX
  8
0
  6
CONTINUOUS
 10
6.020080
 20
4.285600
  0
VERTEX
  8
0
  6
CONTINUOUS
 10
6.020080
 20
4.379320
  0
VERTEX
  8
0
  6
CONTINUOUS
 10
6.013480
 20
4.400000
  0
VERTEX
  8
0
  6
CONTINUOUS
 10
5.999400
 20
4.422880
  0
VERTEX
  8
0
  6
CONTINUOUS
 10
5.980920
 20
4.438280
  0
VERTEX
  8
0
  6
CONTINUOUS
 10
5.951440
 20
4.451480
  0
VERTEX
  8
0
  6
CONTINUOUS
 10
5.901720
 20
4.468640
  0
VERTEX
  8
0
  6
CONTINUOUS
 10
5.876200
 20
4.481400
  0
VERTEX
  8
0
  6
CONTINUOUS
 10
5.852000
 20
4.500760
  0
VERTEX
  8
0
  6
CONTINUOUS
 10
5.836600
 20
4.518360
  0
VERTEX
  8
0
  6
CONTINUOUS
 10
5.822520
 20
4.540800
  0
VERTEX
  8
0
  6
CONTINUOUS
 10
5.809760
 20
4.568960
  0
VERTEX
  8
0
  6
CONTINUOUS
 10
5.798760
 20
4.603280
  0
VERTEX
  8
0
  6
CONTINUOUS
 10
5.796120
 20
4.604600
  0
VERTEX
  8
0
  6
CONTINUOUS
 10
5.738920
 20
4.604600
  0
VERTEX
  8
0
  6
CONTINUOUS
 10
5.735400
 20
4.634960
  0
VERTEX
  8
0
  6
CONTINUOUS
 10
5.728360
 20
4.660480
  0
VERTEX
  8
0
  6
CONTINUOUS
 10
5.718240
 20
4.682480
  0
VERTEX
  8
0
  6
CONTINUOUS
 10
5.705480
 20
4.700960
  0
VERTEX
  8
0
  6
CONTINUOUS
 10
5.690080
 20
4.715920
  0
VERTEX
  8
0
  6
CONTINUOUS
 10
5.672920
 20
4.727360
  0
VERTEX
  8
0
  6
CONTINUOUS
 10
5.645200
 20
4.737480
  0
VERTEX
  8
0
  6
CONTINUOUS
 10
5.625400
 20
4.739240
  0
VERTEX
  8
0
  6
CONTINUOUS
 10
5.605600
 20
4.737480
  0
VERTEX
  8
0
  6
CONTINUOUS
 10
5.586240
 20
4.731760
  0
VERTEX
  8
0
  6
CONTINUOUS
 10
5.566880
 20
4.722080
  0
VERTEX
  8
0
  6
CONTINUOUS
 10
5.549280
 20
4.708880
  0
VERTEX
  8
0
  6
CONTINUOUS
 10
5.525520
 20
4.681160
  0
VERTEX
  8
0
  6
CONTINUOUS
 10
5.512320
 20
4.657400
  0
VERTEX
  8
0
  6
CONTINUOUS
 10
5.500440
 20
4.627040
  0
VERTEX
  8
0
  6
CONTINUOUS
 10
5.448080
 20
4.627040
  0
VERTEX
  8
0
  6
CONTINUOUS
 10
5.446760
 20
4.631000
  0
VERTEX
  8
0
  6
CONTINUOUS
 10
5.446760
 20
4.733960
  0
VERTEX
  8
0
  6
CONTINUOUS
 10
5.107080
 20
4.733960
  0
VERTEX
  8
0
  6
CONTINUOUS
 10
5.093440
 20
4.740560
  0
SEQEND
  8
0
  0
SOLID
  8
0
 62
    15
 10
2.152040
 20
2.332000
 11
2.148960
 21
3.070760
 12
2.154680
 22
2.333320
 13
2.151600
 23
3.072080
  0
POLYLINE
  8
0
  6
CONTINUOUS
 66
     1
 40
0.000000
 41
0.000000
  0
VERTEX
  8
0
  6
CONTINUOUS
 10
2.152040
 20
2.332000
  0
VERTEX
  8
0
  6
CONTINUOUS
 10
2.148960
 20
3.070760
  0
VERTEX
  8
0
  6
CONTINUOUS
 10
2.151600
 20
3.072080
  0
VERTEX
  8
0
  6
CONTINUOUS
 10
2.154680
 20
2.333320
  0
VERTEX
  8
0
  6
CONTINUOUS
 10
2.152040
 20
2.332000
  0
SEQEND
  8
0
  0
SOLID
  8
0
 62
    15
 10
5.400120
 20
2.678720
 11
5.397040
 21
3.417480
 12
5.401440
 22
2.674760
 13
5.398360
 23
3.413520
  0
POLYLINE
  8
0
  6
CONTINUOUS
 66
     1
 40
0.000000
 41
0.000000
  0
VERTEX
  8
0
  6
CONTINUOUS
 10
5.400120
 20
2.678720
  0
VERTEX
  8
0
  6
CONTINUOUS
 10
5.397040
 20
3.417480
  0
VERTEX
  8
0
  6
CONTINUOUS
 10
5.398360
 20
3.413520
  0
VERTEX
  8
0
  6
CONTINUOUS
 10
5.401440
 20
2.674760
  0
VERTEX
  8
0
  6
CONTINUOUS
 10
5.400120
 20
2.678720
  0
SEQEND
  8
0
  0
SOLID
  8
0
 62
    15
 10
5.401440
 20
2.674760
 11
5.398360
 21
3.413520
 12
5.453360
 22
2.674760
 13
5.450280
 23
3.413520
  0
POLYLINE
  8
0
  6
CONTINUOUS
 66
     1
 40
0.000000
 41
0.000000
  0
VERTEX
  8
0
  6
CONTINUOUS
 10
5.401440
 20
2.674760
  0
VERTEX
  8
0
  6
CONTINUOUS
 10
5.398360
 20
3.413520
  0
VERTEX
  8
0
  6
CONTINUOUS
 10
5.450280
 20
3.413520
  0
VERTEX
  8
0
  6
CONTINUOUS
 10
5.453360
 20
2.674760
  0
VERTEX
  8
0
  6
CONTINUOUS
 10
5.401440
 20
2.674760
  0
SEQEND
  8
0
  0
SOLID
  8
0
 62
    15
 10
5.453360
 20
2.674760
 11
5.450280
 21
3.413520
 12
5.454680
 22
2.677400
 13
5.451600
 23
3.416160
  0
POLYLINE
  8
0
  6
CONTINUOUS
 66
     1
 40
0.000000
 41
0.000000
  0
VERTEX
  8
0
  6
CONTINUOUS
 10
5.453360
 20
2.674760
  0
VERTEX
  8
0
  6
CONTINUOUS
 10
5.450280
 20
3.413520
  0
VERTEX
  8
0
  6
CONTINUOUS
 10
5.451600
 20
3.416160
  0
VERTEX
  8
0
  6
CONTINUOUS
 10
5.454680
 20
2.677400
  0
VERTEX
  8
0
  6
CONTINUOUS
 10
5.453360
 20
2.674760
  0
SEQEND
  8
0
  0
SOLID
  8
0
 62
    15
 10
5.454680
 20
2.677400
 11
5.451600
 21
3.416160
 12
5.465240
 22
2.705120
 13
5.462160
 23
3.443880
  0
POLYLINE
  8
0
  6
CONTINUOUS
 66
     1
 40
0.000000
 41
0.000000
  0
VERTEX
  8
0
  6
CONTINUOUS
 10
5.454680
 20
2.677400
  0
VERTEX
  8
0
  6
CONTINUOUS
 10
5.451600
 20
3.416160
  0
VERTEX
  8
0
  6
CONTINUOUS
 10
5.462160
 20
3.443880
  0
VERTEX
  8
0
  6
CONTINUOUS
 10
5.465240
 20
2.705120
  0
VERTEX
  8
0
  6
CONTINUOUS
 10
5.454680
 20
2.677400
  0
SEQEND
  8
0
  0
SOLID
  8
0
 62
    15
 10
5.465240
 20
2.705120
 11
5.462160
 21
3.443880
 12
5.478440
 22
2.728440
 13
5.475360
 23
3.467200
  0
POLYLINE
  8
0
  6
CONTINUOUS
 66
     1
 40
0.000000
 41
0.000000
  0
VERTEX
  8
0
  6
CONTINUOUS
 10
5.465240
 20
2.705120
  0
VERTEX
  8
0
  6
CONTINUOUS
 10
5.462160
 20
3.443880
  0
VERTEX
  8
0
  6
CONTINUOUS
 10
5.475360
 20
3.467200
  0
VERTEX
  8
0
  6
CONTINUOUS
 10
5.478440
 20
2.728440
  0
VERTEX
  8
0
  6
CONTINUOUS
 10
5.465240
 20
2.705120
  0
SEQEND
  8
0
  0
SOLID
  8
0
 62
    15
 10
5.478440
 20
2.728440
 11
5.475360
 21
3.467200
 12
5.493840
 22
2.748240
 13
5.490760
 23
3.487000
  0
POLYLINE
  8
0
  6
CONTINUOUS
 66
     1
 40
0.000000
 41
0.000000
  0
VERTEX
  8
0
  6
CONTINUOUS
 10
5.478440
 20
2.728440
  0
VERTEX
  8
0
  6
CONTINUOUS
 10
5.475360
 20
3.467200
  0
VERTEX
  8
0
  6
CONTINUOUS
 10
5.490760
 20
3.487000
  0
VERTEX
  8
0
  6
CONTINUOUS
 10
5.493840
 20
2.748240
  0
VERTEX
  8
0
  6
CONTINUOUS
 10
5.478440
 20
2.728440
  0
SEQEND
  8
0
  0
SOLID
  8
0
 62
    15
 10
5.493840
 20
2.748240
 11
5.490760
 21
3.487000
 12
5.511000
 22
2.763640
 13
5.507920
 23
3.502400
  0
POLYLINE
  8
0
  6
CONTINUOUS
 66
     1
 40
0.000000
 41
0.000000
  0
VERTEX
  8
0
  6
CONTINUOUS
 10
5.493840
 20
2.748240
  0
VERTEX
  8
0
  6
CONTINUOUS
 10
5.490760
 20
3.487000
  0
VERTEX
  8
0
  6
CONTINUOUS
 10
5.507920
 20
3.502400
  0
VERTEX
  8
0
  6
CONTINUOUS
 10
5.511000
 20
2.763640
  0
VERTEX
  8
0
  6
CONTINUOUS
 10
5.493840
 20
2.748240
  0
SEQEND
  8
0
  0
SOLID
  8
0
 62
    15
 10
5.511000
 20
2.763640
 11
5.507920
 21
3.502400
 12
5.529480
 22
2.775080
 13
5.526400
 23
3.513840
  0
POLYLINE
  8
0
  6
CONTINUOUS
 66
     1
 40
0.000000
 41
0.000000
  0
VERTEX
  8
0
  6
CONTINUOUS
 10
5.511000
 20
2.763640
  0
VERTEX
  8
0
  6
CONTINUOUS
 10
5.507920
 20
3.502400
  0
VERTEX
  8
0
  6
CONTINUOUS
 10
5.526400
 20
3.513840
  0
VERTEX
  8
0
  6
CONTINUOUS
 10
5.529480
 20
2.775080
  0
VERTEX
  8
0
  6
CONTINUOUS
 10
5.511000
 20
2.763640
  0
SEQEND
  8
0
  0
SOLID
  8
0
 62
    15
 10
5.529480
 20
2.775080
 11
5.526400
 21
3.513840
 12
5.548840
 22
2.783000
 13
5.545760
 23
3.521320
  0
POLYLINE
  8
0
  6
CONTINUOUS
 66
     1
 40
0.000000
 41
0.000000
  0
VERTEX
  8
0
  6
CONTINUOUS
 10
5.529480
 20
2.775080
  0
VERTEX
  8
0
  6
CONTINUOUS
 10
5.526400
 20
3.513840
  0
VERTEX
  8
0
  6
CONTINUOUS
 10
5.545760
 20
3.521320
  0
VERTEX
  8
0
  6
CONTINUOUS
 10
5.548840
 20
2.783000
  0
VERTEX
  8
0
  6
CONTINUOUS
 10
5.529480
 20
2.775080
  0
SEQEND
  8
0
  0
SOLID
  8
0
 62
    15
 10
5.548840
 20
2.783000
 11
5.545760
 21
3.521320
 12
5.588440
 22
2.786520
 13
5.585360
 23
3.524840
  0
POLYLINE
  8
0
  6
CONTINUOUS
 66
     1
 40
0.000000
 41
0.000000
  0
VERTEX
  8
0
  6
CONTINUOUS
 10
5.548840
 20
2.783000
  0
VERTEX
  8
0
  6
CONTINUOUS
 10
5.545760
 20
3.521320
  0
VERTEX
  8
0
  6
CONTINUOUS
 10
5.585360
 20
3.524840
  0
VERTEX
  8
0
  6
CONTINUOUS
 10
5.588440
 20
2.786520
  0
VERTEX
  8
0
  6
CONTINUOUS
 10
5.548840
 20
2.783000
  0
SEQEND
  8
0
  0
SOLID
  8
0
 62
    15
 10
5.588440
 20
2.786520
 11
5.585360
 21
3.524840
 12
5.607800
 22
2.782560
 13
5.604720
 23
3.521320
  0
POLYLINE
  8
0
  6
CONTINUOUS
 66
     1
 40
0.000000
 41
0.000000
  0
VERTEX
  8
0
  6
CONTINUOUS
 10
5.588440
 20
2.786520
  0
VERTEX
  8
0
  6
CONTINUOUS
 10
5.585360
 20
3.524840
  0
VERTEX
  8
0
  6
CONTINUOUS
 10
5.604720
 20
3.521320
  0
VERTEX
  8
0
  6
CONTINUOUS
 10
5.607800
 20
2.782560
  0
VERTEX
  8
0
  6
CONTINUOUS
 10
5.588440
 20
2.786520
  0
SEQEND
  8
0
  0
SOLID
  8
0
 62
    15
 10
5.607800
 20
2.782560
 11
5.604720
 21
3.521320
 12
5.625840
 22
2.775080
 13
5.623200
 23
3.513400
  0
POLYLINE
  8
0
  6
CONTINUOUS
 66
     1
 40
0.000000
 41
0.000000
  0
VERTEX
  8
0
  6
CONTINUOUS
 10
5.607800
 20
2.782560
  0
VERTEX
  8
0
  6
CONTINUOUS
 10
5.604720
 20
3.521320
  0
VERTEX
  8
0
  6
CONTINUOUS
 10
5.623200
 20
3.513400
  0
VERTEX
  8
0
  6
CONTINUOUS
 10
5.625840
 20
2.775080
  0
VERTEX
  8
0
  6
CONTINUOUS
 10
5.607800
 20
2.782560
  0
SEQEND
  8
0
  0
SOLID
  8
0
 62
    15
 10
5.625840
 20
2.775080
 11
5.623200
 21
3.513400
 12
5.643000
 22
2.763640
 13
5.640360
 23
3.502400
  0
POLYLINE
  8
0
  6
CONTINUOUS
 66
     1
 40
0.000000
 41
0.000000
  0
VERTEX
  8
0
  6
CONTINUOUS
 10
5.625840
 20
2.775080
  0
VERTEX
  8
0
  6
CONTINUOUS
 10
5.623200
 20
3.513400
  0
VERTEX
  8
0
  6
CONTINUOUS
 10
5.640360
 20
3.502400
  0
VERTEX
  8
0
  6
CONTINUOUS
 10
5.643000
 20
2.763640
  0
VERTEX
  8
0
  6
CONTINUOUS
 10
5.625840
 20
2.775080
  0
SEQEND
  8
0
  0
SOLID
  8
0
 62
    15
 10
5.643000
 20
2.763640
 11
5.640360
 21
3.502400
 12
5.658400
 22
2.748680
 13
5.655320
 23
3.487440
  0
POLYLINE
  8
0
  6
CONTINUOUS
 66
     1
 40
0.000000
 41
0.000000
  0
VERTEX
  8
0
  6
CONTINUOUS
 10
5.643000
 20
2.763640
  0
VERTEX
  8
0
  6
CONTINUOUS
 10
5.640360
 20
3.502400
  0
VERTEX
  8
0
  6
CONTINUOUS
 10
5.655320
 20
3.487440
  0
VERTEX
  8
0
  6
CONTINUOUS
 10
5.658400
 20
2.748680
  0
VERTEX
  8
0
  6
CONTINUOUS
 10
5.643000
 20
2.763640
  0
SEQEND
  8
0
  0
SOLID
  8
0
 62
    15
 10
5.658400
 20
2.748680
 11
5.655320
 21
3.487440
 12
5.671160
 22
2.730200
 13
5.668520
 23
3.468960
  0
POLYLINE
  8
0
  6
CONTINUOUS
 66
     1
 40
0.000000
 41
0.000000
  0
VERTEX
  8
0
  6
CONTINUOUS
 10
5.658400
 20
2.748680
  0
VERTEX
  8
0
  6
CONTINUOUS
 10
5.655320
 20
3.487440
  0
VERTEX
  8
0
  6
CONTINUOUS
 10
5.668520
 20
3.468960
  0
VERTEX
  8
0
  6
CONTINUOUS
 10
5.671160
 20
2.730200
  0
VERTEX
  8
0
  6
CONTINUOUS
 10
5.658400
 20
2.748680
  0
SEQEND
  8
0
  0
SOLID
  8
0
 62
    15
 10
5.671160
 20
2.730200
 11
5.668520
 21
3.468960
 12
5.681280
 22
2.708200
 13
5.678640
 23
3.446520
  0
POLYLINE
  8
0
  6
CONTINUOUS
 66
     1
 40
0.000000
 41
0.000000
  0
VERTEX
  8
0
  6
CONTINUOUS
 10
5.671160
 20
2.730200
  0
VERTEX
  8
0
  6
CONTINUOUS
 10
5.668520
 20
3.468960
  0
VERTEX
  8
0
  6
CONTINUOUS
 10
5.678640
 20
3.446520
  0
VERTEX
  8
0
  6
CONTINUOUS
 10
5.681280
 20
2.708200
  0
VERTEX
  8
0
  6
CONTINUOUS
 10
5.671160
 20
2.730200
  0
SEQEND
  8
0
  0
SOLID
  8
0
 62
    15
 10
5.691840
 20
2.651880
 11
5.689200
 21
3.390640
 12
5.749480
 22
2.651880
 13
5.746400
 23
3.390640
  0
POLYLINE
  8
0
  6
CONTINUOUS
 66
     1
 40
0.000000
 41
0.000000
  0
VERTEX
  8
0
  6
CONTINUOUS
 10
5.691840
 20
2.651880
  0
VERTEX
  8
0
  6
CONTINUOUS
 10
5.689200
 20
3.390640
  0
VERTEX
  8
0
  6
CONTINUOUS
 10
5.746400
 20
3.390640
  0
VERTEX
  8
0
  6
CONTINUOUS
 10
5.749480
 20
2.651880
  0
VERTEX
  8
0
  6
CONTINUOUS
 10
5.691840
 20
2.651880
  0
SEQEND
  8
0
  0
SOLID
  8
0
 62
    15
 10
5.688760
 20
2.682680
 11
5.685680
 21
3.421000
 12
5.691840
 22
2.653200
 13
5.689200
 23
3.391960
  0
POLYLINE
  8
0
  6
CONTINUOUS
 66
     1
 40
0.000000
 41
0.000000
  0
VERTEX
  8
0
  6
CONTINUOUS
 10
5.688760
 20
2.682680
  0
VERTEX
  8
0
  6
CONTINUOUS
 10
5.685680
 20
3.421000
  0
VERTEX
  8
0
  6
CONTINUOUS
 10
5.689200
 20
3.391960
  0
VERTEX
  8
0
  6
CONTINUOUS
 10
5.691840
 20
2.653200
  0
VERTEX
  8
0
  6
CONTINUOUS
 10
5.688760
 20
2.682680
  0
SEQEND
  8
0
  0
SOLID
  8
0
 62
    15
 10
5.681280
 20
2.708200
 11
5.678640
 21
3.446520
 12
5.688760
 22
2.682680
 13
5.685680
 23
3.421000
  0
POLYLINE
  8
0
  6
CONTINUOUS
 66
     1
 40
0.000000
 41
0.000000
  0
VERTEX
  8
0
  6
CONTINUOUS
 10
5.681280
 20
2.708200
  0
VERTEX
  8
0
  6
CONTINUOUS
 10
5.678640
 20
3.446520
  0
VERTEX
  8
0
  6
CONTINUOUS
 10
5.685680
 20
3.421000
  0
VERTEX
  8
0
  6
CONTINUOUS
 10
5.688760
 20
2.682680
  0
VERTEX
  8
0
  6
CONTINUOUS
 10
5.681280
 20
2.708200
  0
SEQEND
  8
0
  0
SOLID
  8
0
 62
    15
 10
5.749480
 20
2.651880
 11
5.746400
 21
3.390640
 12
5.752120
 22
2.650560
 13
5.749040
 23
3.389320
  0
POLYLINE
  8
0
  6
CONTINUOUS
 66
     1
 40
0.000000
 41
0.000000
  0
VERTEX
  8
0
  6
CONTINUOUS
 10
5.749480
 20
2.651880
  0
VERTEX
  8
0
  6
CONTINUOUS
 10
5.746400
 20
3.390640
  0
VERTEX
  8
0
  6
CONTINUOUS
 10
5.749040
 20
3.389320
  0
VERTEX
  8
0
  6
CONTINUOUS
 10
5.752120
 20
2.650560
  0
VERTEX
  8
0
  6
CONTINUOUS
 10
5.749480
 20
2.651880
  0
SEQEND
  8
0
  0
SOLID
  8
0
 62
    15
 10
5.752120
 20
2.650560
 11
5.749040
 21
3.389320
 12
5.763120
 22
2.616240
 13
5.760040
 23
3.355000
  0
POLYLINE
  8
0
  6
CONTINUOUS
 66
     1
 40
0.000000
 41
0.000000
  0
VERTEX
  8
0
  6
CONTINUOUS
 10
5.752120
 20
2.650560
  0
VERTEX
  8
0
  6
CONTINUOUS
 10
5.749040
 20
3.389320
  0
VERTEX
  8
0
  6
CONTINUOUS
 10
5.760040
 20
3.355000
  0
VERTEX
  8
0
  6
CONTINUOUS
 10
5.763120
 20
2.616240
  0
VERTEX
  8
0
  6
CONTINUOUS
 10
5.752120
 20
2.650560
  0
SEQEND
  8
0
  0
SOLID
  8
0
 62
    15
 10
5.763120
 20
2.616240
 11
5.760040
 21
3.355000
 12
5.775440
 22
2.588520
 13
5.772800
 23
3.327280
  0
POLYLINE
  8
0
  6
CONTINUOUS
 66
     1
 40
0.000000
 41
0.000000
  0
VERTEX
  8
0
  6
CONTINUOUS
 10
5.763120
 20
2.616240
  0
VERTEX
  8
0
  6
CONTINUOUS
 10
5.760040
 20
3.355000
  0
VERTEX
  8
0
  6
CONTINUOUS
 10
5.772800
 20
3.327280
  0
VERTEX
  8
0
  6
CONTINUOUS
 10
5.775440
 20
2.588520
  0
VERTEX
  8
0
  6
CONTINUOUS
 10
5.763120
 20
2.616240
  0
SEQEND
  8
0
  0
SOLID
  8
0
 62
    15
 10
5.775440
 20
2.588520
 11
5.772800
 21
3.327280
 12
5.789520
 22
2.566080
 13
5.786880
 23
3.304840
  0
POLYLINE
  8
0
  6
CONTINUOUS
 66
     1
 40
0.000000
 41
0.000000
  0
VERTEX
  8
0
  6
CONTINUOUS
 10
5.775440
 20
2.588520
  0
VERTEX
  8
0
  6
CONTINUOUS
 10
5.772800
 20
3.327280
  0
VERTEX
  8
0
  6
CONTINUOUS
 10
5.786880
 20
3.304840
  0
VERTEX
  8
0
  6
CONTINUOUS
 10
5.789520
 20
2.566080
  0
VERTEX
  8
0
  6
CONTINUOUS
 10
5.775440
 20
2.588520
  0
SEQEND
  8
0
  0
SOLID
  8
0
 62
    15
 10
5.789520
 20
2.566080
 11
5.786880
 21
3.304840
 12
5.804920
 22
2.548040
 13
5.801840
 23
3.286800
  0
POLYLINE
  8
0
  6
CONTINUOUS
 66
     1
 40
0.000000
 41
0.000000
  0
VERTEX
  8
0
  6
CONTINUOUS
 10
5.789520
 20
2.566080
  0
VERTEX
  8
0
  6
CONTINUOUS
 10
5.786880
 20
3.304840
  0
VERTEX
  8
0
  6
CONTINUOUS
 10
5.801840
 20
3.286800
  0
VERTEX
  8
0
  6
CONTINUOUS
 10
5.804920
 20
2.548040
  0
VERTEX
  8
0
  6
CONTINUOUS
 10
5.789520
 20
2.566080
  0
SEQEND
  8
0
  0
SOLID
  8
0
 62
    15
 10
5.804920
 20
2.548040
 11
5.801840
 21
3.286800
 12
5.837480
 22
2.524280
 13
5.834840
 23
3.262600
  0
POLYLINE
  8
0
  6
CONTINUOUS
 66
     1
 40
0.000000
 41
0.000000
  0
VERTEX
  8
0
  6
CONTINUOUS
 10
5.804920
 20
2.548040
  0
VERTEX
  8
0
  6
CONTINUOUS
 10
5.801840
 20
3.286800
  0
VERTEX
  8
0
  6
CONTINUOUS
 10
5.834840
 20
3.262600
  0
VERTEX
  8
0
  6
CONTINUOUS
 10
5.837480
 20
2.524280
  0
VERTEX
  8
0
  6
CONTINUOUS
 10
5.804920
 20
2.548040
  0
SEQEND
  8
0
  0
SOLID
  8
0
 62
    15
 10
5.837480
 20
2.524280
 11
5.834840
 21
3.262600
 12
5.871800
 22
2.509760
 13
5.868720
 23
3.248520
  0
POLYLINE
  8
0
  6
CONTINUOUS
 66
     1
 40
0.000000
 41
0.000000
  0
VERTEX
  8
0
  6
CONTINUOUS
 10
5.837480
 20
2.524280
  0
VERTEX
  8
0
  6
CONTINUOUS
 10
5.834840
 20
3.262600
  0
VERTEX
  8
0
  6
CONTINUOUS
 10
5.868720
 20
3.248520
  0
VERTEX
  8
0
  6
CONTINUOUS
 10
5.871800
 20
2.509760
  0
VERTEX
  8
0
  6
CONTINUOUS
 10
5.837480
 20
2.524280
  0
SEQEND
  8
0
  0
SOLID
  8
0
 62
    15
 10
5.871800
 20
2.509760
 11
5.868720
 21
3.248520
 12
5.904360
 22
2.499200
 13
5.901280
 23
3.237960
  0
POLYLINE
  8
0
  6
CONTINUOUS
 66
     1
 40
0.000000
 41
0.000000
  0
VERTEX
  8
0
  6
CONTINUOUS
 10
5.871800
 20
2.509760
  0
VERTEX
  8
0
  6
CONTINUOUS
 10
5.868720
 20
3.248520
  0
VERTEX
  8
0
  6
CONTINUOUS
 10
5.901280
 20
3.237960
  0
VERTEX
  8
0
  6
CONTINUOUS
 10
5.904360
 20
2.499200
  0
VERTEX
  8
0
  6
CONTINUOUS
 10
5.871800
 20
2.509760
  0
SEQEND
  8
0
  0
SOLID
  8
0
 62
    15
 10
5.904360
 20
2.499200
 11
5.901280
 21
3.237960
 12
5.933840
 22
2.485560
 13
5.930760
 23
3.224320
  0
POLYLINE
  8
0
  6
CONTINUOUS
 66
     1
 40
0.000000
 41
0.000000
  0
VERTEX
  8
0
  6
CONTINUOUS
 10
5.904360
 20
2.499200
  0
VERTEX
  8
0
  6
CONTINUOUS
 10
5.901280
 20
3.237960
  0
VERTEX
  8
0
  6
CONTINUOUS
 10
5.930760
 20
3.224320
  0
VERTEX
  8
0
  6
CONTINUOUS
 10
5.933840
 20
2.485560
  0
VERTEX
  8
0
  6
CONTINUOUS
 10
5.904360
 20
2.499200
  0
SEQEND
  8
0
  0
SOLID
  8
0
 62
    15
 10
5.933840
 20
2.485560
 11
5.930760
 21
3.224320
 12
5.957600
 22
2.463560
 13
5.954520
 23
3.202320
  0
POLYLINE
  8
0
  6
CONTINUOUS
 66
     1
 40
0.000000
 41
0.000000
  0
VERTEX
  8
0
  6
CONTINUOUS
 10
5.933840
 20
2.485560
  0
VERTEX
  8
0
  6
CONTINUOUS
 10
5.930760
 20
3.224320
  0
VERTEX
  8
0
  6
CONTINUOUS
 10
5.954520
 20
3.202320
  0
VERTEX
  8
0
  6
CONTINUOUS
 10
5.957600
 20
2.463560
  0
VERTEX
  8
0
  6
CONTINUOUS
 10
5.933840
 20
2.485560
  0
SEQEND
  8
0
  0
SOLID
  8
0
 62
    15
 10
5.957600
 20
2.463560
 11
5.954520
 21
3.202320
 12
5.966400
 22
2.447720
 13
5.963760
 23
3.186040
  0
POLYLINE
  8
0
  6
CONTINUOUS
 66
     1
 40
0.000000
 41
0.000000
  0
VERTEX
  8
0
  6
CONTINUOUS
 10
5.957600
 20
2.463560
  0
VERTEX
  8
0
  6
CONTINUOUS
 10
5.954520
 20
3.202320
  0
VERTEX
  8
0
  6
CONTINUOUS
 10
5.963760
 20
3.186040
  0
VERTEX
  8
0
  6
CONTINUOUS
 10
5.966400
 20
2.447720
  0
VERTEX
  8
0
  6
CONTINUOUS
 10
5.957600
 20
2.463560
  0
SEQEND
  8
0
  0
SOLID
  8
0
 62
    15
 10
5.966400
 20
2.447720
 11
5.963760
 21
3.186040
 12
5.973440
 22
2.426600
 13
5.970360
 23
3.165360
  0
POLYLINE
  8
0
  6
CONTINUOUS
 66
     1
 40
0.000000
 41
0.000000
  0
VERTEX
  8
0
  6
CONTINUOUS
 10
5.966400
 20
2.447720
  0
VERTEX
  8
0
  6
CONTINUOUS
 10
5.963760
 20
3.186040
  0
VERTEX
  8
0
  6
CONTINUOUS
 10
5.970360
 20
3.165360
  0
VERTEX
  8
0
  6
CONTINUOUS
 10
5.973440
 20
2.426600
  0
VERTEX
  8
0
  6
CONTINUOUS
 10
5.966400
 20
2.447720
  0
SEQEND
  8
0
  0
SOLID
  8
0
 62
    15
 10
5.060000
 20
2.781240
 11
5.056920
 21
3.520000
 12
5.400120
 22
2.781240
 13
5.397040
 23
3.520000
  0
POLYLINE
  8
0
  6
CONTINUOUS
 66
     1
 40
0.000000
 41
0.000000
  0
VERTEX
  8
0
  6
CONTINUOUS
 10
5.060000
 20
2.781240
  0
VERTEX
  8
0
  6
CONTINUOUS
 10
5.056920
 20
3.520000
  0
VERTEX
  8
0
  6
CONTINUOUS
 10
5.397040
 20
3.520000
  0
VERTEX
  8
0
  6
CONTINUOUS
 10
5.400120
 20
2.781240
  0
VERTEX
  8
0
  6
CONTINUOUS
 10
5.060000
 20
2.781240
  0
SEQEND
  8
0
  0
SOLID
  8
0
 62
    15
 10
2.154680
 20
2.333320
 11
2.151600
 21
3.072080
 12
2.154680
 22
3.083960
 13
2.151600
 23
3.822720
  0
POLYLINE
  8
0
  6
CONTINUOUS
 66
     1
 40
0.000000
 41
0.000000
  0
VERTEX
  8
0
  6
CONTINUOUS
 10
2.154680
 20
2.333320
  0
VERTEX
  8
0
  6
CONTINUOUS
 10
2.151600
 20
3.072080
  0
VERTEX
  8
0
  6
CONTINUOUS
 10
2.151600
 20
3.822720
  0
VERTEX
  8
0
  6
CONTINUOUS
 10
2.154680
 20
3.083960
  0
VERTEX
  8
0
  6
CONTINUOUS
 10
2.154680
 20
2.333320
  0
SEQEND
  8
0
  0
SOLID
  8
0
 62
    15
 10
2.154680
 20
3.083960
 11
2.151600
 21
3.822720
 12
2.940080
 22
3.083960
 13
2.937000
 23
3.822720
  0
POLYLINE
  8
0
  6
CONTINUOUS
 66
     1
 40
0.000000
 41
0.000000
  0
VERTEX
  8
0
  6
CONTINUOUS
 10
2.154680
 20
3.083960
  0
VERTEX
  8
0
  6
CONTINUOUS
 10
2.151600
 20
3.822720
  0
VERTEX
  8
0
  6
CONTINUOUS
 10
2.937000
 20
3.822720
  0
VERTEX
  8
0
  6
CONTINUOUS
 10
2.940080
 20
3.083960
  0
VERTEX
  8
0
  6
CONTINUOUS
 10
2.154680
 20
3.083960
  0
SEQEND
  8
0
  0
SOLID
  8
0
 62
    15
 10
2.940080
 20
3.083960
 11
2.937000
 21
3.822720
 12
2.948000
 22
3.082640
 13
2.944920
 23
3.821400
  0
POLYLINE
  8
0
  6
CONTINUOUS
 66
     1
 40
0.000000
 41
0.000000
  0
VERTEX
  8
0
  6
CONTINUOUS
 10
2.940080
 20
3.083960
  0
VERTEX
  8
0
  6
CONTINUOUS
 10
2.937000
 20
3.822720
  0
VERTEX
  8
0
  6
CONTINUOUS
 10
2.944920
 20
3.821400
  0
VERTEX
  8
0
  6
CONTINUOUS
 10
2.948000
 20
3.082640
  0
VERTEX
  8
0
  6
CONTINUOUS
 10
2.940080
 20
3.083960
  0
SEQEND
  8
0
  0
SOLID
  8
0
 62
    15
 10
2.948000
 20
3.082640
 11
2.944920
 21
3.821400
 12
3.095840
 22
2.892120
 13
3.093200
 23
3.630880
  0
POLYLINE
  8
0
  6
CONTINUOUS
 66
     1
 40
0.000000
 41
0.000000
  0
VERTEX
  8
0
  6
CONTINUOUS
 10
2.948000
 20
3.082640
  0
VERTEX
  8
0
  6
CONTINUOUS
 10
2.944920
 20
3.821400
  0
VERTEX
  8
0
  6
CONTINUOUS
 10
3.093200
 20
3.630880
  0
VERTEX
  8
0
  6
CONTINUOUS
 10
3.095840
 20
2.892120
  0
VERTEX
  8
0
  6
CONTINUOUS
 10
2.948000
 20
3.082640
  0
SEQEND
  8
0
  0
SOLID
  8
0
 62
    15
 10
3.095840
 20
2.892120
 11
3.093200
 21
3.630880
 12
3.097160
 22
2.889480
 13
3.094520
 23
3.628240
  0
POLYLINE
  8
0
  6
CONTINUOUS
 66
     1
 40
0.000000
 41
0.000000
  0
VERTEX
  8
0
  6
CONTINUOUS
 10
3.095840
 20
2.892120
  0
VERTEX
  8
0
  6
CONTINUOUS
 10
3.093200
 20
3.630880
  0
VERTEX
  8
0
  6
CONTINUOUS
 10
3.094520
 20
3.628240
  0
VERTEX
  8
0
  6
CONTINUOUS
 10
3.097160
 20
2.889480
  0
VERTEX
  8
0
  6
CONTINUOUS
 10
3.095840
 20
2.892120
  0
SEQEND
  8
0
  0
SOLID
  8
0
 62
    15
 10
3.097160
 20
2.889480
 11
3.094520
 21
3.628240
 12
3.101120
 22
2.885960
 13
3.098480
 23
3.624720
  0
POLYLINE
  8
0
  6
CONTINUOUS
 66
     1
 40
0.000000
 41
0.000000
  0
VERTEX
  8
0
  6
CONTINUOUS
 10
3.097160
 20
2.889480
  0
VERTEX
  8
0
  6
CONTINUOUS
 10
3.094520
 20
3.628240
  0
VERTEX
  8
0
  6
CONTINUOUS
 10
3.098480
 20
3.624720
  0
VERTEX
  8
0
  6
CONTINUOUS
 10
3.101120
 20
2.885960
  0
VERTEX
  8
0
  6
CONTINUOUS
 10
3.097160
 20
2.889480
  0
SEQEND
  8
0
  0
SOLID
  8
0
 62
    15
 10
3.101120
 20
2.885960
 11
3.098480
 21
3.624720
 12
3.105080
 22
2.882000
 13
3.102000
 23
3.620760
  0
POLYLINE
  8
0
  6
CONTINUOUS
 66
     1
 40
0.000000
 41
0.000000
  0
VERTEX
  8
0
  6
CONTINUOUS
 10
3.101120
 20
2.885960
  0
VERTEX
  8
0
  6
CONTINUOUS
 10
3.098480
 20
3.624720
  0
VERTEX
  8
0
  6
CONTINUOUS
 10
3.102000
 20
3.620760
  0
VERTEX
  8
0
  6
CONTINUOUS
 10
3.105080
 20
2.882000
  0
VERTEX
  8
0
  6
CONTINUOUS
 10
3.101120
 20
2.885960
  0
SEQEND
  8
0
  0
SOLID
  8
0
 62
    15
 10
3.105080
 20
2.882000
 11
3.102000
 21
3.620760
 12
3.109920
 22
2.876720
 13
3.106840
 23
3.615480
  0
POLYLINE
  8
0
  6
CONTINUOUS
 66
     1
 40
0.000000
 41
0.000000
  0
VERTEX
  8
0
  6
CONTINUOUS
 10
3.105080
 20
2.882000
  0
VERTEX
  8
0
  6
CONTINUOUS
 10
3.102000
 20
3.620760
  0
VERTEX
  8
0
  6
CONTINUOUS
 10
3.106840
 20
3.615480
  0
VERTEX
  8
0
  6
CONTINUOUS
 10
3.109920
 20
2.876720
  0
VERTEX
  8
0
  6
CONTINUOUS
 10
3.105080
 20
2.882000
  0
SEQEND
  8
0
  0
SOLID
  8
0
 62
    15
 10
3.109920
 20
2.876720
 11
3.106840
 21
3.615480
 12
3.123120
 22
2.865280
 13
3.120040
 23
3.603600
  0
POLYLINE
  8
0
  6
CONTINUOUS
 66
     1
 40
0.000000
 41
0.000000
  0
VERTEX
  8
0
  6
CONTINUOUS
 10
3.109920
 20
2.876720
  0
VERTEX
  8
0
  6
CONTINUOUS
 10
3.106840
 20
3.615480
  0
VERTEX
  8
0
  6
CONTINUOUS
 10
3.120040
 20
3.603600
  0
VERTEX
  8
0
  6
CONTINUOUS
 10
3.123120
 20
2.865280
  0
VERTEX
  8
0
  6
CONTINUOUS
 10
3.109920
 20
2.876720
  0
SEQEND
  8
0
  0
SOLID
  8
0
 62
    15
 10
3.123120
 20
2.865280
 11
3.120040
 21
3.603600
 12
3.140720
 22
2.852520
 13
3.137640
 23
3.591280
  0
POLYLINE
  8
0
  6
CONTINUOUS
 66
     1
 40
0.000000
 41
0.000000
  0
VERTEX
  8
0
  6
CONTINUOUS
 10
3.123120
 20
2.865280
  0
VERTEX
  8
0
  6
CONTINUOUS
 10
3.120040
 20
3.603600
  0
VERTEX
  8
0
  6
CONTINUOUS
 10
3.137640
 20
3.591280
  0
VERTEX
  8
0
  6
CONTINUOUS
 10
3.140720
 20
2.852520
  0
VERTEX
  8
0
  6
CONTINUOUS
 10
3.123120
 20
2.865280
  0
SEQEND
  8
0
  0
SOLID
  8
0
 62
    15
 10
3.140720
 20
2.852520
 11
3.137640
 21
3.591280
 12
3.162280
 22
2.842400
 13
3.159200
 23
3.581160
  0
POLYLINE
  8
0
  6
CONTINUOUS
 66
     1
 40
0.000000
 41
0.000000
  0
VERTEX
  8
0
  6
CONTINUOUS
 10
3.140720
 20
2.852520
  0
VERTEX
  8
0
  6
CONTINUOUS
 10
3.137640
 20
3.591280
  0
VERTEX
  8
0
  6
CONTINUOUS
 10
3.159200
 20
3.581160
  0
VERTEX
  8
0
  6
CONTINUOUS
 10
3.162280
 20
2.842400
  0
VERTEX
  8
0
  6
CONTINUOUS
 10
3.140720
 20
2.852520
  0
SEQEND
  8
0
  0
SOLID
  8
0
 62
    15
 10
3.162280
 20
2.842400
 11
3.159200
 21
3.581160
 12
3.187800
 22
2.836680
 13
3.185160
 23
3.575000
  0
POLYLINE
  8
0
  6
CONTINUOUS
 66
     1
 40
0.000000
 41
0.000000
  0
VERTEX
  8
0
  6
CONTINUOUS
 10
3.162280
 20
2.842400
  0
VERTEX
  8
0
  6
CONTINUOUS
 10
3.159200
 20
3.581160
  0
VERTEX
  8
0
  6
CONTINUOUS
 10
3.185160
 20
3.575000
  0
VERTEX
  8
0
  6
CONTINUOUS
 10
3.187800
 20
2.836680
  0
VERTEX
  8
0
  6
CONTINUOUS
 10
3.162280
 20
2.842400
  0
SEQEND
  8
0
  0
SOLID
  8
0
 62
    15
 10
3.187800
 20
2.836680
 11
3.185160
 21
3.575000
 12
3.217280
 22
2.837560
 13
3.214640
 23
3.576320
  0
POLYLINE
  8
0
  6
CONTINUOUS
 66
     1
 40
0.000000
 41
0.000000
  0
VERTEX
  8
0
  6
CONTINUOUS
 10
3.187800
 20
2.836680
  0
VERTEX
  8
0
  6
CONTINUOUS
 10
3.185160
 20
3.575000
  0
VERTEX
  8
0
  6
CONTINUOUS
 10
3.214640
 20
3.576320
  0
VERTEX
  8
0
  6
CONTINUOUS
 10
3.217280
 20
2.837560
  0
VERTEX
  8
0
  6
CONTINUOUS
 10
3.187800
 20
2.836680
  0
SEQEND
  8
0
  0
SOLID
  8
0
 62
    15
 10
3.217280
 20
2.837560
 11
3.214640
 21
3.576320
 12
3.250720
 22
2.848120
 13
3.247640
 23
3.586880
  0
POLYLINE
  8
0
  6
CONTINUOUS
 66
     1
 40
0.000000
 41
0.000000
  0
VERTEX
  8
0
  6
CONTINUOUS
 10
3.217280
 20
2.837560
  0
VERTEX
  8
0
  6
CONTINUOUS
 10
3.214640
 20
3.576320
  0
VERTEX
  8
0
  6
CONTINUOUS
 10
3.247640
 20
3.586880
  0
VERTEX
  8
0
  6
CONTINUOUS
 10
3.250720
 20
2.848120
  0
VERTEX
  8
0
  6
CONTINUOUS
 10
3.217280
 20
2.837560
  0
SEQEND
  8
0
  0
SOLID
  8
0
 62
    15
 10
3.250720
 20
2.848120
 11
3.247640
 21
3.586880
 12
3.343560
 22
2.907960
 13
3.340480
 23
3.646720
  0
POLYLINE
  8
0
  6
CONTINUOUS
 66
     1
 40
0.000000
 41
0.000000
  0
VERTEX
  8
0
  6
CONTINUOUS
 10
3.250720
 20
2.848120
  0
VERTEX
  8
0
  6
CONTINUOUS
 10
3.247640
 20
3.586880
  0
VERTEX
  8
0
  6
CONTINUOUS
 10
3.340480
 20
3.646720
  0
VERTEX
  8
0
  6
CONTINUOUS
 10
3.343560
 20
2.907960
  0
VERTEX
  8
0
  6
CONTINUOUS
 10
3.250720
 20
2.848120
  0
SEQEND
  8
0
  0
SOLID
  8
0
 62
    15
 10
3.343560
 20
2.907960
 11
3.340480
 21
3.646720
 12
3.440800
 22
2.960320
 13
3.438160
 23
3.698640
  0
POLYLINE
  8
0
  6
CONTINUOUS
 66
     1
 40
0.000000
 41
0.000000
  0
VERTEX
  8
0
  6
CONTINUOUS
 10
3.343560
 20
2.907960
  0
VERTEX
  8
0
  6
CONTINUOUS
 10
3.340480
 20
3.646720
  0
VERTEX
  8
0
  6
CONTINUOUS
 10
3.438160
 20
3.698640
  0
VERTEX
  8
0
  6
CONTINUOUS
 10
3.440800
 20
2.960320
  0
VERTEX
  8
0
  6
CONTINUOUS
 10
3.343560
 20
2.907960
  0
SEQEND
  8
0
  0
SOLID
  8
0
 62
    15
 10
3.440800
 20
2.960320
 11
3.438160
 21
3.698640
 12
3.542440
 22
3.004320
 13
3.539800
 23
3.743080
  0
POLYLINE
  8
0
  6
CONTINUOUS
 66
     1
 40
0.000000
 41
0.000000
  0
VERTEX
  8
0
  6
CONTINUOUS
 10
3.440800
 20
2.960320
  0
VERTEX
  8
0
  6
CONTINUOUS
 10
3.438160
 20
3.698640
  0
VERTEX
  8
0
  6
CONTINUOUS
 10
3.539800
 20
3.743080
  0
VERTEX
  8
0
  6
CONTINUOUS
 10
3.542440
 20
3.004320
  0
VERTEX
  8
0
  6
CONTINUOUS
 10
3.440800
 20
2.960320
  0
SEQEND
  8
0
  0
SOLID
  8
0
 62
    15
 10
3.542440
 20
3.004320
 11
3.539800
 21
3.743080
 12
3.648040
 22
3.039960
 13
3.645400
 23
3.778720
  0
POLYLINE
  8
0
  6
CONTINUOUS
 66
     1
 40
0.000000
 41
0.000000
  0
VERTEX
  8
0
  6
CONTINUOUS
 10
3.542440
 20
3.004320
  0
VERTEX
  8
0
  6
CONTINUOUS
 10
3.539800
 20
3.743080
  0
VERTEX
  8
0
  6
CONTINUOUS
 10
3.645400
 20
3.778720
  0
VERTEX
  8
0
  6
CONTINUOUS
 10
3.648040
 20
3.039960
  0
VERTEX
  8
0
  6
CONTINUOUS
 10
3.542440
 20
3.004320
  0
SEQEND
  8
0
  0
SOLID
  8
0
 62
    15
 10
3.648040
 20
3.039960
 11
3.645400
 21
3.778720
 12
3.757160
 22
3.067680
 13
3.754080
 23
3.806000
  0
POLYLINE
  8
0
  6
CONTINUOUS
 66
     1
 40
0.000000
 41
0.000000
  0
VERTEX
  8
0
  6
CONTINUOUS
 10
3.648040
 20
3.039960
  0
VERTEX
  8
0
  6
CONTINUOUS
 10
3.645400
 20
3.778720
  0
VERTEX
  8
0
  6
CONTINUOUS
 10
3.754080
 20
3.806000
  0
VERTEX
  8
0
  6
CONTINUOUS
 10
3.757160
 20
3.067680
  0
VERTEX
  8
0
  6
CONTINUOUS
 10
3.648040
 20
3.039960
  0
SEQEND
  8
0
  0
SOLID
  8
0
 62
    15
 10
3.757160
 20
3.067680
 11
3.754080
 21
3.806000
 12
3.868920
 22
3.086600
 13
3.865840
 23
3.825360
  0
POLYLINE
  8
0
  6
CONTINUOUS
 66
     1
 40
0.000000
 41
0.000000
  0
VERTEX
  8
0
  6
CONTINUOUS
 10
3.757160
 20
3.067680
  0
VERTEX
  8
0
  6
CONTINUOUS
 10
3.754080
 20
3.806000
  0
VERTEX
  8
0
  6
CONTINUOUS
 10
3.865840
 20
3.825360
  0
VERTEX
  8
0
  6
CONTINUOUS
 10
3.868920
 20
3.086600
  0
VERTEX
  8
0
  6
CONTINUOUS
 10
3.757160
 20
3.067680
  0
SEQEND
  8
0
  0
SOLID
  8
0
 62
    15
 10
3.868920
 20
3.086600
 11
3.865840
 21
3.825360
 12
3.982880
 22
3.097160
 13
3.980240
 23
3.835920
  0
POLYLINE
  8
0
  6
CONTINUOUS
 66
     1
 40
0.000000
 41
0.000000
  0
VERTEX
  8
0
  6
CONTINUOUS
 10
3.868920
 20
3.086600
  0
VERTEX
  8
0
  6
CONTINUOUS
 10
3.865840
 20
3.825360
  0
VERTEX
  8
0
  6
CONTINUOUS
 10
3.980240
 20
3.835920
  0
VERTEX
  8
0
  6
CONTINUOUS
 10
3.982880
 20
3.097160
  0
VERTEX
  8
0
  6
CONTINUOUS
 10
3.868920
 20
3.086600
  0
SEQEND
  8
0
  0
SOLID
  8
0
 62
    15
 10
3.982880
 20
3.097160
 11
3.980240
 21
3.835920
 12
4.099040
 22
3.098920
 13
4.096400
 23
3.837680
  0
POLYLINE
  8
0
  6
CONTINUOUS
 66
     1
 40
0.000000
 41
0.000000
  0
VERTEX
  8
0
  6
CONTINUOUS
 10
3.982880
 20
3.097160
  0
VERTEX
  8
0
  6
CONTINUOUS
 10
3.980240
 20
3.835920
  0
VERTEX
  8
0
  6
CONTINUOUS
 10
4.096400
 20
3.837680
  0
VERTEX
  8
0
  6
CONTINUOUS
 10
4.099040
 20
3.098920
  0
VERTEX
  8
0
  6
CONTINUOUS
 10
3.982880
 20
3.097160
  0
SEQEND
  8
0
  0
SOLID
  8
0
 62
    15
 10
4.099040
 20
3.098920
 11
4.096400
 21
3.837680
 12
4.216960
 22
3.092320
 13
4.213880
 23
3.830640
  0
POLYLINE
  8
0
  6
CONTINUOUS
 66
     1
 40
0.000000
 41
0.000000
  0
VERTEX
  8
0
  6
CONTINUOUS
 10
4.099040
 20
3.098920
  0
VERTEX
  8
0
  6
CONTINUOUS
 10
4.096400
 20
3.837680
  0
VERTEX
  8
0
  6
CONTINUOUS
 10
4.213880
 20
3.830640
  0
VERTEX
  8
0
  6
CONTINUOUS
 10
4.216960
 20
3.092320
  0
VERTEX
  8
0
  6
CONTINUOUS
 10
4.099040
 20
3.098920
  0
SEQEND
  8
0
  0
SOLID
  8
0
 62
    15
 10
4.216960
 20
3.092320
 11
4.213880
 21
3.830640
 12
4.335760
 22
3.076480
 13
4.332680
 23
3.814800
  0
POLYLINE
  8
0
  6
CONTINUOUS
 66
     1
 40
0.000000
 41
0.000000
  0
VERTEX
  8
0
  6
CONTINUOUS
 10
4.216960
 20
3.092320
  0
VERTEX
  8
0
  6
CONTINUOUS
 10
4.213880
 20
3.830640
  0
VERTEX
  8
0
  6
CONTINUOUS
 10
4.332680
 20
3.814800
  0
VERTEX
  8
0
  6
CONTINUOUS
 10
4.335760
 20
3.076480
  0
VERTEX
  8
0
  6
CONTINUOUS
 10
4.216960
 20
3.092320
  0
SEQEND
  8
0
  0
SOLID
  8
0
 62
    15
 10
4.335760
 20
3.076480
 11
4.332680
 21
3.814800
 12
4.455440
 22
3.051400
 13
4.452360
 23
3.790160
  0
POLYLINE
  8
0
  6
CONTINUOUS
 66
     1
 40
0.000000
 41
0.000000
  0
VERTEX
  8
0
  6
CONTINUOUS
 10
4.335760
 20
3.076480
  0
VERTEX
  8
0
  6
CONTINUOUS
 10
4.332680
 20
3.814800
  0
VERTEX
  8
0
  6
CONTINUOUS
 10
4.452360
 20
3.790160
  0
VERTEX
  8
0
  6
CONTINUOUS
 10
4.455440
 20
3.051400
  0
VERTEX
  8
0
  6
CONTINUOUS
 10
4.335760
 20
3.076480
  0
SEQEND
  8
0
  0
SOLID
  8
0
 62
    15
 10
4.455440
 20
3.051400
 11
4.452360
 21
3.790160
 12
4.575120
 22
3.017520
 13
4.572040
 23
3.756280
  0
POLYLINE
  8
0
  6
CONTINUOUS
 66
     1
 40
0.000000
 41
0.000000
  0
VERTEX
  8
0
  6
CONTINUOUS
 10
4.455440
 20
3.051400
  0
VERTEX
  8
0
  6
CONTINUOUS
 10
4.452360
 20
3.790160
  0
VERTEX
  8
0
  6
CONTINUOUS
 10
4.572040
 20
3.756280
  0
VERTEX
  8
0
  6
CONTINUOUS
 10
4.575120
 20
3.017520
  0
VERTEX
  8
0
  6
CONTINUOUS
 10
4.455440
 20
3.051400
  0
SEQEND
  8
0
  0
SOLID
  8
0
 62
    15
 10
4.575120
 20
3.017520
 11
4.572040
 21
3.756280
 12
4.694360
 22
2.974400
 13
4.691720
 23
3.713160
  0
POLYLINE
  8
0
  6
CONTINUOUS
 66
     1
 40
0.000000
 41
0.000000
  0
VERTEX
  8
0
  6
CONTINUOUS
 10
4.575120
 20
3.017520
  0
VERTEX
  8
0
  6
CONTINUOUS
 10
4.572040
 20
3.756280
  0
VERTEX
  8
0
  6
CONTINUOUS
 10
4.691720
 20
3.713160
  0
VERTEX
  8
0
  6
CONTINUOUS
 10
4.694360
 20
2.974400
  0
VERTEX
  8
0
  6
CONTINUOUS
 10
4.575120
 20
3.017520
  0
SEQEND
  8
0
  0
SOLID
  8
0
 62
    15
 10
4.694360
 20
2.974400
 11
4.691720
 21
3.713160
 12
4.813160
 22
2.921600
 13
4.810080
 23
3.660360
  0
POLYLINE
  8
0
  6
CONTINUOUS
 66
     1
 40
0.000000
 41
0.000000
  0
VERTEX
  8
0
  6
CONTINUOUS
 10
4.694360
 20
2.974400
  0
VERTEX
  8
0
  6
CONTINUOUS
 10
4.691720
 20
3.713160
  0
VERTEX
  8
0
  6
CONTINUOUS
 10
4.810080
 20
3.660360
  0
VERTEX
  8
0
  6
CONTINUOUS
 10
4.813160
 20
2.921600
  0
VERTEX
  8
0
  6
CONTINUOUS
 10
4.694360
 20
2.974400
  0
SEQEND
  8
0
  0
SOLID
  8
0
 62
    15
 10
4.813160
 20
2.921600
 11
4.810080
 21
3.660360
 12
4.930640
 22
2.859560
 13
4.928000
 23
3.598320
  0
POLYLINE
  8
0
  6
CONTINUOUS
 66
     1
 40
0.000000
 41
0.000000
  0
VERTEX
  8
0
  6
CONTINUOUS
 10
4.813160
 20
2.921600
  0
VERTEX
  8
0
  6
CONTINUOUS
 10
4.810080
 20
3.660360
  0
VERTEX
  8
0
  6
CONTINUOUS
 10
4.928000
 20
3.598320
  0
VERTEX
  8
0
  6
CONTINUOUS
 10
4.930640
 20
2.859560
  0
VERTEX
  8
0
  6
CONTINUOUS
 10
4.813160
 20
2.921600
  0
SEQEND
  8
0
  0
SOLID
  8
0
 62
    15
 10
4.930640
 20
2.859560
 11
4.928000
 21
3.598320
 12
5.046800
 22
2.788280
 13
5.043720
 23
3.526600
  0
POLYLINE
  8
0
  6
CONTINUOUS
 66
     1
 40
0.000000
 41
0.000000
  0
VERTEX
  8
0
  6
CONTINUOUS
 10
4.930640
 20
2.859560
  0
VERTEX
  8
0
  6
CONTINUOUS
 10
4.928000
 20
3.598320
  0
VERTEX
  8
0
  6
CONTINUOUS
 10
5.043720
 20
3.526600
  0
VERTEX
  8
0
  6
CONTINUOUS
 10
5.046800
 20
2.788280
  0
VERTEX
  8
0
  6
CONTINUOUS
 10
4.930640
 20
2.859560
  0
SEQEND
  8
0
  0
SOLID
  8
0
 62
    15
 10
5.046800
 20
2.788280
 11
5.043720
 21
3.526600
 12
5.060000
 22
2.781240
 13
5.056920
 23
3.520000
  0
POLYLINE
  8
0
  6
CONTINUOUS
 66
     1
 40
0.000000
 41
0.000000
  0
VERTEX
  8
0
  6
CONTINUOUS
 10
5.046800
 20
2.788280
  0
VERTEX
  8
0
  6
CONTINUOUS
 10
5.043720
 20
3.526600
  0
VERTEX
  8
0
  6
CONTINUOUS
 10
5.056920
 20
3.520000
  0
VERTEX
  8
0
  6
CONTINUOUS
 10
5.060000
 20
2.781240
  0
VERTEX
  8
0
  6
CONTINUOUS
 10
5.046800
 20
2.788280
  0
SEQEND
  8
0
  0
POLYLINE
  8
0
  6
CONTINUOUS
 66
     1
 40
0.000000
 41
0.000000
  0
VERTEX
  8
0
  6
CONTINUOUS
 10
5.060000
 20
2.781240
  0
VERTEX
  8
0
  6
CONTINUOUS
 10
5.400120
 20
2.781240
  0
VERTEX
  8
0
  6
CONTINUOUS
 10
5.400120
 20
2.678720
  0
VERTEX
  8
0
  6
CONTINUOUS
 10
5.401440
 20
2.674760
  0
VERTEX
  8
0
  6
CONTINUOUS
 10
5.453360
 20
2.674760
  0
VERTEX
  8
0
  6
CONTINUOUS
 10
5.465240
 20
2.705120
  0
VERTEX
  8
0
  6
CONTINUOUS
 10
5.478440
 20
2.728440
  0
VERTEX
  8
0
  6
CONTINUOUS
 10
5.493840
 20
2.748240
  0
VERTEX
  8
0
  6
CONTINUOUS
 10
5.511000
 20
2.763640
  0
VERTEX
  8
0
  6
CONTINUOUS
 10
5.529480
 20
2.775080
  0
VERTEX
  8
0
  6
CONTINUOUS
 10
5.548840
 20
2.783000
  0
VERTEX
  8
0
  6
CONTINUOUS
 10
5.588440
 20
2.786520
  0
VERTEX
  8
0
  6
CONTINUOUS
 10
5.607800
 20
2.782560
  0
VERTEX
  8
0
  6
CONTINUOUS
 10
5.625840
 20
2.775080
  0
VERTEX
  8
0
  6
CONTINUOUS
 10
5.643000
 20
2.763640
  0
VERTEX
  8
0
  6
CONTINUOUS
 10
5.658400
 20
2.748680
  0
VERTEX
  8
0
  6
CONTINUOUS
 10
5.671160
 20
2.730200
  0
VERTEX
  8
0
  6
CONTINUOUS
 10
5.681280
 20
2.708200
  0
VERTEX
  8
0
  6
CONTINUOUS
 10
5.688760
 20
2.682680
  0
VERTEX
  8
0
  6
CONTINUOUS
 10
5.691840
 20
2.651880
  0
VERTEX
  8
0
  6
CONTINUOUS
 10
5.749480
 20
2.651880
  0
VERTEX
  8
0
  6
CONTINUOUS
 10
5.752120
 20
2.650560
  0
VERTEX
  8
0
  6
CONTINUOUS
 10
5.763120
 20
2.616240
  0
VERTEX
  8
0
  6
CONTINUOUS
 10
5.775440
 20
2.588520
  0
VERTEX
  8
0
  6
CONTINUOUS
 10
5.789520
 20
2.566080
  0
VERTEX
  8
0
  6
CONTINUOUS
 10
5.804920
 20
2.548040
  0
VERTEX
  8
0
  6
CONTINUOUS
 10
5.837480
 20
2.524280
  0
VERTEX
  8
0
  6
CONTINUOUS
 10
5.871800
 20
2.509760
  0
VERTEX
  8
0
  6
CONTINUOUS
 10
5.904360
 20
2.499200
  0
VERTEX
  8
0
  6
CONTINUOUS
 10
5.933840
 20
2.485560
  0
VERTEX
  8
0
  6
CONTINUOUS
 10
5.957600
 20
2.463560
  0
VERTEX
  8
0
  6
CONTINUOUS
 10
5.966400
 20
2.447720
  0
VERTEX
  8
0
  6
CONTINUOUS
 10
5.973440
 20
2.426600
  0
VERTEX
  8
0
  6
CONTINUOUS
 10
5.973440
 20
2.333320
  0
VERTEX
  8
0
  6
CONTINUOUS
 10
5.972120
 20
2.332000
  0
VERTEX
  8
0
  6
CONTINUOUS
 10
2.152040
 20
2.332000
  0
VERTEX
  8
0
  6
CONTINUOUS
 10
2.154680
 20
2.333320
  0
VERTEX
  8
0
  6
CONTINUOUS
 10
2.154680
 20
3.083960
  0
VERTEX
  8
0
  6
CONTINUOUS
 10
2.940080
 20
3.083960
  0
VERTEX
  8
0
  6
CONTINUOUS
 10
2.948000
 20
3.082640
  0
VERTEX
  8
0
  6
CONTINUOUS
 10
3.097160
 20
2.889480
  0
VERTEX
  8
0
  6
CONTINUOUS
 10
3.123120
 20
2.865280
  0
VERTEX
  8
0
  6
CONTINUOUS
 10
3.140720
 20
2.852520
  0
VERTEX
  8
0
  6
CONTINUOUS
 10
3.162280
 20
2.842400
  0
VERTEX
  8
0
  6
CONTINUOUS
 10
3.187800
 20
2.836680
  0
VERTEX
  8
0
  6
CONTINUOUS
 10
3.217280
 20
2.837560
  0
VERTEX
  8
0
  6
CONTINUOUS
 10
3.250720
 20
2.848120
  0
VERTEX
  8
0
  6
CONTINUOUS
 10
3.343560
 20
2.907960
  0
VERTEX
  8
0
  6
CONTINUOUS
 10
3.440800
 20
2.960320
  0
VERTEX
  8
0
  6
CONTINUOUS
 10
3.542440
 20
3.004320
  0
VERTEX
  8
0
  6
CONTINUOUS
 10
3.648040
 20
3.039960
  0
VERTEX
  8
0
  6
CONTINUOUS
 10
3.757160
 20
3.067680
  0
VERTEX
  8
0
  6
CONTINUOUS
 10
3.868920
 20
3.086600
  0
VERTEX
  8
0
  6
CONTINUOUS
 10
3.982880
 20
3.097160
  0
VERTEX
  8
0
  6
CONTINUOUS
 10
4.099040
 20
3.098920
  0
VERTEX
  8
0
  6
CONTINUOUS
 10
4.216960
 20
3.092320
  0
VERTEX
  8
0
  6
CONTINUOUS
 10
4.335760
 20
3.076480
  0
VERTEX
  8
0
  6
CONTINUOUS
 10
4.455440
 20
3.051400
  0
VERTEX
  8
0
  6
CONTINUOUS
 10
4.575120
 20
3.017520
  0
VERTEX
  8
0
  6
CONTINUOUS
 10
4.694360
 20
2.974400
  0
VERTEX
  8
0
  6
CONTINUOUS
 10
4.813160
 20
2.921600
  0
VERTEX
  8
0
  6
CONTINUOUS
 10
4.930640
 20
2.859560
  0
VERTEX
  8
0
  6
CONTINUOUS
 10
5.060000
 20
2.781240
  0
SEQEND
  8
0
  0
TEXT
  8
0
 10
3.571480
 20
2.071080
 40
0.138147
  1
BA  36 & 396
 41
1.000000
  7
SN0
 71
     0
 72
     5
 11
4.547253
 21
2.071080
  0
TEXT
  8
0
 10
3.609760
 20
1.879240
 40
0.138147
  1
3/4" x 3-3/4"
 41
1.000000
  7
SN0
 71
     0
 72
     5
 11
4.509309
 21
1.879240
  0
ENDSEC
  0
EOF
