  0
SECTION
  2
HEADER
  9
$ACADVER
  1
AC1006
  9
$EXTMIN
 10
2.157760
 20
0.436480
  9
$EXTMAX
 10
5.499120
 20
3.168880
  9
$LTSCALE
 40
0.044000
  9
$PDMODE
 70
    35
  9
$PDSIZE
 40
0.035200
  0
ENDSEC
  0
SECTION
  2
TABLES
  0
TABLE
  2
LTYPE
 70
     9
  0
LTYPE
  2
CONTINUOUS
 70
    64
  3
Solid line
 72
    65
 73
     0
 40
0.000000
  0
LTYPE
  2
DASHED
 70
    64
  3
__ __ __ __ __ __ __ __ __ __ __ __ __ __ __
 72
    65
 73
     2
 40
0.000330
 49
0.000220
 49
-0.000110
  0
LTYPE
  2
HIDDEN
 70
    64
  3
 _ _ _ _ _ _ _ _ _ _ _ _ _ _ _ _ _ _ _ _ _ _
 72
    65
 73
     2
 40
0.000165
 49
0.000110
 49
-0.000055
  0
LTYPE
  2
CENTER
 70
    64
  3
____ _ ____ _ ____ _ ____ _ ____ _ ____ _ ____
 72
    65
 73
     4
 40
0.000880
 49
0.000550
 49
-0.000110
 49
0.000110
 49
-0.000110
  0
LTYPE
  2
PHANTOM
 70
    64
  3
_____ _ _ _____ _ _ _____ _ _ _____ _ _ ____
 72
    65
 73
     6
 40
0.001100
 49
0.000550
 49
-0.000110
 49
0.000110
 49
-0.000110
 49
0.000110
 49
-0.000110
  0
LTYPE
  2
DOT
 70
    64
  3
...............................................
 72
    65
 73
     2
 40
0.000110
 49
0.000000
 49
-0.000110
  0
LTYPE
  2
DASHDOT
 70
    64
  3
__ . __ . __ . __ . __ . __ . __ . __ . __ . __
 72
    65
 73
     4
 40
0.000440
 49
0.000220
 49
-0.000110
 49
0.000000
 49
-0.000110
  0
LTYPE
  2
BORDER
 70
    64
  3
__ __ . __ __ . __ __ . __ __ . __ __ . __ __
 72
    65
 73
     6
 40
0.000770
 49
0.000220
 49
-0.000110
 49
0.000220
 49
-0.000110
 49
0.000000
 49
-0.000110
  0
LTYPE
  2
DIVIDE
 70
    64
  3
__ . . __ . . __ . . __ . . __ . . __ . . __
 72
    65
 73
     6
 40
0.000550
 49
0.000220
 49
-0.000110
 49
0.000000
 49
-0.000110
 49
0.000000
 49
-0.000110
  0
LTYPE
  2
DOTDOT
 70
    64
  3
 . .  . .  . .  . .  . .  . . 
 72
    65
 73
     5
 40
0.000242
 49
-0.000110
 49
0.000000
 49
-0.000110
 49
0.000000
 49
-0.000110
  0
ENDTAB
  0
TABLE
  2
STYLE
 70
     2
  0
STYLE
 70
     0
  2
SN0
 40
0.000000
 41
0.000440
 50
0.000000
 71
     0
 42
0.000000
  3
ROMAND
  0
STYLE
 70
    68
  2
SV0
 40
0.000000
 41
0.000440
 50
0.000000
 71
     0
 42
0.000000
  3
ROMAND
  0
ENDTAB
  0
TABLE
  2
LAYER
 70
     3
  0
LAYER
  2
FOREGROUND
 70
    64
 62
     7
  6
CONTINUOUS
  0
LAYER
  2
BACKGROUND
 70
    65
 62
    -7
  6
CONTINUOUS
  0
LAYER
  2
0
 70
    64
 62
     7
  6
CONTINUOUS
  0
ENDTAB
  0
ENDSEC
  0
SECTION
  2
ENTITIES
  0
POLYLINE
  8
FOREGROUND
  6
CONTINUOUS
 66
     1
 40
0.000000
 41
0.000000
  0
VERTEX
  8
FOREGROUND
  6
CONTINUOUS
 10
0.000000
 20
3.605360
  0
VERTEX
  8
FOREGROUND
  6
CONTINUOUS
 10
8.499920
 20
3.605360
  0
VERTEX
  8
FOREGROUND
  6
CONTINUOUS
 10
8.499920
 20
-7.394640
  0
VERTEX
  8
FOREGROUND
  6
CONTINUOUS
 10
0.000000
 20
-7.394640
  0
VERTEX
  8
FOREGROUND
  6
CONTINUOUS
 10
0.000000
 20
3.605360
  0
SEQEND
  8
0
  0
POLYLINE
  8
FOREGROUND
  6
CONTINUOUS
 66
     1
 40
0.000000
 41
0.000000
  0
VERTEX
  8
FOREGROUND
  6
CONTINUOUS
 10
0.000000
 20
3.605360
  0
VERTEX
  8
FOREGROUND
  6
CONTINUOUS
 10
8.499920
 20
3.605360
  0
VERTEX
  8
FOREGROUND
  6
CONTINUOUS
 10
8.499920
 20
-7.394640
  0
VERTEX
  8
FOREGROUND
  6
CONTINUOUS
 10
0.000000
 20
-7.394640
  0
VERTEX
  8
FOREGROUND
  6
CONTINUOUS
 10
0.000000
 20
3.605360
  0
SEQEND
  8
0
  0
POLYLINE
  8
0
  6
CONTINUOUS
 66
     1
 40
0.014080
 41
0.014080
  0
VERTEX
  8
0
  6
CONTINUOUS
 10
2.228160
 20
0.443520
  0
VERTEX
  8
0
  6
CONTINUOUS
 10
2.165240
 20
0.443520
  0
VERTEX
  8
0
  6
CONTINUOUS
 10
2.165240
 20
1.142240
  0
VERTEX
  8
0
  6
CONTINUOUS
 10
2.703800
 20
1.142240
  0
VERTEX
  8
0
  6
CONTINUOUS
 10
2.703800
 20
1.068760
  0
VERTEX
  8
0
  6
CONTINUOUS
 10
2.813360
 20
1.076240
  0
VERTEX
  8
0
  6
CONTINUOUS
 10
2.868360
 20
1.078000
  0
VERTEX
  8
0
  6
CONTINUOUS
 10
2.944480
 20
1.077120
  0
VERTEX
  8
0
  6
CONTINUOUS
 10
3.004320
 20
1.071840
  0
VERTEX
  8
0
  6
CONTINUOUS
 10
3.058880
 20
1.060840
  0
VERTEX
  8
0
  6
CONTINUOUS
 10
3.099360
 20
1.046760
  0
VERTEX
  8
0
  6
CONTINUOUS
 10
3.191320
 20
0.998800
  0
VERTEX
  8
0
  6
CONTINUOUS
 10
3.230480
 20
0.985600
  0
VERTEX
  8
0
  6
CONTINUOUS
 10
3.263920
 20
0.979440
  0
VERTEX
  8
0
  6
CONTINUOUS
 10
3.315840
 20
0.974600
  0
VERTEX
  8
0
  6
CONTINUOUS
 10
3.372160
 20
0.974160
  0
VERTEX
  8
0
  6
CONTINUOUS
 10
3.373480
 20
0.972840
  0
VERTEX
  8
0
  6
CONTINUOUS
 10
3.373480
 20
0.944680
  0
VERTEX
  8
0
  6
CONTINUOUS
 10
3.373480
 20
0.946000
  0
VERTEX
  8
0
  6
CONTINUOUS
 10
5.041520
 20
0.946000
  0
VERTEX
  8
0
  6
CONTINUOUS
 10
5.041520
 20
0.835560
  0
VERTEX
  8
0
  6
CONTINUOUS
 10
5.161200
 20
0.835560
  0
VERTEX
  8
0
  6
CONTINUOUS
 10
5.165600
 20
0.850960
  0
VERTEX
  8
0
  6
CONTINUOUS
 10
5.177920
 20
0.877360
  0
VERTEX
  8
0
  6
CONTINUOUS
 10
5.193760
 20
0.898480
  0
VERTEX
  8
0
  6
CONTINUOUS
 10
5.212680
 20
0.914320
  0
VERTEX
  8
0
  6
CONTINUOUS
 10
5.222800
 20
0.920480
  0
VERTEX
  8
0
  6
CONTINUOUS
 10
5.245240
 20
0.928400
  0
VERTEX
  8
0
  6
CONTINUOUS
 10
5.268560
 20
0.931480
  0
VERTEX
  8
0
  6
CONTINUOUS
 10
5.280880
 20
0.931480
  0
VERTEX
  8
0
  6
CONTINUOUS
 10
5.305080
 20
0.927080
  0
VERTEX
  8
0
  6
CONTINUOUS
 10
5.329280
 20
0.918280
  0
VERTEX
  8
0
  6
CONTINUOUS
 10
5.353040
 20
0.905080
  0
VERTEX
  8
0
  6
CONTINUOUS
 10
5.375040
 20
0.887040
  0
VERTEX
  8
0
  6
CONTINUOUS
 10
5.394840
 20
0.865040
  0
VERTEX
  8
0
  6
CONTINUOUS
 10
5.412000
 20
0.838200
  0
VERTEX
  8
0
  6
CONTINUOUS
 10
5.419480
 20
0.823680
  0
VERTEX
  8
0
  6
CONTINUOUS
 10
5.431360
 20
0.791120
  0
VERTEX
  8
0
  6
CONTINUOUS
 10
5.438840
 20
0.754600
  0
VERTEX
  8
0
  6
CONTINUOUS
 10
5.441480
 20
0.714120
  0
VERTEX
  8
0
  6
CONTINUOUS
 10
5.441480
 20
0.715440
  0
VERTEX
  8
0
  6
CONTINUOUS
 10
5.441480
 20
0.443520
  0
VERTEX
  8
0
  6
CONTINUOUS
 10
2.228160
 20
0.443520
  0
SEQEND
  8
0
  0
SOLID
  8
0
 62
    15
 10
3.425400
 20
2.252800
 11
3.430680
 21
2.999040
 12
3.425400
 22
2.225960
 13
3.430680
 23
2.972200
  0
POLYLINE
  8
0
  6
CONTINUOUS
 66
     1
 40
0.000000
 41
0.000000
  0
VERTEX
  8
0
  6
CONTINUOUS
 10
3.425400
 20
2.252800
  0
VERTEX
  8
0
  6
CONTINUOUS
 10
3.430680
 20
2.999040
  0
VERTEX
  8
0
  6
CONTINUOUS
 10
3.430680
 20
2.972200
  0
VERTEX
  8
0
  6
CONTINUOUS
 10
3.425400
 20
2.225960
  0
VERTEX
  8
0
  6
CONTINUOUS
 10
3.425400
 20
2.252800
  0
SEQEND
  8
0
  0
SOLID
  8
0
 62
    15
 10
2.755720
 20
2.421760
 11
2.761440
 21
3.168000
 12
2.755720
 22
2.348720
 13
2.761440
 23
3.094960
  0
POLYLINE
  8
0
  6
CONTINUOUS
 66
     1
 40
0.000000
 41
0.000000
  0
VERTEX
  8
0
  6
CONTINUOUS
 10
2.755720
 20
2.421760
  0
VERTEX
  8
0
  6
CONTINUOUS
 10
2.761440
 20
3.168000
  0
VERTEX
  8
0
  6
CONTINUOUS
 10
2.761440
 20
3.094960
  0
VERTEX
  8
0
  6
CONTINUOUS
 10
2.755720
 20
2.348720
  0
VERTEX
  8
0
  6
CONTINUOUS
 10
2.755720
 20
2.421760
  0
SEQEND
  8
0
  0
SOLID
  8
0
 62
    15
 10
2.755720
 20
2.348720
 11
2.761440
 21
3.094960
 12
2.802360
 22
2.352240
 13
2.808080
 23
3.098480
  0
POLYLINE
  8
0
  6
CONTINUOUS
 66
     1
 40
0.000000
 41
0.000000
  0
VERTEX
  8
0
  6
CONTINUOUS
 10
2.755720
 20
2.348720
  0
VERTEX
  8
0
  6
CONTINUOUS
 10
2.761440
 20
3.094960
  0
VERTEX
  8
0
  6
CONTINUOUS
 10
2.808080
 20
3.098480
  0
VERTEX
  8
0
  6
CONTINUOUS
 10
2.802360
 20
2.352240
  0
VERTEX
  8
0
  6
CONTINUOUS
 10
2.755720
 20
2.348720
  0
SEQEND
  8
0
  0
SOLID
  8
0
 62
    15
 10
2.802360
 20
2.352240
 11
2.808080
 21
3.098480
 12
2.845040
 22
2.354880
 13
2.850760
 23
3.101120
  0
POLYLINE
  8
0
  6
CONTINUOUS
 66
     1
 40
0.000000
 41
0.000000
  0
VERTEX
  8
0
  6
CONTINUOUS
 10
2.802360
 20
2.352240
  0
VERTEX
  8
0
  6
CONTINUOUS
 10
2.808080
 20
3.098480
  0
VERTEX
  8
0
  6
CONTINUOUS
 10
2.850760
 20
3.101120
  0
VERTEX
  8
0
  6
CONTINUOUS
 10
2.845040
 20
2.354880
  0
VERTEX
  8
0
  6
CONTINUOUS
 10
2.802360
 20
2.352240
  0
SEQEND
  8
0
  0
SOLID
  8
0
 62
    15
 10
2.845040
 20
2.354880
 11
2.850760
 21
3.101120
 12
2.884640
 22
2.357080
 13
2.889920
 23
3.103320
  0
POLYLINE
  8
0
  6
CONTINUOUS
 66
     1
 40
0.000000
 41
0.000000
  0
VERTEX
  8
0
  6
CONTINUOUS
 10
2.845040
 20
2.354880
  0
VERTEX
  8
0
  6
CONTINUOUS
 10
2.850760
 20
3.101120
  0
VERTEX
  8
0
  6
CONTINUOUS
 10
2.889920
 20
3.103320
  0
VERTEX
  8
0
  6
CONTINUOUS
 10
2.884640
 20
2.357080
  0
VERTEX
  8
0
  6
CONTINUOUS
 10
2.845040
 20
2.354880
  0
SEQEND
  8
0
  0
SOLID
  8
0
 62
    15
 10
2.884640
 20
2.357080
 11
2.889920
 21
3.103320
 12
2.920280
 22
2.357960
 13
2.926000
 23
3.104200
  0
POLYLINE
  8
0
  6
CONTINUOUS
 66
     1
 40
0.000000
 41
0.000000
  0
VERTEX
  8
0
  6
CONTINUOUS
 10
2.884640
 20
2.357080
  0
VERTEX
  8
0
  6
CONTINUOUS
 10
2.889920
 20
3.103320
  0
VERTEX
  8
0
  6
CONTINUOUS
 10
2.926000
 20
3.104200
  0
VERTEX
  8
0
  6
CONTINUOUS
 10
2.920280
 20
2.357960
  0
VERTEX
  8
0
  6
CONTINUOUS
 10
2.884640
 20
2.357080
  0
SEQEND
  8
0
  0
SOLID
  8
0
 62
    15
 10
2.920280
 20
2.357960
 11
2.926000
 21
3.104200
 12
2.982760
 22
2.357520
 13
2.988480
 23
3.103760
  0
POLYLINE
  8
0
  6
CONTINUOUS
 66
     1
 40
0.000000
 41
0.000000
  0
VERTEX
  8
0
  6
CONTINUOUS
 10
2.920280
 20
2.357960
  0
VERTEX
  8
0
  6
CONTINUOUS
 10
2.926000
 20
3.104200
  0
VERTEX
  8
0
  6
CONTINUOUS
 10
2.988480
 20
3.103760
  0
VERTEX
  8
0
  6
CONTINUOUS
 10
2.982760
 20
2.357520
  0
VERTEX
  8
0
  6
CONTINUOUS
 10
2.920280
 20
2.357960
  0
SEQEND
  8
0
  0
SOLID
  8
0
 62
    15
 10
2.982760
 20
2.357520
 11
2.988480
 21
3.103760
 12
3.034240
 22
2.354000
 13
3.039960
 23
3.100240
  0
POLYLINE
  8
0
  6
CONTINUOUS
 66
     1
 40
0.000000
 41
0.000000
  0
VERTEX
  8
0
  6
CONTINUOUS
 10
2.982760
 20
2.357520
  0
VERTEX
  8
0
  6
CONTINUOUS
 10
2.988480
 20
3.103760
  0
VERTEX
  8
0
  6
CONTINUOUS
 10
3.039960
 20
3.100240
  0
VERTEX
  8
0
  6
CONTINUOUS
 10
3.034240
 20
2.354000
  0
VERTEX
  8
0
  6
CONTINUOUS
 10
2.982760
 20
2.357520
  0
SEQEND
  8
0
  0
SOLID
  8
0
 62
    15
 10
3.034240
 20
2.354000
 11
3.039960
 21
3.100240
 12
3.076480
 22
2.348280
 13
3.082200
 23
3.094520
  0
POLYLINE
  8
0
  6
CONTINUOUS
 66
     1
 40
0.000000
 41
0.000000
  0
VERTEX
  8
0
  6
CONTINUOUS
 10
3.034240
 20
2.354000
  0
VERTEX
  8
0
  6
CONTINUOUS
 10
3.039960
 20
3.100240
  0
VERTEX
  8
0
  6
CONTINUOUS
 10
3.082200
 20
3.094520
  0
VERTEX
  8
0
  6
CONTINUOUS
 10
3.076480
 20
2.348280
  0
VERTEX
  8
0
  6
CONTINUOUS
 10
3.034240
 20
2.354000
  0
SEQEND
  8
0
  0
SOLID
  8
0
 62
    15
 10
3.076480
 20
2.348280
 11
3.082200
 21
3.094520
 12
3.110800
 22
2.340800
 13
3.116080
 23
3.087040
  0
POLYLINE
  8
0
  6
CONTINUOUS
 66
     1
 40
0.000000
 41
0.000000
  0
VERTEX
  8
0
  6
CONTINUOUS
 10
3.076480
 20
2.348280
  0
VERTEX
  8
0
  6
CONTINUOUS
 10
3.082200
 20
3.094520
  0
VERTEX
  8
0
  6
CONTINUOUS
 10
3.116080
 20
3.087040
  0
VERTEX
  8
0
  6
CONTINUOUS
 10
3.110800
 20
2.340800
  0
VERTEX
  8
0
  6
CONTINUOUS
 10
3.076480
 20
2.348280
  0
SEQEND
  8
0
  0
SOLID
  8
0
 62
    15
 10
3.110800
 20
2.340800
 11
3.116080
 21
3.087040
 12
3.138960
 22
2.331560
 13
3.144240
 23
3.077800
  0
POLYLINE
  8
0
  6
CONTINUOUS
 66
     1
 40
0.000000
 41
0.000000
  0
VERTEX
  8
0
  6
CONTINUOUS
 10
3.110800
 20
2.340800
  0
VERTEX
  8
0
  6
CONTINUOUS
 10
3.116080
 20
3.087040
  0
VERTEX
  8
0
  6
CONTINUOUS
 10
3.144240
 20
3.077800
  0
VERTEX
  8
0
  6
CONTINUOUS
 10
3.138960
 20
2.331560
  0
VERTEX
  8
0
  6
CONTINUOUS
 10
3.110800
 20
2.340800
  0
SEQEND
  8
0
  0
SOLID
  8
0
 62
    15
 10
3.138960
 20
2.331560
 11
3.144240
 21
3.077800
 12
3.162280
 22
2.321440
 13
3.168000
 23
3.067680
  0
POLYLINE
  8
0
  6
CONTINUOUS
 66
     1
 40
0.000000
 41
0.000000
  0
VERTEX
  8
0
  6
CONTINUOUS
 10
3.138960
 20
2.331560
  0
VERTEX
  8
0
  6
CONTINUOUS
 10
3.144240
 20
3.077800
  0
VERTEX
  8
0
  6
CONTINUOUS
 10
3.168000
 20
3.067680
  0
VERTEX
  8
0
  6
CONTINUOUS
 10
3.162280
 20
2.321440
  0
VERTEX
  8
0
  6
CONTINUOUS
 10
3.138960
 20
2.331560
  0
SEQEND
  8
0
  0
SOLID
  8
0
 62
    15
 10
3.162280
 20
2.321440
 11
3.168000
 21
3.067680
 12
3.182960
 22
2.310440
 13
3.188680
 23
3.056680
  0
POLYLINE
  8
0
  6
CONTINUOUS
 66
     1
 40
0.000000
 41
0.000000
  0
VERTEX
  8
0
  6
CONTINUOUS
 10
3.162280
 20
2.321440
  0
VERTEX
  8
0
  6
CONTINUOUS
 10
3.168000
 20
3.067680
  0
VERTEX
  8
0
  6
CONTINUOUS
 10
3.188680
 20
3.056680
  0
VERTEX
  8
0
  6
CONTINUOUS
 10
3.182960
 20
2.310440
  0
VERTEX
  8
0
  6
CONTINUOUS
 10
3.162280
 20
2.321440
  0
SEQEND
  8
0
  0
SOLID
  8
0
 62
    15
 10
3.182960
 20
2.310440
 11
3.188680
 21
3.056680
 12
3.202320
 22
2.299440
 13
3.208040
 23
3.045680
  0
POLYLINE
  8
0
  6
CONTINUOUS
 66
     1
 40
0.000000
 41
0.000000
  0
VERTEX
  8
0
  6
CONTINUOUS
 10
3.182960
 20
2.310440
  0
VERTEX
  8
0
  6
CONTINUOUS
 10
3.188680
 20
3.056680
  0
VERTEX
  8
0
  6
CONTINUOUS
 10
3.208040
 20
3.045680
  0
VERTEX
  8
0
  6
CONTINUOUS
 10
3.202320
 20
2.299440
  0
VERTEX
  8
0
  6
CONTINUOUS
 10
3.182960
 20
2.310440
  0
SEQEND
  8
0
  0
SOLID
  8
0
 62
    15
 10
3.202320
 20
2.299440
 11
3.208040
 21
3.045680
 12
3.243240
 22
2.278320
 13
3.248960
 23
3.024560
  0
POLYLINE
  8
0
  6
CONTINUOUS
 66
     1
 40
0.000000
 41
0.000000
  0
VERTEX
  8
0
  6
CONTINUOUS
 10
3.202320
 20
2.299440
  0
VERTEX
  8
0
  6
CONTINUOUS
 10
3.208040
 20
3.045680
  0
VERTEX
  8
0
  6
CONTINUOUS
 10
3.248960
 20
3.024560
  0
VERTEX
  8
0
  6
CONTINUOUS
 10
3.243240
 20
2.278320
  0
VERTEX
  8
0
  6
CONTINUOUS
 10
3.202320
 20
2.299440
  0
SEQEND
  8
0
  0
SOLID
  8
0
 62
    15
 10
3.243240
 20
2.278320
 11
3.248960
 21
3.024560
 12
3.268320
 22
2.269520
 13
3.273600
 23
3.015760
  0
POLYLINE
  8
0
  6
CONTINUOUS
 66
     1
 40
0.000000
 41
0.000000
  0
VERTEX
  8
0
  6
CONTINUOUS
 10
3.243240
 20
2.278320
  0
VERTEX
  8
0
  6
CONTINUOUS
 10
3.248960
 20
3.024560
  0
VERTEX
  8
0
  6
CONTINUOUS
 10
3.273600
 20
3.015760
  0
VERTEX
  8
0
  6
CONTINUOUS
 10
3.268320
 20
2.269520
  0
VERTEX
  8
0
  6
CONTINUOUS
 10
3.243240
 20
2.278320
  0
SEQEND
  8
0
  0
SOLID
  8
0
 62
    15
 10
3.268320
 20
2.269520
 11
3.273600
 21
3.015760
 12
3.298240
 22
2.262040
 13
3.303520
 23
3.008280
  0
POLYLINE
  8
0
  6
CONTINUOUS
 66
     1
 40
0.000000
 41
0.000000
  0
VERTEX
  8
0
  6
CONTINUOUS
 10
3.268320
 20
2.269520
  0
VERTEX
  8
0
  6
CONTINUOUS
 10
3.273600
 20
3.015760
  0
VERTEX
  8
0
  6
CONTINUOUS
 10
3.303520
 20
3.008280
  0
VERTEX
  8
0
  6
CONTINUOUS
 10
3.298240
 20
2.262040
  0
VERTEX
  8
0
  6
CONTINUOUS
 10
3.268320
 20
2.269520
  0
SEQEND
  8
0
  0
SOLID
  8
0
 62
    15
 10
3.298240
 20
2.262040
 11
3.303520
 21
3.008280
 12
3.334760
 22
2.256760
 13
3.340480
 23
3.003000
  0
POLYLINE
  8
0
  6
CONTINUOUS
 66
     1
 40
0.000000
 41
0.000000
  0
VERTEX
  8
0
  6
CONTINUOUS
 10
3.298240
 20
2.262040
  0
VERTEX
  8
0
  6
CONTINUOUS
 10
3.303520
 20
3.008280
  0
VERTEX
  8
0
  6
CONTINUOUS
 10
3.340480
 20
3.003000
  0
VERTEX
  8
0
  6
CONTINUOUS
 10
3.334760
 20
2.256760
  0
VERTEX
  8
0
  6
CONTINUOUS
 10
3.298240
 20
2.262040
  0
SEQEND
  8
0
  0
SOLID
  8
0
 62
    15
 10
3.334760
 20
2.256760
 11
3.340480
 21
3.003000
 12
3.380080
 22
2.254120
 13
3.385360
 23
3.000360
  0
POLYLINE
  8
0
  6
CONTINUOUS
 66
     1
 40
0.000000
 41
0.000000
  0
VERTEX
  8
0
  6
CONTINUOUS
 10
3.334760
 20
2.256760
  0
VERTEX
  8
0
  6
CONTINUOUS
 10
3.340480
 20
3.003000
  0
VERTEX
  8
0
  6
CONTINUOUS
 10
3.385360
 20
3.000360
  0
VERTEX
  8
0
  6
CONTINUOUS
 10
3.380080
 20
2.254120
  0
VERTEX
  8
0
  6
CONTINUOUS
 10
3.334760
 20
2.256760
  0
SEQEND
  8
0
  0
SOLID
  8
0
 62
    15
 10
3.380080
 20
2.254120
 11
3.385360
 21
3.000360
 12
3.423640
 22
2.254120
 13
3.429360
 23
3.000360
  0
POLYLINE
  8
0
  6
CONTINUOUS
 66
     1
 40
0.000000
 41
0.000000
  0
VERTEX
  8
0
  6
CONTINUOUS
 10
3.380080
 20
2.254120
  0
VERTEX
  8
0
  6
CONTINUOUS
 10
3.385360
 20
3.000360
  0
VERTEX
  8
0
  6
CONTINUOUS
 10
3.429360
 20
3.000360
  0
VERTEX
  8
0
  6
CONTINUOUS
 10
3.423640
 20
2.254120
  0
VERTEX
  8
0
  6
CONTINUOUS
 10
3.380080
 20
2.254120
  0
SEQEND
  8
0
  0
SOLID
  8
0
 62
    15
 10
3.423640
 20
2.254120
 11
3.429360
 21
3.000360
 12
3.425400
 22
2.252800
 13
3.430680
 23
2.999040
  0
POLYLINE
  8
0
  6
CONTINUOUS
 66
     1
 40
0.000000
 41
0.000000
  0
VERTEX
  8
0
  6
CONTINUOUS
 10
3.423640
 20
2.254120
  0
VERTEX
  8
0
  6
CONTINUOUS
 10
3.429360
 20
3.000360
  0
VERTEX
  8
0
  6
CONTINUOUS
 10
3.430680
 20
2.999040
  0
VERTEX
  8
0
  6
CONTINUOUS
 10
3.425400
 20
2.252800
  0
VERTEX
  8
0
  6
CONTINUOUS
 10
3.423640
 20
2.254120
  0
SEQEND
  8
0
  0
SOLID
  8
0
 62
    15
 10
2.217160
 20
2.421760
 11
2.222880
 21
3.168000
 12
2.755720
 22
2.421760
 13
2.761440
 23
3.168000
  0
POLYLINE
  8
0
  6
CONTINUOUS
 66
     1
 40
0.000000
 41
0.000000
  0
VERTEX
  8
0
  6
CONTINUOUS
 10
2.217160
 20
2.421760
  0
VERTEX
  8
0
  6
CONTINUOUS
 10
2.222880
 20
3.168000
  0
VERTEX
  8
0
  6
CONTINUOUS
 10
2.761440
 20
3.168000
  0
VERTEX
  8
0
  6
CONTINUOUS
 10
2.755720
 20
2.421760
  0
VERTEX
  8
0
  6
CONTINUOUS
 10
2.217160
 20
2.421760
  0
SEQEND
  8
0
  0
SOLID
  8
0
 62
    15
 10
5.093440
 20
2.115080
 11
5.098720
 21
2.861320
 12
5.213120
 22
2.115080
 13
5.218840
 23
2.861320
  0
POLYLINE
  8
0
  6
CONTINUOUS
 66
     1
 40
0.000000
 41
0.000000
  0
VERTEX
  8
0
  6
CONTINUOUS
 10
5.093440
 20
2.115080
  0
VERTEX
  8
0
  6
CONTINUOUS
 10
5.098720
 20
2.861320
  0
VERTEX
  8
0
  6
CONTINUOUS
 10
5.218840
 20
2.861320
  0
VERTEX
  8
0
  6
CONTINUOUS
 10
5.213120
 20
2.115080
  0
VERTEX
  8
0
  6
CONTINUOUS
 10
5.093440
 20
2.115080
  0
SEQEND
  8
0
  0
SOLID
  8
0
 62
    15
 10
5.093440
 20
2.225960
 11
5.098720
 21
2.972200
 12
5.093440
 22
2.115080
 13
5.098720
 23
2.861320
  0
POLYLINE
  8
0
  6
CONTINUOUS
 66
     1
 40
0.000000
 41
0.000000
  0
VERTEX
  8
0
  6
CONTINUOUS
 10
5.093440
 20
2.225960
  0
VERTEX
  8
0
  6
CONTINUOUS
 10
5.098720
 20
2.972200
  0
VERTEX
  8
0
  6
CONTINUOUS
 10
5.098720
 20
2.861320
  0
VERTEX
  8
0
  6
CONTINUOUS
 10
5.093440
 20
2.115080
  0
VERTEX
  8
0
  6
CONTINUOUS
 10
5.093440
 20
2.225960
  0
SEQEND
  8
0
  0
SOLID
  8
0
 62
    15
 10
3.425400
 20
2.225960
 11
3.430680
 21
2.972200
 12
5.093440
 22
2.225960
 13
5.098720
 23
2.972200
  0
POLYLINE
  8
0
  6
CONTINUOUS
 66
     1
 40
0.000000
 41
0.000000
  0
VERTEX
  8
0
  6
CONTINUOUS
 10
3.425400
 20
2.225960
  0
VERTEX
  8
0
  6
CONTINUOUS
 10
3.430680
 20
2.972200
  0
VERTEX
  8
0
  6
CONTINUOUS
 10
5.098720
 20
2.972200
  0
VERTEX
  8
0
  6
CONTINUOUS
 10
5.093440
 20
2.225960
  0
VERTEX
  8
0
  6
CONTINUOUS
 10
3.425400
 20
2.225960
  0
SEQEND
  8
0
  0
SOLID
  8
0
 62
    15
 10
5.213120
 20
2.115080
 11
5.218840
 21
2.861320
 12
5.223240
 22
2.144560
 13
5.228960
 23
2.890800
  0
POLYLINE
  8
0
  6
CONTINUOUS
 66
     1
 40
0.000000
 41
0.000000
  0
VERTEX
  8
0
  6
CONTINUOUS
 10
5.213120
 20
2.115080
  0
VERTEX
  8
0
  6
CONTINUOUS
 10
5.218840
 20
2.861320
  0
VERTEX
  8
0
  6
CONTINUOUS
 10
5.228960
 20
2.890800
  0
VERTEX
  8
0
  6
CONTINUOUS
 10
5.223240
 20
2.144560
  0
VERTEX
  8
0
  6
CONTINUOUS
 10
5.213120
 20
2.115080
  0
SEQEND
  8
0
  0
SOLID
  8
0
 62
    15
 10
5.223240
 20
2.144560
 11
5.228960
 21
2.890800
 12
5.237320
 22
2.168320
 13
5.243040
 23
2.914560
  0
POLYLINE
  8
0
  6
CONTINUOUS
 66
     1
 40
0.000000
 41
0.000000
  0
VERTEX
  8
0
  6
CONTINUOUS
 10
5.223240
 20
2.144560
  0
VERTEX
  8
0
  6
CONTINUOUS
 10
5.228960
 20
2.890800
  0
VERTEX
  8
0
  6
CONTINUOUS
 10
5.243040
 20
2.914560
  0
VERTEX
  8
0
  6
CONTINUOUS
 10
5.237320
 20
2.168320
  0
VERTEX
  8
0
  6
CONTINUOUS
 10
5.223240
 20
2.144560
  0
SEQEND
  8
0
  0
SOLID
  8
0
 62
    15
 10
5.237320
 20
2.168320
 11
5.243040
 21
2.914560
 12
5.254920
 22
2.186800
 13
5.260200
 23
2.933040
  0
POLYLINE
  8
0
  6
CONTINUOUS
 66
     1
 40
0.000000
 41
0.000000
  0
VERTEX
  8
0
  6
CONTINUOUS
 10
5.237320
 20
2.168320
  0
VERTEX
  8
0
  6
CONTINUOUS
 10
5.243040
 20
2.914560
  0
VERTEX
  8
0
  6
CONTINUOUS
 10
5.260200
 20
2.933040
  0
VERTEX
  8
0
  6
CONTINUOUS
 10
5.254920
 20
2.186800
  0
VERTEX
  8
0
  6
CONTINUOUS
 10
5.237320
 20
2.168320
  0
SEQEND
  8
0
  0
SOLID
  8
0
 62
    15
 10
5.254920
 20
2.186800
 11
5.260200
 21
2.933040
 12
5.274720
 22
2.200000
 13
5.280440
 23
2.946240
  0
POLYLINE
  8
0
  6
CONTINUOUS
 66
     1
 40
0.000000
 41
0.000000
  0
VERTEX
  8
0
  6
CONTINUOUS
 10
5.254920
 20
2.186800
  0
VERTEX
  8
0
  6
CONTINUOUS
 10
5.260200
 20
2.933040
  0
VERTEX
  8
0
  6
CONTINUOUS
 10
5.280440
 20
2.946240
  0
VERTEX
  8
0
  6
CONTINUOUS
 10
5.274720
 20
2.200000
  0
VERTEX
  8
0
  6
CONTINUOUS
 10
5.254920
 20
2.186800
  0
SEQEND
  8
0
  0
SOLID
  8
0
 62
    15
 10
5.274720
 20
2.200000
 11
5.280440
 21
2.946240
 12
5.297160
 22
2.208360
 13
5.302440
 23
2.954600
  0
POLYLINE
  8
0
  6
CONTINUOUS
 66
     1
 40
0.000000
 41
0.000000
  0
VERTEX
  8
0
  6
CONTINUOUS
 10
5.274720
 20
2.200000
  0
VERTEX
  8
0
  6
CONTINUOUS
 10
5.280440
 20
2.946240
  0
VERTEX
  8
0
  6
CONTINUOUS
 10
5.302440
 20
2.954600
  0
VERTEX
  8
0
  6
CONTINUOUS
 10
5.297160
 20
2.208360
  0
VERTEX
  8
0
  6
CONTINUOUS
 10
5.274720
 20
2.200000
  0
SEQEND
  8
0
  0
SOLID
  8
0
 62
    15
 10
5.297160
 20
2.208360
 11
5.302440
 21
2.954600
 12
5.320480
 22
2.211440
 13
5.326200
 23
2.957680
  0
POLYLINE
  8
0
  6
CONTINUOUS
 66
     1
 40
0.000000
 41
0.000000
  0
VERTEX
  8
0
  6
CONTINUOUS
 10
5.297160
 20
2.208360
  0
VERTEX
  8
0
  6
CONTINUOUS
 10
5.302440
 20
2.954600
  0
VERTEX
  8
0
  6
CONTINUOUS
 10
5.326200
 20
2.957680
  0
VERTEX
  8
0
  6
CONTINUOUS
 10
5.320480
 20
2.211440
  0
VERTEX
  8
0
  6
CONTINUOUS
 10
5.297160
 20
2.208360
  0
SEQEND
  8
0
  0
SOLID
  8
0
 62
    15
 10
5.320480
 20
2.211440
 11
5.326200
 21
2.957680
 12
5.344680
 22
2.209680
 13
5.350400
 23
2.955920
  0
POLYLINE
  8
0
  6
CONTINUOUS
 66
     1
 40
0.000000
 41
0.000000
  0
VERTEX
  8
0
  6
CONTINUOUS
 10
5.320480
 20
2.211440
  0
VERTEX
  8
0
  6
CONTINUOUS
 10
5.326200
 20
2.957680
  0
VERTEX
  8
0
  6
CONTINUOUS
 10
5.350400
 20
2.955920
  0
VERTEX
  8
0
  6
CONTINUOUS
 10
5.344680
 20
2.209680
  0
VERTEX
  8
0
  6
CONTINUOUS
 10
5.320480
 20
2.211440
  0
SEQEND
  8
0
  0
SOLID
  8
0
 62
    15
 10
5.344680
 20
2.209680
 11
5.350400
 21
2.955920
 12
5.369320
 22
2.203080
 13
5.374600
 23
2.949320
  0
POLYLINE
  8
0
  6
CONTINUOUS
 66
     1
 40
0.000000
 41
0.000000
  0
VERTEX
  8
0
  6
CONTINUOUS
 10
5.344680
 20
2.209680
  0
VERTEX
  8
0
  6
CONTINUOUS
 10
5.350400
 20
2.955920
  0
VERTEX
  8
0
  6
CONTINUOUS
 10
5.374600
 20
2.949320
  0
VERTEX
  8
0
  6
CONTINUOUS
 10
5.369320
 20
2.203080
  0
VERTEX
  8
0
  6
CONTINUOUS
 10
5.344680
 20
2.209680
  0
SEQEND
  8
0
  0
SOLID
  8
0
 62
    15
 10
5.369320
 20
2.203080
 11
5.374600
 21
2.949320
 12
5.393080
 22
2.192080
 13
5.398800
 23
2.938320
  0
POLYLINE
  8
0
  6
CONTINUOUS
 66
     1
 40
0.000000
 41
0.000000
  0
VERTEX
  8
0
  6
CONTINUOUS
 10
5.369320
 20
2.203080
  0
VERTEX
  8
0
  6
CONTINUOUS
 10
5.374600
 20
2.949320
  0
VERTEX
  8
0
  6
CONTINUOUS
 10
5.398800
 20
2.938320
  0
VERTEX
  8
0
  6
CONTINUOUS
 10
5.393080
 20
2.192080
  0
VERTEX
  8
0
  6
CONTINUOUS
 10
5.369320
 20
2.203080
  0
SEQEND
  8
0
  0
SOLID
  8
0
 62
    15
 10
5.393080
 20
2.192080
 11
5.398800
 21
2.938320
 12
5.415960
 22
2.176240
 13
5.421240
 23
2.922480
  0
POLYLINE
  8
0
  6
CONTINUOUS
 66
     1
 40
0.000000
 41
0.000000
  0
VERTEX
  8
0
  6
CONTINUOUS
 10
5.393080
 20
2.192080
  0
VERTEX
  8
0
  6
CONTINUOUS
 10
5.398800
 20
2.938320
  0
VERTEX
  8
0
  6
CONTINUOUS
 10
5.421240
 20
2.922480
  0
VERTEX
  8
0
  6
CONTINUOUS
 10
5.415960
 20
2.176240
  0
VERTEX
  8
0
  6
CONTINUOUS
 10
5.393080
 20
2.192080
  0
SEQEND
  8
0
  0
SOLID
  8
0
 62
    15
 10
5.415960
 20
2.176240
 11
5.421240
 21
2.922480
 12
5.436640
 22
2.156440
 13
5.442360
 23
2.902680
  0
POLYLINE
  8
0
  6
CONTINUOUS
 66
     1
 40
0.000000
 41
0.000000
  0
VERTEX
  8
0
  6
CONTINUOUS
 10
5.415960
 20
2.176240
  0
VERTEX
  8
0
  6
CONTINUOUS
 10
5.421240
 20
2.922480
  0
VERTEX
  8
0
  6
CONTINUOUS
 10
5.442360
 20
2.902680
  0
VERTEX
  8
0
  6
CONTINUOUS
 10
5.436640
 20
2.156440
  0
VERTEX
  8
0
  6
CONTINUOUS
 10
5.415960
 20
2.176240
  0
SEQEND
  8
0
  0
SOLID
  8
0
 62
    15
 10
5.436640
 20
2.156440
 11
5.442360
 21
2.902680
 12
5.455560
 22
2.131800
 13
5.460840
 23
2.878040
  0
POLYLINE
  8
0
  6
CONTINUOUS
 66
     1
 40
0.000000
 41
0.000000
  0
VERTEX
  8
0
  6
CONTINUOUS
 10
5.436640
 20
2.156440
  0
VERTEX
  8
0
  6
CONTINUOUS
 10
5.442360
 20
2.902680
  0
VERTEX
  8
0
  6
CONTINUOUS
 10
5.460840
 20
2.878040
  0
VERTEX
  8
0
  6
CONTINUOUS
 10
5.455560
 20
2.131800
  0
VERTEX
  8
0
  6
CONTINUOUS
 10
5.436640
 20
2.156440
  0
SEQEND
  8
0
  0
SOLID
  8
0
 62
    15
 10
5.455560
 20
2.131800
 11
5.460840
 21
2.878040
 12
5.470960
 22
2.103640
 13
5.476680
 23
2.849880
  0
POLYLINE
  8
0
  6
CONTINUOUS
 66
     1
 40
0.000000
 41
0.000000
  0
VERTEX
  8
0
  6
CONTINUOUS
 10
5.455560
 20
2.131800
  0
VERTEX
  8
0
  6
CONTINUOUS
 10
5.460840
 20
2.878040
  0
VERTEX
  8
0
  6
CONTINUOUS
 10
5.476680
 20
2.849880
  0
VERTEX
  8
0
  6
CONTINUOUS
 10
5.470960
 20
2.103640
  0
VERTEX
  8
0
  6
CONTINUOUS
 10
5.455560
 20
2.131800
  0
SEQEND
  8
0
  0
SOLID
  8
0
 62
    15
 10
5.482840
 20
2.071080
 11
5.488560
 21
2.817320
 12
5.490320
 22
2.034560
 13
5.496040
 23
2.780800
  0
POLYLINE
  8
0
  6
CONTINUOUS
 66
     1
 40
0.000000
 41
0.000000
  0
VERTEX
  8
0
  6
CONTINUOUS
 10
5.482840
 20
2.071080
  0
VERTEX
  8
0
  6
CONTINUOUS
 10
5.488560
 20
2.817320
  0
VERTEX
  8
0
  6
CONTINUOUS
 10
5.496040
 20
2.780800
  0
VERTEX
  8
0
  6
CONTINUOUS
 10
5.490320
 20
2.034560
  0
VERTEX
  8
0
  6
CONTINUOUS
 10
5.482840
 20
2.071080
  0
SEQEND
  8
0
  0
SOLID
  8
0
 62
    15
 10
5.470960
 20
2.103640
 11
5.476680
 21
2.849880
 12
5.482840
 22
2.071080
 13
5.488560
 23
2.817320
  0
POLYLINE
  8
0
  6
CONTINUOUS
 66
     1
 40
0.000000
 41
0.000000
  0
VERTEX
  8
0
  6
CONTINUOUS
 10
5.470960
 20
2.103640
  0
VERTEX
  8
0
  6
CONTINUOUS
 10
5.476680
 20
2.849880
  0
VERTEX
  8
0
  6
CONTINUOUS
 10
5.488560
 20
2.817320
  0
VERTEX
  8
0
  6
CONTINUOUS
 10
5.482840
 20
2.071080
  0
VERTEX
  8
0
  6
CONTINUOUS
 10
5.470960
 20
2.103640
  0
SEQEND
  8
0
  0
SOLID
  8
0
 62
    15
 10
5.490320
 20
2.034560
 11
5.496040
 21
2.780800
 12
5.493400
 22
1.994080
 13
5.498680
 23
2.740320
  0
POLYLINE
  8
0
  6
CONTINUOUS
 66
     1
 40
0.000000
 41
0.000000
  0
VERTEX
  8
0
  6
CONTINUOUS
 10
5.490320
 20
2.034560
  0
VERTEX
  8
0
  6
CONTINUOUS
 10
5.496040
 20
2.780800
  0
VERTEX
  8
0
  6
CONTINUOUS
 10
5.498680
 20
2.740320
  0
VERTEX
  8
0
  6
CONTINUOUS
 10
5.493400
 20
1.994080
  0
VERTEX
  8
0
  6
CONTINUOUS
 10
5.490320
 20
2.034560
  0
SEQEND
  8
0
  0
SOLID
  8
0
 62
    15
 10
5.493400
 20
1.994080
 11
5.498680
 21
2.740320
 12
5.493400
 22
1.723480
 13
5.498680
 23
2.469280
  0
POLYLINE
  8
0
  6
CONTINUOUS
 66
     1
 40
0.000000
 41
0.000000
  0
VERTEX
  8
0
  6
CONTINUOUS
 10
5.493400
 20
1.994080
  0
VERTEX
  8
0
  6
CONTINUOUS
 10
5.498680
 20
2.740320
  0
VERTEX
  8
0
  6
CONTINUOUS
 10
5.498680
 20
2.469280
  0
VERTEX
  8
0
  6
CONTINUOUS
 10
5.493400
 20
1.723480
  0
VERTEX
  8
0
  6
CONTINUOUS
 10
5.493400
 20
1.994080
  0
SEQEND
  8
0
  0
POLYLINE
  8
0
  6
CONTINUOUS
 66
     1
 40
0.000000
 41
0.000000
  0
VERTEX
  8
0
  6
CONTINUOUS
 10
2.280080
 20
1.723480
  0
VERTEX
  8
0
  6
CONTINUOUS
 10
2.217160
 20
1.723480
  0
VERTEX
  8
0
  6
CONTINUOUS
 10
2.217160
 20
2.421760
  0
VERTEX
  8
0
  6
CONTINUOUS
 10
2.755720
 20
2.421760
  0
VERTEX
  8
0
  6
CONTINUOUS
 10
2.755720
 20
2.348720
  0
VERTEX
  8
0
  6
CONTINUOUS
 10
2.802360
 20
2.352240
  0
VERTEX
  8
0
  6
CONTINUOUS
 10
2.845040
 20
2.354880
  0
VERTEX
  8
0
  6
CONTINUOUS
 10
2.884640
 20
2.357080
  0
VERTEX
  8
0
  6
CONTINUOUS
 10
2.920280
 20
2.357960
  0
VERTEX
  8
0
  6
CONTINUOUS
 10
2.982760
 20
2.357520
  0
VERTEX
  8
0
  6
CONTINUOUS
 10
3.034240
 20
2.354000
  0
VERTEX
  8
0
  6
CONTINUOUS
 10
3.076480
 20
2.348280
  0
VERTEX
  8
0
  6
CONTINUOUS
 10
3.110800
 20
2.340800
  0
VERTEX
  8
0
  6
CONTINUOUS
 10
3.138960
 20
2.331560
  0
VERTEX
  8
0
  6
CONTINUOUS
 10
3.162280
 20
2.321440
  0
VERTEX
  8
0
  6
CONTINUOUS
 10
3.182960
 20
2.310440
  0
VERTEX
  8
0
  6
CONTINUOUS
 10
3.202320
 20
2.299440
  0
VERTEX
  8
0
  6
CONTINUOUS
 10
3.243240
 20
2.278320
  0
VERTEX
  8
0
  6
CONTINUOUS
 10
3.268320
 20
2.269520
  0
VERTEX
  8
0
  6
CONTINUOUS
 10
3.298240
 20
2.262040
  0
VERTEX
  8
0
  6
CONTINUOUS
 10
3.334760
 20
2.256760
  0
VERTEX
  8
0
  6
CONTINUOUS
 10
3.380080
 20
2.254120
  0
VERTEX
  8
0
  6
CONTINUOUS
 10
3.423640
 20
2.254120
  0
VERTEX
  8
0
  6
CONTINUOUS
 10
3.425400
 20
2.252800
  0
VERTEX
  8
0
  6
CONTINUOUS
 10
3.425400
 20
2.225960
  0
VERTEX
  8
0
  6
CONTINUOUS
 10
5.093440
 20
2.225960
  0
VERTEX
  8
0
  6
CONTINUOUS
 10
5.093440
 20
2.115080
  0
VERTEX
  8
0
  6
CONTINUOUS
 10
5.213120
 20
2.115080
  0
VERTEX
  8
0
  6
CONTINUOUS
 10
5.223240
 20
2.144560
  0
VERTEX
  8
0
  6
CONTINUOUS
 10
5.237320
 20
2.168320
  0
VERTEX
  8
0
  6
CONTINUOUS
 10
5.254920
 20
2.186800
  0
VERTEX
  8
0
  6
CONTINUOUS
 10
5.274720
 20
2.200000
  0
VERTEX
  8
0
  6
CONTINUOUS
 10
5.297160
 20
2.208360
  0
VERTEX
  8
0
  6
CONTINUOUS
 10
5.320480
 20
2.211440
  0
VERTEX
  8
0
  6
CONTINUOUS
 10
5.344680
 20
2.209680
  0
VERTEX
  8
0
  6
CONTINUOUS
 10
5.369320
 20
2.203080
  0
VERTEX
  8
0
  6
CONTINUOUS
 10
5.393080
 20
2.192080
  0
VERTEX
  8
0
  6
CONTINUOUS
 10
5.415960
 20
2.176240
  0
VERTEX
  8
0
  6
CONTINUOUS
 10
5.436640
 20
2.156440
  0
VERTEX
  8
0
  6
CONTINUOUS
 10
5.455560
 20
2.131800
  0
VERTEX
  8
0
  6
CONTINUOUS
 10
5.470960
 20
2.103640
  0
VERTEX
  8
0
  6
CONTINUOUS
 10
5.482840
 20
2.071080
  0
VERTEX
  8
0
  6
CONTINUOUS
 10
5.490320
 20
2.034560
  0
VERTEX
  8
0
  6
CONTINUOUS
 10
5.493400
 20
1.994080
  0
VERTEX
  8
0
  6
CONTINUOUS
 10
5.493400
 20
1.723480
  0
VERTEX
  8
0
  6
CONTINUOUS
 10
2.286680
 20
1.723480
  0
VERTEX
  8
0
  6
CONTINUOUS
 10
2.280080
 20
1.723480
  0
SEQEND
  8
0
  0
TEXT
  8
0
 10
3.608880
 20
1.503040
 40
0.138142
  1
BA  35
 41
1.000000
  7
SN0
 71
     0
 72
     5
 11
4.106743
 21
1.503040
  0
TEXT
  8
0
 10
3.406920
 20
1.311200
 40
0.138142
  1
3/4" x 3-1/4"
 41
1.000000
  7
SN0
 71
     0
 72
     5
 11
4.307751
 21
1.311200
  0
ENDSEC
  0
EOF
