  0
SECTION
  2
HEADER
  9
$ACADVER
  1
AC1006
  9
$EXTMIN
 10
1.388640
 20
4.475680
  9
$EXTMAX
 10
7.110840
 20
6.523880
  9
$LTSCALE
 40
0.044000
  9
$PDMODE
 70
    35
  9
$PDSIZE
 40
0.035200
  0
ENDSEC
  0
SECTION
  2
TABLES
  0
TABLE
  2
LTYPE
 70
     9
  0
LTYPE
  2
CONTINUOUS
 70
    64
  3
Solid line
 72
    65
 73
     0
 40
0.000000
  0
LTYPE
  2
DASHED
 70
    64
  3
__ __ __ __ __ __ __ __ __ __ __ __ __ __ __
 72
    65
 73
     2
 40
0.000330
 49
0.000220
 49
-0.000110
  0
LTYPE
  2
HIDDEN
 70
    64
  3
 _ _ _ _ _ _ _ _ _ _ _ _ _ _ _ _ _ _ _ _ _ _
 72
    65
 73
     2
 40
0.000165
 49
0.000110
 49
-0.000055
  0
LTYPE
  2
CENTER
 70
    64
  3
____ _ ____ _ ____ _ ____ _ ____ _ ____ _ ____
 72
    65
 73
     4
 40
0.000880
 49
0.000550
 49
-0.000110
 49
0.000110
 49
-0.000110
  0
LTYPE
  2
PHANTOM
 70
    64
  3
_____ _ _ _____ _ _ _____ _ _ _____ _ _ ____
 72
    65
 73
     6
 40
0.001100
 49
0.000550
 49
-0.000110
 49
0.000110
 49
-0.000110
 49
0.000110
 49
-0.000110
  0
LTYPE
  2
DOT
 70
    64
  3
...............................................
 72
    65
 73
     2
 40
0.000110
 49
0.000000
 49
-0.000110
  0
LTYPE
  2
DASHDOT
 70
    64
  3
__ . __ . __ . __ . __ . __ . __ . __ . __ . __
 72
    65
 73
     4
 40
0.000440
 49
0.000220
 49
-0.000110
 49
0.000000
 49
-0.000110
  0
LTYPE
  2
BORDER
 70
    64
  3
__ __ . __ __ . __ __ . __ __ . __ __ . __ __
 72
    65
 73
     6
 40
0.000770
 49
0.000220
 49
-0.000110
 49
0.000220
 49
-0.000110
 49
0.000000
 49
-0.000110
  0
LTYPE
  2
DIVIDE
 70
    64
  3
__ . . __ . . __ . . __ . . __ . . __ . . __
 72
    65
 73
     6
 40
0.000550
 49
0.000220
 49
-0.000110
 49
0.000000
 49
-0.000110
 49
0.000000
 49
-0.000110
  0
LTYPE
  2
DOTDOT
 70
    64
  3
 . .  . .  . .  . .  . .  . . 
 72
    65
 73
     5
 40
0.000242
 49
-0.000110
 49
0.000000
 49
-0.000110
 49
0.000000
 49
-0.000110
  0
ENDTAB
  0
TABLE
  2
STYLE
 70
     2
  0
STYLE
 70
     0
  2
SN0
 40
0.000000
 41
0.000440
 50
0.000000
 71
     0
 42
0.000000
  3
ROMAND
  0
STYLE
 70
    68
  2
SV0
 40
0.000000
 41
0.000440
 50
0.000000
 71
     0
 42
0.000000
  3
ROMAND
  0
ENDTAB
  0
TABLE
  2
LAYER
 70
     3
  0
LAYER
  2
FOREGROUND
 70
    64
 62
     7
  6
CONTINUOUS
  0
LAYER
  2
BACKGROUND
 70
    65
 62
    -7
  6
CONTINUOUS
  0
LAYER
  2
0
 70
    64
 62
     7
  6
CONTINUOUS
  0
ENDTAB
  0
ENDSEC
  0
SECTION
  2
ENTITIES
  0
POLYLINE
  8
FOREGROUND
  6
CONTINUOUS
 66
     1
 40
0.000000
 41
0.000000
  0
VERTEX
  8
FOREGROUND
  6
CONTINUOUS
 10
0.000000
 20
10.999560
  0
VERTEX
  8
FOREGROUND
  6
CONTINUOUS
 10
8.499920
 20
10.999560
  0
VERTEX
  8
FOREGROUND
  6
CONTINUOUS
 10
8.499920
 20
-0.000440
  0
VERTEX
  8
FOREGROUND
  6
CONTINUOUS
 10
0.000000
 20
-0.000440
  0
VERTEX
  8
FOREGROUND
  6
CONTINUOUS
 10
0.000000
 20
10.999560
  0
SEQEND
  8
0
  0
POLYLINE
  8
FOREGROUND
  6
CONTINUOUS
 66
     1
 40
0.000000
 41
0.000000
  0
VERTEX
  8
FOREGROUND
  6
CONTINUOUS
 10
0.000000
 20
10.999560
  0
VERTEX
  8
FOREGROUND
  6
CONTINUOUS
 10
8.499920
 20
10.999560
  0
VERTEX
  8
FOREGROUND
  6
CONTINUOUS
 10
8.499920
 20
-0.000440
  0
VERTEX
  8
FOREGROUND
  6
CONTINUOUS
 10
0.000000
 20
-0.000440
  0
VERTEX
  8
FOREGROUND
  6
CONTINUOUS
 10
0.000000
 20
10.999560
  0
SEQEND
  8
0
  0
TEXT
  8
0
 10
2.467960
 20
4.711520
 40
0.138220
  1
BA  34
 41
1.000000
  7
SN0
 71
     0
 72
     5
 11
2.966650
 21
4.711520
  0
TEXT
  8
0
 10
2.266000
 20
4.520120
 40
0.138220
  1
3/4" x 2-3/4"
 41
1.000000
  7
SN0
 71
     0
 72
     5
 11
3.168677
 21
4.520120
  0
SOLID
  8
0
 62
    15
 10
2.489520
 20
5.481960
 11
2.484680
 21
6.213680
 12
2.539240
 22
5.446320
 13
2.533960
 23
6.177600
  0
POLYLINE
  8
0
  6
CONTINUOUS
 66
     1
 40
0.014080
 41
0.014080
  0
VERTEX
  8
0
  6
CONTINUOUS
 10
2.489520
 20
5.481960
  0
VERTEX
  8
0
  6
CONTINUOUS
 10
2.484680
 20
6.213680
  0
VERTEX
  8
0
  6
CONTINUOUS
 10
2.533960
 20
6.177600
  0
VERTEX
  8
0
  6
CONTINUOUS
 10
2.539240
 20
5.446320
  0
VERTEX
  8
0
  6
CONTINUOUS
 10
2.489520
 20
5.481960
  0
SEQEND
  8
0
  0
SOLID
  8
0
 62
    15
 10
1.401840
 20
5.471400
 11
1.396560
 21
6.202680
 12
1.401840
 22
5.480640
 13
1.396560
 23
6.211920
  0
POLYLINE
  8
0
  6
CONTINUOUS
 66
     1
 40
0.014080
 41
0.014080
  0
VERTEX
  8
0
  6
CONTINUOUS
 10
1.401840
 20
5.471400
  0
VERTEX
  8
0
  6
CONTINUOUS
 10
1.396560
 20
6.202680
  0
VERTEX
  8
0
  6
CONTINUOUS
 10
1.396560
 20
6.211920
  0
VERTEX
  8
0
  6
CONTINUOUS
 10
1.401840
 20
5.480640
  0
VERTEX
  8
0
  6
CONTINUOUS
 10
1.401840
 20
5.471400
  0
SEQEND
  8
0
  0
SOLID
  8
0
 62
    15
 10
1.596320
 20
5.480640
 11
1.591040
 21
6.211920
 12
1.597640
 22
5.481960
 13
1.592360
 23
6.213680
  0
POLYLINE
  8
0
  6
CONTINUOUS
 66
     1
 40
0.014080
 41
0.014080
  0
VERTEX
  8
0
  6
CONTINUOUS
 10
1.596320
 20
5.480640
  0
VERTEX
  8
0
  6
CONTINUOUS
 10
1.591040
 20
6.211920
  0
VERTEX
  8
0
  6
CONTINUOUS
 10
1.592360
 20
6.213680
  0
VERTEX
  8
0
  6
CONTINUOUS
 10
1.597640
 20
5.481960
  0
VERTEX
  8
0
  6
CONTINUOUS
 10
1.596320
 20
5.480640
  0
SEQEND
  8
0
  0
SOLID
  8
0
 62
    15
 10
1.597640
 20
5.481960
 11
1.592360
 21
6.213680
 12
1.630200
 22
5.554120
 13
1.624920
 23
6.285400
  0
POLYLINE
  8
0
  6
CONTINUOUS
 66
     1
 40
0.014080
 41
0.014080
  0
VERTEX
  8
0
  6
CONTINUOUS
 10
1.597640
 20
5.481960
  0
VERTEX
  8
0
  6
CONTINUOUS
 10
1.592360
 20
6.213680
  0
VERTEX
  8
0
  6
CONTINUOUS
 10
1.624920
 20
6.285400
  0
VERTEX
  8
0
  6
CONTINUOUS
 10
1.630200
 20
5.554120
  0
VERTEX
  8
0
  6
CONTINUOUS
 10
1.597640
 20
5.481960
  0
SEQEND
  8
0
  0
SOLID
  8
0
 62
    15
 10
1.630200
 20
5.554120
 11
1.624920
 21
6.285400
 12
1.663640
 22
5.616160
 13
1.658360
 23
6.347440
  0
POLYLINE
  8
0
  6
CONTINUOUS
 66
     1
 40
0.014080
 41
0.014080
  0
VERTEX
  8
0
  6
CONTINUOUS
 10
1.630200
 20
5.554120
  0
VERTEX
  8
0
  6
CONTINUOUS
 10
1.624920
 20
6.285400
  0
VERTEX
  8
0
  6
CONTINUOUS
 10
1.658360
 20
6.347440
  0
VERTEX
  8
0
  6
CONTINUOUS
 10
1.663640
 20
5.616160
  0
VERTEX
  8
0
  6
CONTINUOUS
 10
1.630200
 20
5.554120
  0
SEQEND
  8
0
  0
SOLID
  8
0
 62
    15
 10
1.663640
 20
5.616160
 11
1.658360
 21
6.347440
 12
1.698400
 22
5.668520
 13
1.693120
 23
6.399800
  0
POLYLINE
  8
0
  6
CONTINUOUS
 66
     1
 40
0.014080
 41
0.014080
  0
VERTEX
  8
0
  6
CONTINUOUS
 10
1.663640
 20
5.616160
  0
VERTEX
  8
0
  6
CONTINUOUS
 10
1.658360
 20
6.347440
  0
VERTEX
  8
0
  6
CONTINUOUS
 10
1.693120
 20
6.399800
  0
VERTEX
  8
0
  6
CONTINUOUS
 10
1.698400
 20
5.668520
  0
VERTEX
  8
0
  6
CONTINUOUS
 10
1.663640
 20
5.616160
  0
SEQEND
  8
0
  0
SOLID
  8
0
 62
    15
 10
1.698400
 20
5.668520
 11
1.693120
 21
6.399800
 12
1.734920
 22
5.710760
 13
1.729640
 23
6.442040
  0
POLYLINE
  8
0
  6
CONTINUOUS
 66
     1
 40
0.014080
 41
0.014080
  0
VERTEX
  8
0
  6
CONTINUOUS
 10
1.698400
 20
5.668520
  0
VERTEX
  8
0
  6
CONTINUOUS
 10
1.693120
 20
6.399800
  0
VERTEX
  8
0
  6
CONTINUOUS
 10
1.729640
 20
6.442040
  0
VERTEX
  8
0
  6
CONTINUOUS
 10
1.734920
 20
5.710760
  0
VERTEX
  8
0
  6
CONTINUOUS
 10
1.698400
 20
5.668520
  0
SEQEND
  8
0
  0
SOLID
  8
0
 62
    15
 10
1.734920
 20
5.710760
 11
1.729640
 21
6.442040
 12
1.773640
 22
5.743320
 13
1.768360
 23
6.475040
  0
POLYLINE
  8
0
  6
CONTINUOUS
 66
     1
 40
0.014080
 41
0.014080
  0
VERTEX
  8
0
  6
CONTINUOUS
 10
1.734920
 20
5.710760
  0
VERTEX
  8
0
  6
CONTINUOUS
 10
1.729640
 20
6.442040
  0
VERTEX
  8
0
  6
CONTINUOUS
 10
1.768360
 20
6.475040
  0
VERTEX
  8
0
  6
CONTINUOUS
 10
1.773640
 20
5.743320
  0
VERTEX
  8
0
  6
CONTINUOUS
 10
1.734920
 20
5.710760
  0
SEQEND
  8
0
  0
SOLID
  8
0
 62
    15
 10
1.773640
 20
5.743320
 11
1.768360
 21
6.475040
 12
1.815440
 22
5.766640
 13
1.810160
 23
6.497920
  0
POLYLINE
  8
0
  6
CONTINUOUS
 66
     1
 40
0.014080
 41
0.014080
  0
VERTEX
  8
0
  6
CONTINUOUS
 10
1.773640
 20
5.743320
  0
VERTEX
  8
0
  6
CONTINUOUS
 10
1.768360
 20
6.475040
  0
VERTEX
  8
0
  6
CONTINUOUS
 10
1.810160
 20
6.497920
  0
VERTEX
  8
0
  6
CONTINUOUS
 10
1.815440
 20
5.766640
  0
VERTEX
  8
0
  6
CONTINUOUS
 10
1.773640
 20
5.743320
  0
SEQEND
  8
0
  0
SOLID
  8
0
 62
    15
 10
1.815440
 20
5.766640
 11
1.810160
 21
6.497920
 12
1.860320
 22
5.779840
 13
1.855040
 23
6.511560
  0
POLYLINE
  8
0
  6
CONTINUOUS
 66
     1
 40
0.014080
 41
0.014080
  0
VERTEX
  8
0
  6
CONTINUOUS
 10
1.815440
 20
5.766640
  0
VERTEX
  8
0
  6
CONTINUOUS
 10
1.810160
 20
6.497920
  0
VERTEX
  8
0
  6
CONTINUOUS
 10
1.855040
 20
6.511560
  0
VERTEX
  8
0
  6
CONTINUOUS
 10
1.860320
 20
5.779840
  0
VERTEX
  8
0
  6
CONTINUOUS
 10
1.815440
 20
5.766640
  0
SEQEND
  8
0
  0
SOLID
  8
0
 62
    15
 10
1.860320
 20
5.779840
 11
1.855040
 21
6.511560
 12
1.908720
 22
5.783800
 13
1.903440
 23
6.515520
  0
POLYLINE
  8
0
  6
CONTINUOUS
 66
     1
 40
0.014080
 41
0.014080
  0
VERTEX
  8
0
  6
CONTINUOUS
 10
1.860320
 20
5.779840
  0
VERTEX
  8
0
  6
CONTINUOUS
 10
1.855040
 20
6.511560
  0
VERTEX
  8
0
  6
CONTINUOUS
 10
1.903440
 20
6.515520
  0
VERTEX
  8
0
  6
CONTINUOUS
 10
1.908720
 20
5.783800
  0
VERTEX
  8
0
  6
CONTINUOUS
 10
1.860320
 20
5.779840
  0
SEQEND
  8
0
  0
SOLID
  8
0
 62
    15
 10
1.908720
 20
5.783800
 11
1.903440
 21
6.515520
 12
1.961520
 22
5.778520
 13
1.956240
 23
6.509800
  0
POLYLINE
  8
0
  6
CONTINUOUS
 66
     1
 40
0.014080
 41
0.014080
  0
VERTEX
  8
0
  6
CONTINUOUS
 10
1.908720
 20
5.783800
  0
VERTEX
  8
0
  6
CONTINUOUS
 10
1.903440
 20
6.515520
  0
VERTEX
  8
0
  6
CONTINUOUS
 10
1.956240
 20
6.509800
  0
VERTEX
  8
0
  6
CONTINUOUS
 10
1.961520
 20
5.778520
  0
VERTEX
  8
0
  6
CONTINUOUS
 10
1.908720
 20
5.783800
  0
SEQEND
  8
0
  0
SOLID
  8
0
 62
    15
 10
1.961520
 20
5.778520
 11
1.956240
 21
6.509800
 12
2.019160
 22
5.763560
 13
2.013880
 23
6.495280
  0
POLYLINE
  8
0
  6
CONTINUOUS
 66
     1
 40
0.014080
 41
0.014080
  0
VERTEX
  8
0
  6
CONTINUOUS
 10
1.961520
 20
5.778520
  0
VERTEX
  8
0
  6
CONTINUOUS
 10
1.956240
 20
6.509800
  0
VERTEX
  8
0
  6
CONTINUOUS
 10
2.013880
 20
6.495280
  0
VERTEX
  8
0
  6
CONTINUOUS
 10
2.019160
 20
5.763560
  0
VERTEX
  8
0
  6
CONTINUOUS
 10
1.961520
 20
5.778520
  0
SEQEND
  8
0
  0
SOLID
  8
0
 62
    15
 10
2.019160
 20
5.763560
 11
2.013880
 21
6.495280
 12
2.081640
 22
5.739360
 13
2.076360
 23
6.471080
  0
POLYLINE
  8
0
  6
CONTINUOUS
 66
     1
 40
0.014080
 41
0.014080
  0
VERTEX
  8
0
  6
CONTINUOUS
 10
2.019160
 20
5.763560
  0
VERTEX
  8
0
  6
CONTINUOUS
 10
2.013880
 20
6.495280
  0
VERTEX
  8
0
  6
CONTINUOUS
 10
2.076360
 20
6.471080
  0
VERTEX
  8
0
  6
CONTINUOUS
 10
2.081640
 20
5.739360
  0
VERTEX
  8
0
  6
CONTINUOUS
 10
2.019160
 20
5.763560
  0
SEQEND
  8
0
  0
SOLID
  8
0
 62
    15
 10
2.081640
 20
5.739360
 11
2.076360
 21
6.471080
 12
2.150280
 22
5.706360
 13
2.145000
 23
6.437640
  0
POLYLINE
  8
0
  6
CONTINUOUS
 66
     1
 40
0.014080
 41
0.014080
  0
VERTEX
  8
0
  6
CONTINUOUS
 10
2.081640
 20
5.739360
  0
VERTEX
  8
0
  6
CONTINUOUS
 10
2.076360
 20
6.471080
  0
VERTEX
  8
0
  6
CONTINUOUS
 10
2.145000
 20
6.437640
  0
VERTEX
  8
0
  6
CONTINUOUS
 10
2.150280
 20
5.706360
  0
VERTEX
  8
0
  6
CONTINUOUS
 10
2.081640
 20
5.739360
  0
SEQEND
  8
0
  0
SOLID
  8
0
 62
    15
 10
2.150280
 20
5.706360
 11
2.145000
 21
6.437640
 12
2.224640
 22
5.663680
 13
2.219360
 23
6.395400
  0
POLYLINE
  8
0
  6
CONTINUOUS
 66
     1
 40
0.014080
 41
0.014080
  0
VERTEX
  8
0
  6
CONTINUOUS
 10
2.150280
 20
5.706360
  0
VERTEX
  8
0
  6
CONTINUOUS
 10
2.145000
 20
6.437640
  0
VERTEX
  8
0
  6
CONTINUOUS
 10
2.219360
 20
6.395400
  0
VERTEX
  8
0
  6
CONTINUOUS
 10
2.224640
 20
5.663680
  0
VERTEX
  8
0
  6
CONTINUOUS
 10
2.150280
 20
5.706360
  0
SEQEND
  8
0
  0
SOLID
  8
0
 62
    15
 10
2.224640
 20
5.663680
 11
2.219360
 21
6.395400
 12
2.305600
 22
5.612200
 13
2.300320
 23
6.343480
  0
POLYLINE
  8
0
  6
CONTINUOUS
 66
     1
 40
0.014080
 41
0.014080
  0
VERTEX
  8
0
  6
CONTINUOUS
 10
2.224640
 20
5.663680
  0
VERTEX
  8
0
  6
CONTINUOUS
 10
2.219360
 20
6.395400
  0
VERTEX
  8
0
  6
CONTINUOUS
 10
2.300320
 20
6.343480
  0
VERTEX
  8
0
  6
CONTINUOUS
 10
2.305600
 20
5.612200
  0
VERTEX
  8
0
  6
CONTINUOUS
 10
2.224640
 20
5.663680
  0
SEQEND
  8
0
  0
SOLID
  8
0
 62
    15
 10
2.305600
 20
5.612200
 11
2.300320
 21
6.343480
 12
2.394040
 22
5.551480
 13
2.388760
 23
6.283200
  0
POLYLINE
  8
0
  6
CONTINUOUS
 66
     1
 40
0.014080
 41
0.014080
  0
VERTEX
  8
0
  6
CONTINUOUS
 10
2.305600
 20
5.612200
  0
VERTEX
  8
0
  6
CONTINUOUS
 10
2.300320
 20
6.343480
  0
VERTEX
  8
0
  6
CONTINUOUS
 10
2.388760
 20
6.283200
  0
VERTEX
  8
0
  6
CONTINUOUS
 10
2.394040
 20
5.551480
  0
VERTEX
  8
0
  6
CONTINUOUS
 10
2.305600
 20
5.612200
  0
SEQEND
  8
0
  0
SOLID
  8
0
 62
    15
 10
2.394040
 20
5.551480
 11
2.388760
 21
6.283200
 12
2.489520
 22
5.481960
 13
2.484680
 23
6.213680
  0
POLYLINE
  8
0
  6
CONTINUOUS
 66
     1
 40
0.014080
 41
0.014080
  0
VERTEX
  8
0
  6
CONTINUOUS
 10
2.394040
 20
5.551480
  0
VERTEX
  8
0
  6
CONTINUOUS
 10
2.388760
 20
6.283200
  0
VERTEX
  8
0
  6
CONTINUOUS
 10
2.484680
 20
6.213680
  0
VERTEX
  8
0
  6
CONTINUOUS
 10
2.489520
 20
5.481960
  0
VERTEX
  8
0
  6
CONTINUOUS
 10
2.394040
 20
5.551480
  0
SEQEND
  8
0
  0
SOLID
  8
0
 62
    15
 10
1.401840
 20
5.480640
 11
1.396560
 21
6.211920
 12
1.596320
 22
5.480640
 13
1.591040
 23
6.211920
  0
POLYLINE
  8
0
  6
CONTINUOUS
 66
     1
 40
0.014080
 41
0.014080
  0
VERTEX
  8
0
  6
CONTINUOUS
 10
1.401840
 20
5.480640
  0
VERTEX
  8
0
  6
CONTINUOUS
 10
1.396560
 20
6.211920
  0
VERTEX
  8
0
  6
CONTINUOUS
 10
1.591040
 20
6.211920
  0
VERTEX
  8
0
  6
CONTINUOUS
 10
1.596320
 20
5.480640
  0
VERTEX
  8
0
  6
CONTINUOUS
 10
1.401840
 20
5.480640
  0
SEQEND
  8
0
  0
SOLID
  8
0
 62
    15
 10
2.539240
 20
5.446320
 11
2.533960
 21
6.177600
 12
2.586760
 22
5.413760
 13
2.581480
 23
6.145040
  0
POLYLINE
  8
0
  6
CONTINUOUS
 66
     1
 40
0.014080
 41
0.014080
  0
VERTEX
  8
0
  6
CONTINUOUS
 10
2.539240
 20
5.446320
  0
VERTEX
  8
0
  6
CONTINUOUS
 10
2.533960
 20
6.177600
  0
VERTEX
  8
0
  6
CONTINUOUS
 10
2.581480
 20
6.145040
  0
VERTEX
  8
0
  6
CONTINUOUS
 10
2.586760
 20
5.413760
  0
VERTEX
  8
0
  6
CONTINUOUS
 10
2.539240
 20
5.446320
  0
SEQEND
  8
0
  0
SOLID
  8
0
 62
    15
 10
2.586760
 20
5.413760
 11
2.581480
 21
6.145040
 12
2.676520
 22
5.357880
 13
2.671240
 23
6.089160
  0
POLYLINE
  8
0
  6
CONTINUOUS
 66
     1
 40
0.014080
 41
0.014080
  0
VERTEX
  8
0
  6
CONTINUOUS
 10
2.586760
 20
5.413760
  0
VERTEX
  8
0
  6
CONTINUOUS
 10
2.581480
 20
6.145040
  0
VERTEX
  8
0
  6
CONTINUOUS
 10
2.671240
 20
6.089160
  0
VERTEX
  8
0
  6
CONTINUOUS
 10
2.676520
 20
5.357880
  0
VERTEX
  8
0
  6
CONTINUOUS
 10
2.586760
 20
5.413760
  0
SEQEND
  8
0
  0
SOLID
  8
0
 62
    15
 10
2.676520
 20
5.357880
 11
2.671240
 21
6.089160
 12
2.759680
 22
5.313440
 13
2.754840
 23
6.045160
  0
POLYLINE
  8
0
  6
CONTINUOUS
 66
     1
 40
0.014080
 41
0.014080
  0
VERTEX
  8
0
  6
CONTINUOUS
 10
2.676520
 20
5.357880
  0
VERTEX
  8
0
  6
CONTINUOUS
 10
2.671240
 20
6.089160
  0
VERTEX
  8
0
  6
CONTINUOUS
 10
2.754840
 20
6.045160
  0
VERTEX
  8
0
  6
CONTINUOUS
 10
2.759680
 20
5.313440
  0
VERTEX
  8
0
  6
CONTINUOUS
 10
2.676520
 20
5.357880
  0
SEQEND
  8
0
  0
SOLID
  8
0
 62
    15
 10
2.759680
 20
5.313440
 11
2.754840
 21
6.045160
 12
2.837120
 22
5.280000
 13
2.831840
 23
6.011280
  0
POLYLINE
  8
0
  6
CONTINUOUS
 66
     1
 40
0.014080
 41
0.014080
  0
VERTEX
  8
0
  6
CONTINUOUS
 10
2.759680
 20
5.313440
  0
VERTEX
  8
0
  6
CONTINUOUS
 10
2.754840
 20
6.045160
  0
VERTEX
  8
0
  6
CONTINUOUS
 10
2.831840
 20
6.011280
  0
VERTEX
  8
0
  6
CONTINUOUS
 10
2.837120
 20
5.280000
  0
VERTEX
  8
0
  6
CONTINUOUS
 10
2.759680
 20
5.313440
  0
SEQEND
  8
0
  0
SOLID
  8
0
 62
    15
 10
2.837120
 20
5.280000
 11
2.831840
 21
6.011280
 12
2.908840
 22
5.256240
 13
2.903560
 23
5.987960
  0
POLYLINE
  8
0
  6
CONTINUOUS
 66
     1
 40
0.014080
 41
0.014080
  0
VERTEX
  8
0
  6
CONTINUOUS
 10
2.837120
 20
5.280000
  0
VERTEX
  8
0
  6
CONTINUOUS
 10
2.831840
 20
6.011280
  0
VERTEX
  8
0
  6
CONTINUOUS
 10
2.903560
 20
5.987960
  0
VERTEX
  8
0
  6
CONTINUOUS
 10
2.908840
 20
5.256240
  0
VERTEX
  8
0
  6
CONTINUOUS
 10
2.837120
 20
5.280000
  0
SEQEND
  8
0
  0
SOLID
  8
0
 62
    15
 10
2.908840
 20
5.256240
 11
2.903560
 21
5.987960
 12
2.975720
 22
5.242160
 13
2.970440
 23
5.973440
  0
POLYLINE
  8
0
  6
CONTINUOUS
 66
     1
 40
0.014080
 41
0.014080
  0
VERTEX
  8
0
  6
CONTINUOUS
 10
2.908840
 20
5.256240
  0
VERTEX
  8
0
  6
CONTINUOUS
 10
2.903560
 20
5.987960
  0
VERTEX
  8
0
  6
CONTINUOUS
 10
2.970440
 20
5.973440
  0
VERTEX
  8
0
  6
CONTINUOUS
 10
2.975720
 20
5.242160
  0
VERTEX
  8
0
  6
CONTINUOUS
 10
2.908840
 20
5.256240
  0
SEQEND
  8
0
  0
SOLID
  8
0
 62
    15
 10
2.975720
 20
5.242160
 11
2.970440
 21
5.973440
 12
3.038200
 22
5.236000
 13
3.032920
 23
5.967720
  0
POLYLINE
  8
0
  6
CONTINUOUS
 66
     1
 40
0.014080
 41
0.014080
  0
VERTEX
  8
0
  6
CONTINUOUS
 10
2.975720
 20
5.242160
  0
VERTEX
  8
0
  6
CONTINUOUS
 10
2.970440
 20
5.973440
  0
VERTEX
  8
0
  6
CONTINUOUS
 10
3.032920
 20
5.967720
  0
VERTEX
  8
0
  6
CONTINUOUS
 10
3.038200
 20
5.236000
  0
VERTEX
  8
0
  6
CONTINUOUS
 10
2.975720
 20
5.242160
  0
SEQEND
  8
0
  0
SOLID
  8
0
 62
    15
 10
3.038200
 20
5.236000
 11
3.032920
 21
5.967720
 12
3.096720
 22
5.237760
 13
3.091880
 23
5.969040
  0
POLYLINE
  8
0
  6
CONTINUOUS
 66
     1
 40
0.014080
 41
0.014080
  0
VERTEX
  8
0
  6
CONTINUOUS
 10
3.038200
 20
5.236000
  0
VERTEX
  8
0
  6
CONTINUOUS
 10
3.032920
 20
5.967720
  0
VERTEX
  8
0
  6
CONTINUOUS
 10
3.091880
 20
5.969040
  0
VERTEX
  8
0
  6
CONTINUOUS
 10
3.096720
 20
5.237760
  0
VERTEX
  8
0
  6
CONTINUOUS
 10
3.038200
 20
5.236000
  0
SEQEND
  8
0
  0
SOLID
  8
0
 62
    15
 10
3.096720
 20
5.237760
 11
3.091880
 21
5.969040
 12
3.152160
 22
5.246120
 13
3.146880
 23
5.977400
  0
POLYLINE
  8
0
  6
CONTINUOUS
 66
     1
 40
0.014080
 41
0.014080
  0
VERTEX
  8
0
  6
CONTINUOUS
 10
3.096720
 20
5.237760
  0
VERTEX
  8
0
  6
CONTINUOUS
 10
3.091880
 20
5.969040
  0
VERTEX
  8
0
  6
CONTINUOUS
 10
3.146880
 20
5.977400
  0
VERTEX
  8
0
  6
CONTINUOUS
 10
3.152160
 20
5.246120
  0
VERTEX
  8
0
  6
CONTINUOUS
 10
3.096720
 20
5.237760
  0
SEQEND
  8
0
  0
SOLID
  8
0
 62
    15
 10
3.152160
 20
5.246120
 11
3.146880
 21
5.977400
 12
3.204960
 22
5.260200
 13
3.199680
 23
5.991920
  0
POLYLINE
  8
0
  6
CONTINUOUS
 66
     1
 40
0.014080
 41
0.014080
  0
VERTEX
  8
0
  6
CONTINUOUS
 10
3.152160
 20
5.246120
  0
VERTEX
  8
0
  6
CONTINUOUS
 10
3.146880
 20
5.977400
  0
VERTEX
  8
0
  6
CONTINUOUS
 10
3.199680
 20
5.991920
  0
VERTEX
  8
0
  6
CONTINUOUS
 10
3.204960
 20
5.260200
  0
VERTEX
  8
0
  6
CONTINUOUS
 10
3.152160
 20
5.246120
  0
SEQEND
  8
0
  0
SOLID
  8
0
 62
    15
 10
3.204960
 20
5.260200
 11
3.199680
 21
5.991920
 12
3.255560
 22
5.280000
 13
3.250280
 23
6.011280
  0
POLYLINE
  8
0
  6
CONTINUOUS
 66
     1
 40
0.014080
 41
0.014080
  0
VERTEX
  8
0
  6
CONTINUOUS
 10
3.204960
 20
5.260200
  0
VERTEX
  8
0
  6
CONTINUOUS
 10
3.199680
 20
5.991920
  0
VERTEX
  8
0
  6
CONTINUOUS
 10
3.250280
 20
6.011280
  0
VERTEX
  8
0
  6
CONTINUOUS
 10
3.255560
 20
5.280000
  0
VERTEX
  8
0
  6
CONTINUOUS
 10
3.204960
 20
5.260200
  0
SEQEND
  8
0
  0
SOLID
  8
0
 62
    15
 10
3.255560
 20
5.280000
 11
3.250280
 21
6.011280
 12
3.304400
 22
5.303760
 13
3.299120
 23
6.035480
  0
POLYLINE
  8
0
  6
CONTINUOUS
 66
     1
 40
0.014080
 41
0.014080
  0
VERTEX
  8
0
  6
CONTINUOUS
 10
3.255560
 20
5.280000
  0
VERTEX
  8
0
  6
CONTINUOUS
 10
3.250280
 20
6.011280
  0
VERTEX
  8
0
  6
CONTINUOUS
 10
3.299120
 20
6.035480
  0
VERTEX
  8
0
  6
CONTINUOUS
 10
3.304400
 20
5.303760
  0
VERTEX
  8
0
  6
CONTINUOUS
 10
3.255560
 20
5.280000
  0
SEQEND
  8
0
  0
SOLID
  8
0
 62
    15
 10
3.304400
 20
5.303760
 11
3.299120
 21
6.035480
 12
3.399440
 22
5.361840
 13
3.394600
 23
6.093120
  0
POLYLINE
  8
0
  6
CONTINUOUS
 66
     1
 40
0.014080
 41
0.014080
  0
VERTEX
  8
0
  6
CONTINUOUS
 10
3.304400
 20
5.303760
  0
VERTEX
  8
0
  6
CONTINUOUS
 10
3.299120
 20
6.035480
  0
VERTEX
  8
0
  6
CONTINUOUS
 10
3.394600
 20
6.093120
  0
VERTEX
  8
0
  6
CONTINUOUS
 10
3.399440
 20
5.361840
  0
VERTEX
  8
0
  6
CONTINUOUS
 10
3.304400
 20
5.303760
  0
SEQEND
  8
0
  0
SOLID
  8
0
 62
    15
 10
3.399440
 20
5.361840
 11
3.394600
 21
6.093120
 12
3.446960
 22
5.393960
 13
3.441680
 23
6.125240
  0
POLYLINE
  8
0
  6
CONTINUOUS
 66
     1
 40
0.014080
 41
0.014080
  0
VERTEX
  8
0
  6
CONTINUOUS
 10
3.399440
 20
5.361840
  0
VERTEX
  8
0
  6
CONTINUOUS
 10
3.394600
 20
6.093120
  0
VERTEX
  8
0
  6
CONTINUOUS
 10
3.441680
 20
6.125240
  0
VERTEX
  8
0
  6
CONTINUOUS
 10
3.446960
 20
5.393960
  0
VERTEX
  8
0
  6
CONTINUOUS
 10
3.399440
 20
5.361840
  0
SEQEND
  8
0
  0
SOLID
  8
0
 62
    15
 10
3.446960
 20
5.393960
 11
3.441680
 21
6.125240
 12
3.494920
 22
5.427400
 13
3.489640
 23
6.158680
  0
POLYLINE
  8
0
  6
CONTINUOUS
 66
     1
 40
0.014080
 41
0.014080
  0
VERTEX
  8
0
  6
CONTINUOUS
 10
3.446960
 20
5.393960
  0
VERTEX
  8
0
  6
CONTINUOUS
 10
3.441680
 20
6.125240
  0
VERTEX
  8
0
  6
CONTINUOUS
 10
3.489640
 20
6.158680
  0
VERTEX
  8
0
  6
CONTINUOUS
 10
3.494920
 20
5.427400
  0
VERTEX
  8
0
  6
CONTINUOUS
 10
3.446960
 20
5.393960
  0
SEQEND
  8
0
  0
SOLID
  8
0
 62
    15
 10
3.494920
 20
5.427400
 11
3.489640
 21
6.158680
 12
3.500200
 22
5.423440
 13
3.495360
 23
6.154720
  0
POLYLINE
  8
0
  6
CONTINUOUS
 66
     1
 40
0.014080
 41
0.014080
  0
VERTEX
  8
0
  6
CONTINUOUS
 10
3.494920
 20
5.427400
  0
VERTEX
  8
0
  6
CONTINUOUS
 10
3.489640
 20
6.158680
  0
VERTEX
  8
0
  6
CONTINUOUS
 10
3.495360
 20
6.154720
  0
VERTEX
  8
0
  6
CONTINUOUS
 10
3.500200
 20
5.423440
  0
VERTEX
  8
0
  6
CONTINUOUS
 10
3.494920
 20
5.427400
  0
SEQEND
  8
0
  0
SOLID
  8
0
 62
    15
 10
3.500200
 20
5.423440
 11
3.495360
 21
6.154720
 12
4.040520
 22
5.129960
 13
4.035240
 23
5.861680
  0
POLYLINE
  8
0
  6
CONTINUOUS
 66
     1
 40
0.014080
 41
0.014080
  0
VERTEX
  8
0
  6
CONTINUOUS
 10
3.500200
 20
5.423440
  0
VERTEX
  8
0
  6
CONTINUOUS
 10
3.495360
 20
6.154720
  0
VERTEX
  8
0
  6
CONTINUOUS
 10
4.035240
 20
5.861680
  0
VERTEX
  8
0
  6
CONTINUOUS
 10
4.040520
 20
5.129960
  0
VERTEX
  8
0
  6
CONTINUOUS
 10
3.500200
 20
5.423440
  0
SEQEND
  8
0
  0
SOLID
  8
0
 62
    15
 10
1.401840
 20
4.991360
 11
1.396560
 21
5.722640
 12
1.401840
 22
5.478000
 13
1.396560
 23
6.209280
  0
POLYLINE
  8
0
  6
CONTINUOUS
 66
     1
 40
0.014080
 41
0.014080
  0
VERTEX
  8
0
  6
CONTINUOUS
 10
1.401840
 20
4.991360
  0
VERTEX
  8
0
  6
CONTINUOUS
 10
1.396560
 20
5.722640
  0
VERTEX
  8
0
  6
CONTINUOUS
 10
1.396560
 20
6.209280
  0
VERTEX
  8
0
  6
CONTINUOUS
 10
1.401840
 20
5.478000
  0
VERTEX
  8
0
  6
CONTINUOUS
 10
1.401840
 20
4.991360
  0
SEQEND
  8
0
  0
POLYLINE
  8
0
  6
CONTINUOUS
 66
     1
 40
0.014080
 41
0.014080
  0
VERTEX
  8
0
  6
CONTINUOUS
 10
1.401840
 20
5.471400
  0
VERTEX
  8
0
  6
CONTINUOUS
 10
1.401840
 20
5.480640
  0
VERTEX
  8
0
  6
CONTINUOUS
 10
1.596320
 20
5.480640
  0
VERTEX
  8
0
  6
CONTINUOUS
 10
1.597640
 20
5.481960
  0
VERTEX
  8
0
  6
CONTINUOUS
 10
1.630200
 20
5.554120
  0
VERTEX
  8
0
  6
CONTINUOUS
 10
1.663640
 20
5.616160
  0
VERTEX
  8
0
  6
CONTINUOUS
 10
1.698400
 20
5.668520
  0
VERTEX
  8
0
  6
CONTINUOUS
 10
1.734920
 20
5.710760
  0
VERTEX
  8
0
  6
CONTINUOUS
 10
1.773640
 20
5.743320
  0
VERTEX
  8
0
  6
CONTINUOUS
 10
1.815440
 20
5.766640
  0
VERTEX
  8
0
  6
CONTINUOUS
 10
1.860320
 20
5.779840
  0
VERTEX
  8
0
  6
CONTINUOUS
 10
1.908720
 20
5.783800
  0
VERTEX
  8
0
  6
CONTINUOUS
 10
1.961520
 20
5.778520
  0
VERTEX
  8
0
  6
CONTINUOUS
 10
2.019160
 20
5.763560
  0
VERTEX
  8
0
  6
CONTINUOUS
 10
2.081640
 20
5.739360
  0
VERTEX
  8
0
  6
CONTINUOUS
 10
2.150280
 20
5.706360
  0
VERTEX
  8
0
  6
CONTINUOUS
 10
2.224640
 20
5.663680
  0
VERTEX
  8
0
  6
CONTINUOUS
 10
2.305600
 20
5.612200
  0
VERTEX
  8
0
  6
CONTINUOUS
 10
2.394040
 20
5.551480
  0
VERTEX
  8
0
  6
CONTINUOUS
 10
2.489520
 20
5.481960
  0
VERTEX
  8
0
  6
CONTINUOUS
 10
2.539240
 20
5.446320
  0
VERTEX
  8
0
  6
CONTINUOUS
 10
2.586760
 20
5.413760
  0
VERTEX
  8
0
  6
CONTINUOUS
 10
2.676520
 20
5.357880
  0
VERTEX
  8
0
  6
CONTINUOUS
 10
2.759680
 20
5.313440
  0
VERTEX
  8
0
  6
CONTINUOUS
 10
2.837120
 20
5.280000
  0
VERTEX
  8
0
  6
CONTINUOUS
 10
2.908840
 20
5.256240
  0
VERTEX
  8
0
  6
CONTINUOUS
 10
2.975720
 20
5.242160
  0
VERTEX
  8
0
  6
CONTINUOUS
 10
3.038200
 20
5.236000
  0
VERTEX
  8
0
  6
CONTINUOUS
 10
3.096720
 20
5.237760
  0
VERTEX
  8
0
  6
CONTINUOUS
 10
3.152160
 20
5.246120
  0
VERTEX
  8
0
  6
CONTINUOUS
 10
3.204960
 20
5.260200
  0
VERTEX
  8
0
  6
CONTINUOUS
 10
3.255560
 20
5.280000
  0
VERTEX
  8
0
  6
CONTINUOUS
 10
3.304400
 20
5.303760
  0
VERTEX
  8
0
  6
CONTINUOUS
 10
3.399440
 20
5.361840
  0
VERTEX
  8
0
  6
CONTINUOUS
 10
3.446960
 20
5.393960
  0
VERTEX
  8
0
  6
CONTINUOUS
 10
3.494920
 20
5.427400
  0
VERTEX
  8
0
  6
CONTINUOUS
 10
3.500200
 20
5.423440
  0
VERTEX
  8
0
  6
CONTINUOUS
 10
4.040520
 20
5.129960
  0
VERTEX
  8
0
  6
CONTINUOUS
 10
4.040520
 20
4.991360
  0
VERTEX
  8
0
  6
CONTINUOUS
 10
1.401840
 20
4.991360
  0
VERTEX
  8
0
  6
CONTINUOUS
 10
1.401840
 20
5.478000
  0
VERTEX
  8
0
  6
CONTINUOUS
 10
1.401840
 20
5.471400
  0
SEQEND
  8
0
  0
POLYLINE
  8
0
  6
CONTINUOUS
 66
     1
 40
0.014080
 41
0.014080
  0
VERTEX
  8
0
  6
CONTINUOUS
 10
4.465120
 20
5.817240
  0
VERTEX
  8
0
  6
CONTINUOUS
 10
4.465120
 20
5.330600
  0
VERTEX
  8
0
  6
CONTINUOUS
 10
7.103800
 20
5.330600
  0
VERTEX
  8
0
  6
CONTINUOUS
 10
7.103800
 20
5.463920
  0
VERTEX
  8
0
  6
CONTINUOUS
 10
7.103800
 20
5.461280
  0
VERTEX
  8
0
  6
CONTINUOUS
 10
7.103800
 20
5.469200
  0
VERTEX
  8
0
  6
CONTINUOUS
 10
6.563480
 20
5.762680
  0
VERTEX
  8
0
  6
CONTINUOUS
 10
6.558200
 20
5.766640
  0
VERTEX
  8
0
  6
CONTINUOUS
 10
6.462720
 20
5.701080
  0
VERTEX
  8
0
  6
CONTINUOUS
 10
6.391440
 20
5.656640
  0
VERTEX
  8
0
  6
CONTINUOUS
 10
6.343480
 20
5.630680
  0
VERTEX
  8
0
  6
CONTINUOUS
 10
6.293760
 20
5.608680
  0
VERTEX
  8
0
  6
CONTINUOUS
 10
6.242280
 20
5.591960
  0
VERTEX
  8
0
  6
CONTINUOUS
 10
6.215440
 20
5.585360
  0
VERTEX
  8
0
  6
CONTINUOUS
 10
6.160000
 20
5.577000
  0
VERTEX
  8
0
  6
CONTINUOUS
 10
6.131400
 20
5.575240
  0
VERTEX
  8
0
  6
CONTINUOUS
 10
6.101480
 20
5.575240
  0
VERTEX
  8
0
  6
CONTINUOUS
 10
6.070680
 20
5.577440
  0
VERTEX
  8
0
  6
CONTINUOUS
 10
6.039000
 20
5.581400
  0
VERTEX
  8
0
  6
CONTINUOUS
 10
5.972120
 20
5.595480
  0
VERTEX
  8
0
  6
CONTINUOUS
 10
5.918880
 20
5.612200
  0
VERTEX
  8
0
  6
CONTINUOUS
 10
5.842760
 20
5.643440
  0
VERTEX
  8
0
  6
CONTINUOUS
 10
5.761360
 20
5.684800
  0
VERTEX
  8
0
  6
CONTINUOUS
 10
5.672920
 20
5.737600
  0
VERTEX
  8
0
  6
CONTINUOUS
 10
5.577880
 20
5.802720
  0
VERTEX
  8
0
  6
CONTINUOUS
 10
5.456880
 20
5.890720
  0
VERTEX
  8
0
  6
CONTINUOUS
 10
5.347760
 20
5.965080
  0
VERTEX
  8
0
  6
CONTINUOUS
 10
5.268560
 20
6.014360
  0
VERTEX
  8
0
  6
CONTINUOUS
 10
5.195520
 20
6.054840
  0
VERTEX
  8
0
  6
CONTINUOUS
 10
5.128640
 20
6.085640
  0
VERTEX
  8
0
  6
CONTINUOUS
 10
5.082000
 20
6.102800
  0
VERTEX
  8
0
  6
CONTINUOUS
 10
5.038440
 20
6.115120
  0
VERTEX
  8
0
  6
CONTINUOUS
 10
4.997520
 20
6.121720
  0
VERTEX
  8
0
  6
CONTINUOUS
 10
4.972000
 20
6.123480
  0
VERTEX
  8
0
  6
CONTINUOUS
 10
4.935040
 20
6.121280
  0
VERTEX
  8
0
  6
CONTINUOUS
 10
4.900280
 20
6.113800
  0
VERTEX
  8
0
  6
CONTINUOUS
 10
4.867720
 20
6.101040
  0
VERTEX
  8
0
  6
CONTINUOUS
 10
4.836920
 20
6.083000
  0
VERTEX
  8
0
  6
CONTINUOUS
 10
4.807440
 20
6.059240
  0
VERTEX
  8
0
  6
CONTINUOUS
 10
4.779720
 20
6.030200
  0
VERTEX
  8
0
  6
CONTINUOUS
 10
4.761680
 20
6.007760
  0
VERTEX
  8
0
  6
CONTINUOUS
 10
4.726920
 20
5.955400
  0
VERTEX
  8
0
  6
CONTINUOUS
 10
4.693480
 20
5.893360
  0
VERTEX
  8
0
  6
CONTINUOUS
 10
4.659600
 20
5.819880
  0
VERTEX
  8
0
  6
CONTINUOUS
 10
4.465120
 20
5.819880
  0
VERTEX
  8
0
  6
CONTINUOUS
 10
4.465120
 20
5.810640
  0
VERTEX
  8
0
  6
CONTINUOUS
 10
4.465120
 20
5.817240
  0
SEQEND
  8
0
  0
TEXT
  8
0
 10
5.423880
 20
5.042840
 40
0.138220
  1
BA  34
 41
1.000000
  7
SN0
 71
     0
 72
     5
 11
5.922570
 21
5.042840
  0
TEXT
  8
0
 10
5.221920
 20
4.851440
 40
0.138220
  1
3/4" x 2-3/4"
 41
1.000000
  7
SN0
 71
     0
 72
     5
 11
6.124597
 21
4.851440
  0
ENDSEC
  0
EOF
