  0
SECTION
  2
HEADER
  9
$ACADVER
  1
AC1006
  9
$EXTMIN
 10
4.456320
 20
0.370920
  9
$EXTMAX
 10
8.028680
 20
3.760240
  9
$LTSCALE
 40
0.044000
  9
$PDMODE
 70
    35
  9
$PDSIZE
 40
0.035200
  0
ENDSEC
  0
SECTION
  2
TABLES
  0
TABLE
  2
LTYPE
 70
     9
  0
LTYPE
  2
CONTINUOUS
 70
    64
  3
Solid line
 72
    65
 73
     0
 40
0.000000
  0
LTYPE
  2
DASHED
 70
    64
  3
__ __ __ __ __ __ __ __ __ __ __ __ __ __ __
 72
    65
 73
     2
 40
0.000330
 49
0.000220
 49
-0.000110
  0
LTYPE
  2
HIDDEN
 70
    64
  3
 _ _ _ _ _ _ _ _ _ _ _ _ _ _ _ _ _ _ _ _ _ _
 72
    65
 73
     2
 40
0.000165
 49
0.000110
 49
-0.000055
  0
LTYPE
  2
CENTER
 70
    64
  3
____ _ ____ _ ____ _ ____ _ ____ _ ____ _ ____
 72
    65
 73
     4
 40
0.000880
 49
0.000550
 49
-0.000110
 49
0.000110
 49
-0.000110
  0
LTYPE
  2
PHANTOM
 70
    64
  3
_____ _ _ _____ _ _ _____ _ _ _____ _ _ ____
 72
    65
 73
     6
 40
0.001100
 49
0.000550
 49
-0.000110
 49
0.000110
 49
-0.000110
 49
0.000110
 49
-0.000110
  0
LTYPE
  2
DOT
 70
    64
  3
...............................................
 72
    65
 73
     2
 40
0.000110
 49
0.000000
 49
-0.000110
  0
LTYPE
  2
DASHDOT
 70
    64
  3
__ . __ . __ . __ . __ . __ . __ . __ . __ . __
 72
    65
 73
     4
 40
0.000440
 49
0.000220
 49
-0.000110
 49
0.000000
 49
-0.000110
  0
LTYPE
  2
BORDER
 70
    64
  3
__ __ . __ __ . __ __ . __ __ . __ __ . __ __
 72
    65
 73
     6
 40
0.000770
 49
0.000220
 49
-0.000110
 49
0.000220
 49
-0.000110
 49
0.000000
 49
-0.000110
  0
LTYPE
  2
DIVIDE
 70
    64
  3
__ . . __ . . __ . . __ . . __ . . __ . . __
 72
    65
 73
     6
 40
0.000550
 49
0.000220
 49
-0.000110
 49
0.000000
 49
-0.000110
 49
0.000000
 49
-0.000110
  0
LTYPE
  2
DOTDOT
 70
    64
  3
 . .  . .  . .  . .  . .  . . 
 72
    65
 73
     5
 40
0.000242
 49
-0.000110
 49
0.000000
 49
-0.000110
 49
0.000000
 49
-0.000110
  0
ENDTAB
  0
TABLE
  2
STYLE
 70
     2
  0
STYLE
 70
     0
  2
SN0
 40
0.000000
 41
0.000440
 50
0.000000
 71
     0
 42
0.000000
  3
ROMAND
  0
STYLE
 70
    68
  2
SV0
 40
0.000000
 41
0.000440
 50
0.000000
 71
     0
 42
0.000000
  3
ROMAND
  0
ENDTAB
  0
TABLE
  2
LAYER
 70
     3
  0
LAYER
  2
FOREGROUND
 70
    64
 62
     7
  6
CONTINUOUS
  0
LAYER
  2
BACKGROUND
 70
    65
 62
    -7
  6
CONTINUOUS
  0
LAYER
  2
0
 70
    64
 62
     7
  6
CONTINUOUS
  0
ENDTAB
  0
ENDSEC
  0
SECTION
  2
ENTITIES
  0
POLYLINE
  8
FOREGROUND
  6
CONTINUOUS
 66
     1
 40
0.000000
 41
0.000000
  0
VERTEX
  8
FOREGROUND
  6
CONTINUOUS
 10
0.000000
 20
4.131160
  0
VERTEX
  8
FOREGROUND
  6
CONTINUOUS
 10
8.499920
 20
4.131160
  0
VERTEX
  8
FOREGROUND
  6
CONTINUOUS
 10
8.499920
 20
-6.868840
  0
VERTEX
  8
FOREGROUND
  6
CONTINUOUS
 10
0.000000
 20
-6.868840
  0
VERTEX
  8
FOREGROUND
  6
CONTINUOUS
 10
0.000000
 20
4.131160
  0
SEQEND
  8
0
  0
POLYLINE
  8
FOREGROUND
  6
CONTINUOUS
 66
     1
 40
0.000000
 41
0.000000
  0
VERTEX
  8
FOREGROUND
  6
CONTINUOUS
 10
0.000000
 20
4.131160
  0
VERTEX
  8
FOREGROUND
  6
CONTINUOUS
 10
8.499920
 20
4.131160
  0
VERTEX
  8
FOREGROUND
  6
CONTINUOUS
 10
8.499920
 20
-6.868840
  0
VERTEX
  8
FOREGROUND
  6
CONTINUOUS
 10
0.000000
 20
-6.868840
  0
VERTEX
  8
FOREGROUND
  6
CONTINUOUS
 10
0.000000
 20
4.131160
  0
SEQEND
  8
0
  0
POLYLINE
  8
0
  6
CONTINUOUS
 66
     1
 40
0.014080
 41
0.014080
  0
VERTEX
  8
0
  6
CONTINUOUS
 10
7.225680
 20
1.862960
  0
VERTEX
  8
0
  6
CONTINUOUS
 10
7.225680
 20
1.208240
  0
VERTEX
  8
0
  6
CONTINUOUS
 10
7.132400
 20
1.208240
  0
VERTEX
  8
0
  6
CONTINUOUS
 10
7.136360
 20
1.208240
  0
VERTEX
  8
0
  6
CONTINUOUS
 10
6.534000
 20
1.208240
  0
VERTEX
  8
0
  6
CONTINUOUS
 10
6.534000
 20
3.649800
  0
VERTEX
  8
0
  6
CONTINUOUS
 10
6.561720
 20
3.646720
  0
VERTEX
  8
0
  6
CONTINUOUS
 10
6.573600
 20
3.642760
  0
VERTEX
  8
0
  6
CONTINUOUS
 10
6.595600
 20
3.630440
  0
VERTEX
  8
0
  6
CONTINUOUS
 10
6.614520
 20
3.613720
  0
VERTEX
  8
0
  6
CONTINUOUS
 10
6.631680
 20
3.592600
  0
VERTEX
  8
0
  6
CONTINUOUS
 10
6.654120
 20
3.555200
  0
VERTEX
  8
0
  6
CONTINUOUS
 10
6.699000
 20
3.469400
  0
VERTEX
  8
0
  6
CONTINUOUS
 10
6.726280
 20
3.426720
  0
VERTEX
  8
0
  6
CONTINUOUS
 10
6.747400
 20
3.399440
  0
VERTEX
  8
0
  6
CONTINUOUS
 10
6.772040
 20
3.374800
  0
VERTEX
  8
0
  6
CONTINUOUS
 10
6.800640
 20
3.353680
  0
VERTEX
  8
0
  6
CONTINUOUS
 10
6.834080
 20
3.336080
  0
VERTEX
  8
0
  6
CONTINUOUS
 10
6.873240
 20
3.323320
  0
VERTEX
  8
0
  6
CONTINUOUS
 10
6.895240
 20
3.318920
  0
VERTEX
  8
0
  6
CONTINUOUS
 10
6.895240
 20
3.128400
  0
VERTEX
  8
0
  6
CONTINUOUS
 10
6.844640
 20
3.081760
  0
VERTEX
  8
0
  6
CONTINUOUS
 10
6.815600
 20
3.047440
  0
VERTEX
  8
0
  6
CONTINUOUS
 10
6.795800
 20
3.013120
  0
VERTEX
  8
0
  6
CONTINUOUS
 10
6.787440
 20
2.989360
  0
VERTEX
  8
0
  6
CONTINUOUS
 10
6.783920
 20
2.964720
  0
VERTEX
  8
0
  6
CONTINUOUS
 10
6.785240
 20
2.939200
  0
VERTEX
  8
0
  6
CONTINUOUS
 10
6.791400
 20
2.912360
  0
VERTEX
  8
0
  6
CONTINUOUS
 10
6.802840
 20
2.884200
  0
VERTEX
  8
0
  6
CONTINUOUS
 10
6.830560
 20
2.837560
  0
VERTEX
  8
0
  6
CONTINUOUS
 10
6.871480
 20
2.786080
  0
VERTEX
  8
0
  6
CONTINUOUS
 10
6.926480
 20
2.728880
  0
VERTEX
  8
0
  6
CONTINUOUS
 10
6.996440
 20
2.664200
  0
VERTEX
  8
0
  6
CONTINUOUS
 10
7.072120
 20
2.602600
  0
VERTEX
  8
0
  6
CONTINUOUS
 10
7.113040
 20
2.564760
  0
VERTEX
  8
0
  6
CONTINUOUS
 10
7.160120
 20
2.511960
  0
VERTEX
  8
0
  6
CONTINUOUS
 10
7.183000
 20
2.479400
  0
VERTEX
  8
0
  6
CONTINUOUS
 10
7.199720
 20
2.449040
  0
VERTEX
  8
0
  6
CONTINUOUS
 10
7.210280
 20
2.420880
  0
VERTEX
  8
0
  6
CONTINUOUS
 10
7.215120
 20
2.394480
  0
VERTEX
  8
0
  6
CONTINUOUS
 10
7.216000
 20
2.381720
  0
VERTEX
  8
0
  6
CONTINUOUS
 10
7.213360
 20
2.357960
  0
VERTEX
  8
0
  6
CONTINUOUS
 10
7.206320
 20
2.335520
  0
VERTEX
  8
0
  6
CONTINUOUS
 10
7.195320
 20
2.314840
  0
VERTEX
  8
0
  6
CONTINUOUS
 10
7.180360
 20
2.295480
  0
VERTEX
  8
0
  6
CONTINUOUS
 10
7.152200
 20
2.268640
  0
VERTEX
  8
0
  6
CONTINUOUS
 10
7.130200
 20
2.251920
  0
VERTEX
  8
0
  6
CONTINUOUS
 10
7.076080
 20
2.217160
  0
VERTEX
  8
0
  6
CONTINUOUS
 10
7.052760
 20
2.198240
  0
VERTEX
  8
0
  6
CONTINUOUS
 10
7.029440
 20
2.173600
  0
VERTEX
  8
0
  6
CONTINUOUS
 10
7.015360
 20
2.150280
  0
VERTEX
  8
0
  6
CONTINUOUS
 10
7.010960
 20
2.139280
  0
VERTEX
  8
0
  6
CONTINUOUS
 10
7.008320
 20
2.128280
  0
VERTEX
  8
0
  6
CONTINUOUS
 10
7.008320
 20
2.107160
  0
VERTEX
  8
0
  6
CONTINUOUS
 10
7.013600
 20
2.087360
  0
VERTEX
  8
0
  6
CONTINUOUS
 10
7.023280
 20
2.069320
  0
VERTEX
  8
0
  6
CONTINUOUS
 10
7.043960
 20
2.045120
  0
VERTEX
  8
0
  6
CONTINUOUS
 10
7.076080
 20
2.018280
  0
VERTEX
  8
0
  6
CONTINUOUS
 10
7.128440
 20
1.987040
  0
VERTEX
  8
0
  6
CONTINUOUS
 10
7.150880
 20
1.981320
  0
VERTEX
  8
0
  6
CONTINUOUS
 10
7.177280
 20
1.968120
  0
VERTEX
  8
0
  6
CONTINUOUS
 10
7.194880
 20
1.953160
  0
VERTEX
  8
0
  6
CONTINUOUS
 10
7.203240
 20
1.943480
  0
VERTEX
  8
0
  6
CONTINUOUS
 10
7.216880
 20
1.918840
  0
VERTEX
  8
0
  6
CONTINUOUS
 10
7.223480
 20
1.895080
  0
VERTEX
  8
0
  6
CONTINUOUS
 10
7.225680
 20
1.866920
  0
VERTEX
  8
0
  6
CONTINUOUS
 10
7.225680
 20
1.862960
  0
SEQEND
  8
0
  0
SOLID
  8
0
 62
    15
 10
5.053840
 20
2.220240
 11
5.687000
 21
2.585880
 12
5.083320
 22
2.185920
 13
5.716920
 23
2.551120
  0
POLYLINE
  8
0
  6
CONTINUOUS
 66
     1
 40
0.000000
 41
0.000000
  0
VERTEX
  8
0
  6
CONTINUOUS
 10
5.053840
 20
2.220240
  0
VERTEX
  8
0
  6
CONTINUOUS
 10
5.687000
 20
2.585880
  0
VERTEX
  8
0
  6
CONTINUOUS
 10
5.716920
 20
2.551120
  0
VERTEX
  8
0
  6
CONTINUOUS
 10
5.083320
 20
2.185920
  0
VERTEX
  8
0
  6
CONTINUOUS
 10
5.053840
 20
2.220240
  0
SEQEND
  8
0
  0
SOLID
  8
0
 62
    15
 10
4.456760
 20
3.323320
 11
5.090360
 21
3.688960
 12
4.484480
 22
3.320240
 13
5.118080
 23
3.685440
  0
POLYLINE
  8
0
  6
CONTINUOUS
 66
     1
 40
0.000000
 41
0.000000
  0
VERTEX
  8
0
  6
CONTINUOUS
 10
4.456760
 20
3.323320
  0
VERTEX
  8
0
  6
CONTINUOUS
 10
5.090360
 20
3.688960
  0
VERTEX
  8
0
  6
CONTINUOUS
 10
5.118080
 20
3.685440
  0
VERTEX
  8
0
  6
CONTINUOUS
 10
4.484480
 20
3.320240
  0
VERTEX
  8
0
  6
CONTINUOUS
 10
4.456760
 20
3.323320
  0
SEQEND
  8
0
  0
SOLID
  8
0
 62
    15
 10
4.484480
 20
3.320240
 11
5.118080
 21
3.685440
 12
4.508240
 22
3.311000
 13
5.141840
 23
3.676200
  0
POLYLINE
  8
0
  6
CONTINUOUS
 66
     1
 40
0.000000
 41
0.000000
  0
VERTEX
  8
0
  6
CONTINUOUS
 10
4.484480
 20
3.320240
  0
VERTEX
  8
0
  6
CONTINUOUS
 10
5.118080
 20
3.685440
  0
VERTEX
  8
0
  6
CONTINUOUS
 10
5.141840
 20
3.676200
  0
VERTEX
  8
0
  6
CONTINUOUS
 10
4.508240
 20
3.311000
  0
VERTEX
  8
0
  6
CONTINUOUS
 10
4.484480
 20
3.320240
  0
SEQEND
  8
0
  0
SOLID
  8
0
 62
    15
 10
4.508240
 20
3.311000
 11
5.141840
 21
3.676200
 12
4.528480
 22
3.296480
 13
5.162080
 23
3.661680
  0
POLYLINE
  8
0
  6
CONTINUOUS
 66
     1
 40
0.000000
 41
0.000000
  0
VERTEX
  8
0
  6
CONTINUOUS
 10
4.508240
 20
3.311000
  0
VERTEX
  8
0
  6
CONTINUOUS
 10
5.141840
 20
3.676200
  0
VERTEX
  8
0
  6
CONTINUOUS
 10
5.162080
 20
3.661680
  0
VERTEX
  8
0
  6
CONTINUOUS
 10
4.528480
 20
3.296480
  0
VERTEX
  8
0
  6
CONTINUOUS
 10
4.508240
 20
3.311000
  0
SEQEND
  8
0
  0
SOLID
  8
0
 62
    15
 10
4.528480
 20
3.296480
 11
5.162080
 21
3.661680
 12
4.546520
 22
3.277120
 13
5.180120
 23
3.642760
  0
POLYLINE
  8
0
  6
CONTINUOUS
 66
     1
 40
0.000000
 41
0.000000
  0
VERTEX
  8
0
  6
CONTINUOUS
 10
4.528480
 20
3.296480
  0
VERTEX
  8
0
  6
CONTINUOUS
 10
5.162080
 20
3.661680
  0
VERTEX
  8
0
  6
CONTINUOUS
 10
5.180120
 20
3.642760
  0
VERTEX
  8
0
  6
CONTINUOUS
 10
4.546520
 20
3.277120
  0
VERTEX
  8
0
  6
CONTINUOUS
 10
4.528480
 20
3.296480
  0
SEQEND
  8
0
  0
SOLID
  8
0
 62
    15
 10
4.546520
 20
3.277120
 11
5.180120
 21
3.642760
 12
4.577320
 22
3.229160
 13
5.210920
 23
3.594360
  0
POLYLINE
  8
0
  6
CONTINUOUS
 66
     1
 40
0.000000
 41
0.000000
  0
VERTEX
  8
0
  6
CONTINUOUS
 10
4.546520
 20
3.277120
  0
VERTEX
  8
0
  6
CONTINUOUS
 10
5.180120
 20
3.642760
  0
VERTEX
  8
0
  6
CONTINUOUS
 10
5.210920
 20
3.594360
  0
VERTEX
  8
0
  6
CONTINUOUS
 10
4.577320
 20
3.229160
  0
VERTEX
  8
0
  6
CONTINUOUS
 10
4.546520
 20
3.277120
  0
SEQEND
  8
0
  0
SOLID
  8
0
 62
    15
 10
4.577320
 20
3.229160
 11
5.210920
 21
3.594360
 12
4.591840
 22
3.201440
 13
5.225440
 23
3.566640
  0
POLYLINE
  8
0
  6
CONTINUOUS
 66
     1
 40
0.000000
 41
0.000000
  0
VERTEX
  8
0
  6
CONTINUOUS
 10
4.577320
 20
3.229160
  0
VERTEX
  8
0
  6
CONTINUOUS
 10
5.210920
 20
3.594360
  0
VERTEX
  8
0
  6
CONTINUOUS
 10
5.225440
 20
3.566640
  0
VERTEX
  8
0
  6
CONTINUOUS
 10
4.591840
 20
3.201440
  0
VERTEX
  8
0
  6
CONTINUOUS
 10
4.577320
 20
3.229160
  0
SEQEND
  8
0
  0
SOLID
  8
0
 62
    15
 10
4.591840
 20
3.201440
 11
5.225440
 21
3.566640
 12
4.606800
 22
3.172840
 13
5.240400
 23
3.538040
  0
POLYLINE
  8
0
  6
CONTINUOUS
 66
     1
 40
0.000000
 41
0.000000
  0
VERTEX
  8
0
  6
CONTINUOUS
 10
4.591840
 20
3.201440
  0
VERTEX
  8
0
  6
CONTINUOUS
 10
5.225440
 20
3.566640
  0
VERTEX
  8
0
  6
CONTINUOUS
 10
5.240400
 20
3.538040
  0
VERTEX
  8
0
  6
CONTINUOUS
 10
4.606800
 20
3.172840
  0
VERTEX
  8
0
  6
CONTINUOUS
 10
4.591840
 20
3.201440
  0
SEQEND
  8
0
  0
SOLID
  8
0
 62
    15
 10
4.606800
 20
3.172840
 11
5.240400
 21
3.538040
 12
4.639800
 22
3.114320
 13
5.273400
 23
3.479960
  0
POLYLINE
  8
0
  6
CONTINUOUS
 66
     1
 40
0.000000
 41
0.000000
  0
VERTEX
  8
0
  6
CONTINUOUS
 10
4.606800
 20
3.172840
  0
VERTEX
  8
0
  6
CONTINUOUS
 10
5.240400
 20
3.538040
  0
VERTEX
  8
0
  6
CONTINUOUS
 10
5.273400
 20
3.479960
  0
VERTEX
  8
0
  6
CONTINUOUS
 10
4.639800
 20
3.114320
  0
VERTEX
  8
0
  6
CONTINUOUS
 10
4.606800
 20
3.172840
  0
SEQEND
  8
0
  0
SOLID
  8
0
 62
    15
 10
4.639800
 20
3.114320
 11
5.273400
 21
3.479960
 12
4.659600
 22
3.086600
 13
5.293200
 23
3.451800
  0
POLYLINE
  8
0
  6
CONTINUOUS
 66
     1
 40
0.000000
 41
0.000000
  0
VERTEX
  8
0
  6
CONTINUOUS
 10
4.639800
 20
3.114320
  0
VERTEX
  8
0
  6
CONTINUOUS
 10
5.273400
 20
3.479960
  0
VERTEX
  8
0
  6
CONTINUOUS
 10
5.293200
 20
3.451800
  0
VERTEX
  8
0
  6
CONTINUOUS
 10
4.659600
 20
3.086600
  0
VERTEX
  8
0
  6
CONTINUOUS
 10
4.639800
 20
3.114320
  0
SEQEND
  8
0
  0
SOLID
  8
0
 62
    15
 10
4.659600
 20
3.086600
 11
5.293200
 21
3.451800
 12
4.682480
 22
3.060640
 13
5.316080
 23
3.426280
  0
POLYLINE
  8
0
  6
CONTINUOUS
 66
     1
 40
0.000000
 41
0.000000
  0
VERTEX
  8
0
  6
CONTINUOUS
 10
4.659600
 20
3.086600
  0
VERTEX
  8
0
  6
CONTINUOUS
 10
5.293200
 20
3.451800
  0
VERTEX
  8
0
  6
CONTINUOUS
 10
5.316080
 20
3.426280
  0
VERTEX
  8
0
  6
CONTINUOUS
 10
4.682480
 20
3.060640
  0
VERTEX
  8
0
  6
CONTINUOUS
 10
4.659600
 20
3.086600
  0
SEQEND
  8
0
  0
SOLID
  8
0
 62
    15
 10
4.682480
 20
3.060640
 11
5.316080
 21
3.426280
 12
4.708880
 22
3.037760
 13
5.342480
 23
3.402960
  0
POLYLINE
  8
0
  6
CONTINUOUS
 66
     1
 40
0.000000
 41
0.000000
  0
VERTEX
  8
0
  6
CONTINUOUS
 10
4.682480
 20
3.060640
  0
VERTEX
  8
0
  6
CONTINUOUS
 10
5.316080
 20
3.426280
  0
VERTEX
  8
0
  6
CONTINUOUS
 10
5.342480
 20
3.402960
  0
VERTEX
  8
0
  6
CONTINUOUS
 10
4.708880
 20
3.037760
  0
VERTEX
  8
0
  6
CONTINUOUS
 10
4.682480
 20
3.060640
  0
SEQEND
  8
0
  0
SOLID
  8
0
 62
    15
 10
4.708880
 20
3.037760
 11
5.342480
 21
3.402960
 12
4.740120
 22
3.018400
 13
5.373720
 23
3.383600
  0
POLYLINE
  8
0
  6
CONTINUOUS
 66
     1
 40
0.000000
 41
0.000000
  0
VERTEX
  8
0
  6
CONTINUOUS
 10
4.708880
 20
3.037760
  0
VERTEX
  8
0
  6
CONTINUOUS
 10
5.342480
 20
3.402960
  0
VERTEX
  8
0
  6
CONTINUOUS
 10
5.373720
 20
3.383600
  0
VERTEX
  8
0
  6
CONTINUOUS
 10
4.740120
 20
3.018400
  0
VERTEX
  8
0
  6
CONTINUOUS
 10
4.708880
 20
3.037760
  0
SEQEND
  8
0
  0
SOLID
  8
0
 62
    15
 10
4.740120
 20
3.018400
 11
5.373720
 21
3.383600
 12
4.776200
 22
3.003000
 13
5.409800
 23
3.368200
  0
POLYLINE
  8
0
  6
CONTINUOUS
 66
     1
 40
0.000000
 41
0.000000
  0
VERTEX
  8
0
  6
CONTINUOUS
 10
4.740120
 20
3.018400
  0
VERTEX
  8
0
  6
CONTINUOUS
 10
5.373720
 20
3.383600
  0
VERTEX
  8
0
  6
CONTINUOUS
 10
5.409800
 20
3.368200
  0
VERTEX
  8
0
  6
CONTINUOUS
 10
4.776200
 20
3.003000
  0
VERTEX
  8
0
  6
CONTINUOUS
 10
4.740120
 20
3.018400
  0
SEQEND
  8
0
  0
SOLID
  8
0
 62
    15
 10
4.776200
 20
3.003000
 11
5.409800
 21
3.368200
 12
4.818440
 22
2.992880
 13
5.452040
 23
3.358080
  0
POLYLINE
  8
0
  6
CONTINUOUS
 66
     1
 40
0.000000
 41
0.000000
  0
VERTEX
  8
0
  6
CONTINUOUS
 10
4.776200
 20
3.003000
  0
VERTEX
  8
0
  6
CONTINUOUS
 10
5.409800
 20
3.368200
  0
VERTEX
  8
0
  6
CONTINUOUS
 10
5.452040
 20
3.358080
  0
VERTEX
  8
0
  6
CONTINUOUS
 10
4.818440
 20
2.992880
  0
VERTEX
  8
0
  6
CONTINUOUS
 10
4.776200
 20
3.003000
  0
SEQEND
  8
0
  0
SOLID
  8
0
 62
    15
 10
4.818440
 20
2.992880
 11
5.452040
 21
3.358080
 12
4.818440
 22
2.802360
 13
5.452040
 23
3.167560
  0
POLYLINE
  8
0
  6
CONTINUOUS
 66
     1
 40
0.000000
 41
0.000000
  0
VERTEX
  8
0
  6
CONTINUOUS
 10
4.818440
 20
2.992880
  0
VERTEX
  8
0
  6
CONTINUOUS
 10
5.452040
 20
3.358080
  0
VERTEX
  8
0
  6
CONTINUOUS
 10
5.452040
 20
3.167560
  0
VERTEX
  8
0
  6
CONTINUOUS
 10
4.818440
 20
2.802360
  0
VERTEX
  8
0
  6
CONTINUOUS
 10
4.818440
 20
2.992880
  0
SEQEND
  8
0
  0
SOLID
  8
0
 62
    15
 10
4.818440
 20
2.802360
 11
5.452040
 21
3.167560
 12
4.791160
 22
2.778600
 13
5.424760
 23
3.143800
  0
POLYLINE
  8
0
  6
CONTINUOUS
 66
     1
 40
0.000000
 41
0.000000
  0
VERTEX
  8
0
  6
CONTINUOUS
 10
4.818440
 20
2.802360
  0
VERTEX
  8
0
  6
CONTINUOUS
 10
5.452040
 20
3.167560
  0
VERTEX
  8
0
  6
CONTINUOUS
 10
5.424760
 20
3.143800
  0
VERTEX
  8
0
  6
CONTINUOUS
 10
4.791160
 20
2.778600
  0
VERTEX
  8
0
  6
CONTINUOUS
 10
4.818440
 20
2.802360
  0
SEQEND
  8
0
  0
SOLID
  8
0
 62
    15
 10
4.791160
 20
2.778600
 11
5.424760
 21
3.143800
 12
4.767840
 22
2.755280
 13
5.401440
 23
3.120920
  0
POLYLINE
  8
0
  6
CONTINUOUS
 66
     1
 40
0.000000
 41
0.000000
  0
VERTEX
  8
0
  6
CONTINUOUS
 10
4.791160
 20
2.778600
  0
VERTEX
  8
0
  6
CONTINUOUS
 10
5.424760
 20
3.143800
  0
VERTEX
  8
0
  6
CONTINUOUS
 10
5.401440
 20
3.120920
  0
VERTEX
  8
0
  6
CONTINUOUS
 10
4.767840
 20
2.755280
  0
VERTEX
  8
0
  6
CONTINUOUS
 10
4.791160
 20
2.778600
  0
SEQEND
  8
0
  0
SOLID
  8
0
 62
    15
 10
4.767840
 20
2.755280
 11
5.401440
 21
3.120920
 12
4.747600
 22
2.732400
 13
5.381200
 23
3.098040
  0
POLYLINE
  8
0
  6
CONTINUOUS
 66
     1
 40
0.000000
 41
0.000000
  0
VERTEX
  8
0
  6
CONTINUOUS
 10
4.767840
 20
2.755280
  0
VERTEX
  8
0
  6
CONTINUOUS
 10
5.401440
 20
3.120920
  0
VERTEX
  8
0
  6
CONTINUOUS
 10
5.381200
 20
3.098040
  0
VERTEX
  8
0
  6
CONTINUOUS
 10
4.747600
 20
2.732400
  0
VERTEX
  8
0
  6
CONTINUOUS
 10
4.767840
 20
2.755280
  0
SEQEND
  8
0
  0
SOLID
  8
0
 62
    15
 10
4.747600
 20
2.732400
 11
5.381200
 21
3.098040
 12
4.731320
 22
2.709960
 13
5.364920
 23
3.075160
  0
POLYLINE
  8
0
  6
CONTINUOUS
 66
     1
 40
0.000000
 41
0.000000
  0
VERTEX
  8
0
  6
CONTINUOUS
 10
4.747600
 20
2.732400
  0
VERTEX
  8
0
  6
CONTINUOUS
 10
5.381200
 20
3.098040
  0
VERTEX
  8
0
  6
CONTINUOUS
 10
5.364920
 20
3.075160
  0
VERTEX
  8
0
  6
CONTINUOUS
 10
4.731320
 20
2.709960
  0
VERTEX
  8
0
  6
CONTINUOUS
 10
4.747600
 20
2.732400
  0
SEQEND
  8
0
  0
SOLID
  8
0
 62
    15
 10
4.731320
 20
2.709960
 11
5.364920
 21
3.075160
 12
4.719000
 22
2.686640
 13
5.352600
 23
3.051840
  0
POLYLINE
  8
0
  6
CONTINUOUS
 66
     1
 40
0.000000
 41
0.000000
  0
VERTEX
  8
0
  6
CONTINUOUS
 10
4.731320
 20
2.709960
  0
VERTEX
  8
0
  6
CONTINUOUS
 10
5.364920
 20
3.075160
  0
VERTEX
  8
0
  6
CONTINUOUS
 10
5.352600
 20
3.051840
  0
VERTEX
  8
0
  6
CONTINUOUS
 10
4.719000
 20
2.686640
  0
VERTEX
  8
0
  6
CONTINUOUS
 10
4.731320
 20
2.709960
  0
SEQEND
  8
0
  0
SOLID
  8
0
 62
    15
 10
4.719000
 20
2.686640
 11
5.352600
 21
3.051840
 12
4.710640
 22
2.663320
 13
5.344240
 23
3.028520
  0
POLYLINE
  8
0
  6
CONTINUOUS
 66
     1
 40
0.000000
 41
0.000000
  0
VERTEX
  8
0
  6
CONTINUOUS
 10
4.719000
 20
2.686640
  0
VERTEX
  8
0
  6
CONTINUOUS
 10
5.352600
 20
3.051840
  0
VERTEX
  8
0
  6
CONTINUOUS
 10
5.344240
 20
3.028520
  0
VERTEX
  8
0
  6
CONTINUOUS
 10
4.710640
 20
2.663320
  0
VERTEX
  8
0
  6
CONTINUOUS
 10
4.719000
 20
2.686640
  0
SEQEND
  8
0
  0
SOLID
  8
0
 62
    15
 10
4.710640
 20
2.663320
 11
5.344240
 21
3.028520
 12
4.707120
 22
2.638680
 13
5.340720
 23
3.003880
  0
POLYLINE
  8
0
  6
CONTINUOUS
 66
     1
 40
0.000000
 41
0.000000
  0
VERTEX
  8
0
  6
CONTINUOUS
 10
4.710640
 20
2.663320
  0
VERTEX
  8
0
  6
CONTINUOUS
 10
5.344240
 20
3.028520
  0
VERTEX
  8
0
  6
CONTINUOUS
 10
5.340720
 20
3.003880
  0
VERTEX
  8
0
  6
CONTINUOUS
 10
4.707120
 20
2.638680
  0
VERTEX
  8
0
  6
CONTINUOUS
 10
4.710640
 20
2.663320
  0
SEQEND
  8
0
  0
SOLID
  8
0
 62
    15
 10
4.707120
 20
2.638680
 11
5.340720
 21
3.003880
 12
4.708440
 22
2.613160
 13
5.342040
 23
2.978360
  0
POLYLINE
  8
0
  6
CONTINUOUS
 66
     1
 40
0.000000
 41
0.000000
  0
VERTEX
  8
0
  6
CONTINUOUS
 10
4.707120
 20
2.638680
  0
VERTEX
  8
0
  6
CONTINUOUS
 10
5.340720
 20
3.003880
  0
VERTEX
  8
0
  6
CONTINUOUS
 10
5.342040
 20
2.978360
  0
VERTEX
  8
0
  6
CONTINUOUS
 10
4.708440
 20
2.613160
  0
VERTEX
  8
0
  6
CONTINUOUS
 10
4.707120
 20
2.638680
  0
SEQEND
  8
0
  0
SOLID
  8
0
 62
    15
 10
4.708440
 20
2.613160
 11
5.342040
 21
2.978360
 12
4.714600
 22
2.586320
 13
5.348200
 23
2.951520
  0
POLYLINE
  8
0
  6
CONTINUOUS
 66
     1
 40
0.000000
 41
0.000000
  0
VERTEX
  8
0
  6
CONTINUOUS
 10
4.708440
 20
2.613160
  0
VERTEX
  8
0
  6
CONTINUOUS
 10
5.342040
 20
2.978360
  0
VERTEX
  8
0
  6
CONTINUOUS
 10
5.348200
 20
2.951520
  0
VERTEX
  8
0
  6
CONTINUOUS
 10
4.714600
 20
2.586320
  0
VERTEX
  8
0
  6
CONTINUOUS
 10
4.708440
 20
2.613160
  0
SEQEND
  8
0
  0
SOLID
  8
0
 62
    15
 10
4.714600
 20
2.586320
 11
5.348200
 21
2.951520
 12
4.726040
 22
2.557720
 13
5.359640
 23
2.923360
  0
POLYLINE
  8
0
  6
CONTINUOUS
 66
     1
 40
0.000000
 41
0.000000
  0
VERTEX
  8
0
  6
CONTINUOUS
 10
4.714600
 20
2.586320
  0
VERTEX
  8
0
  6
CONTINUOUS
 10
5.348200
 20
2.951520
  0
VERTEX
  8
0
  6
CONTINUOUS
 10
5.359640
 20
2.923360
  0
VERTEX
  8
0
  6
CONTINUOUS
 10
4.726040
 20
2.557720
  0
VERTEX
  8
0
  6
CONTINUOUS
 10
4.714600
 20
2.586320
  0
SEQEND
  8
0
  0
SOLID
  8
0
 62
    15
 10
4.726040
 20
2.557720
 11
5.359640
 21
2.923360
 12
4.743200
 22
2.527360
 13
5.376800
 23
2.893000
  0
POLYLINE
  8
0
  6
CONTINUOUS
 66
     1
 40
0.000000
 41
0.000000
  0
VERTEX
  8
0
  6
CONTINUOUS
 10
4.726040
 20
2.557720
  0
VERTEX
  8
0
  6
CONTINUOUS
 10
5.359640
 20
2.923360
  0
VERTEX
  8
0
  6
CONTINUOUS
 10
5.376800
 20
2.893000
  0
VERTEX
  8
0
  6
CONTINUOUS
 10
4.743200
 20
2.527360
  0
VERTEX
  8
0
  6
CONTINUOUS
 10
4.726040
 20
2.557720
  0
SEQEND
  8
0
  0
SOLID
  8
0
 62
    15
 10
4.743200
 20
2.527360
 11
5.376800
 21
2.893000
 12
4.766080
 22
2.495240
 13
5.399680
 23
2.860440
  0
POLYLINE
  8
0
  6
CONTINUOUS
 66
     1
 40
0.000000
 41
0.000000
  0
VERTEX
  8
0
  6
CONTINUOUS
 10
4.743200
 20
2.527360
  0
VERTEX
  8
0
  6
CONTINUOUS
 10
5.376800
 20
2.893000
  0
VERTEX
  8
0
  6
CONTINUOUS
 10
5.399680
 20
2.860440
  0
VERTEX
  8
0
  6
CONTINUOUS
 10
4.766080
 20
2.495240
  0
VERTEX
  8
0
  6
CONTINUOUS
 10
4.743200
 20
2.527360
  0
SEQEND
  8
0
  0
SOLID
  8
0
 62
    15
 10
4.766080
 20
2.495240
 11
5.399680
 21
2.860440
 12
4.794680
 22
2.460040
 13
5.428280
 23
2.825240
  0
POLYLINE
  8
0
  6
CONTINUOUS
 66
     1
 40
0.000000
 41
0.000000
  0
VERTEX
  8
0
  6
CONTINUOUS
 10
4.766080
 20
2.495240
  0
VERTEX
  8
0
  6
CONTINUOUS
 10
5.399680
 20
2.860440
  0
VERTEX
  8
0
  6
CONTINUOUS
 10
5.428280
 20
2.825240
  0
VERTEX
  8
0
  6
CONTINUOUS
 10
4.794680
 20
2.460040
  0
VERTEX
  8
0
  6
CONTINUOUS
 10
4.766080
 20
2.495240
  0
SEQEND
  8
0
  0
SOLID
  8
0
 62
    15
 10
4.794680
 20
2.460040
 11
5.428280
 21
2.825240
 12
4.829880
 22
2.422640
 13
5.463480
 23
2.787840
  0
POLYLINE
  8
0
  6
CONTINUOUS
 66
     1
 40
0.000000
 41
0.000000
  0
VERTEX
  8
0
  6
CONTINUOUS
 10
4.794680
 20
2.460040
  0
VERTEX
  8
0
  6
CONTINUOUS
 10
5.428280
 20
2.825240
  0
VERTEX
  8
0
  6
CONTINUOUS
 10
5.463480
 20
2.787840
  0
VERTEX
  8
0
  6
CONTINUOUS
 10
4.829880
 20
2.422640
  0
VERTEX
  8
0
  6
CONTINUOUS
 10
4.794680
 20
2.460040
  0
SEQEND
  8
0
  0
SOLID
  8
0
 62
    15
 10
4.829880
 20
2.422640
 11
5.463480
 21
2.787840
 12
4.871240
 22
2.382160
 13
5.504840
 23
2.747360
  0
POLYLINE
  8
0
  6
CONTINUOUS
 66
     1
 40
0.000000
 41
0.000000
  0
VERTEX
  8
0
  6
CONTINUOUS
 10
4.829880
 20
2.422640
  0
VERTEX
  8
0
  6
CONTINUOUS
 10
5.463480
 20
2.787840
  0
VERTEX
  8
0
  6
CONTINUOUS
 10
5.504840
 20
2.747360
  0
VERTEX
  8
0
  6
CONTINUOUS
 10
4.871240
 20
2.382160
  0
VERTEX
  8
0
  6
CONTINUOUS
 10
4.829880
 20
2.422640
  0
SEQEND
  8
0
  0
SOLID
  8
0
 62
    15
 10
4.871240
 20
2.382160
 11
5.504840
 21
2.747360
 12
4.919640
 22
2.338160
 13
5.553240
 23
2.703360
  0
POLYLINE
  8
0
  6
CONTINUOUS
 66
     1
 40
0.000000
 41
0.000000
  0
VERTEX
  8
0
  6
CONTINUOUS
 10
4.871240
 20
2.382160
  0
VERTEX
  8
0
  6
CONTINUOUS
 10
5.504840
 20
2.747360
  0
VERTEX
  8
0
  6
CONTINUOUS
 10
5.553240
 20
2.703360
  0
VERTEX
  8
0
  6
CONTINUOUS
 10
4.919640
 20
2.338160
  0
VERTEX
  8
0
  6
CONTINUOUS
 10
4.871240
 20
2.382160
  0
SEQEND
  8
0
  0
SOLID
  8
0
 62
    15
 10
4.919640
 20
2.338160
 11
5.553240
 21
2.703360
 12
4.972000
 22
2.296360
 13
5.605600
 23
2.661560
  0
POLYLINE
  8
0
  6
CONTINUOUS
 66
     1
 40
0.000000
 41
0.000000
  0
VERTEX
  8
0
  6
CONTINUOUS
 10
4.919640
 20
2.338160
  0
VERTEX
  8
0
  6
CONTINUOUS
 10
5.553240
 20
2.703360
  0
VERTEX
  8
0
  6
CONTINUOUS
 10
5.605600
 20
2.661560
  0
VERTEX
  8
0
  6
CONTINUOUS
 10
4.972000
 20
2.296360
  0
VERTEX
  8
0
  6
CONTINUOUS
 10
4.919640
 20
2.338160
  0
SEQEND
  8
0
  0
SOLID
  8
0
 62
    15
 10
4.972000
 20
2.296360
 11
5.605600
 21
2.661560
 12
5.016880
 22
2.257200
 13
5.650480
 23
2.622400
  0
POLYLINE
  8
0
  6
CONTINUOUS
 66
     1
 40
0.000000
 41
0.000000
  0
VERTEX
  8
0
  6
CONTINUOUS
 10
4.972000
 20
2.296360
  0
VERTEX
  8
0
  6
CONTINUOUS
 10
5.605600
 20
2.661560
  0
VERTEX
  8
0
  6
CONTINUOUS
 10
5.650480
 20
2.622400
  0
VERTEX
  8
0
  6
CONTINUOUS
 10
5.016880
 20
2.257200
  0
VERTEX
  8
0
  6
CONTINUOUS
 10
4.972000
 20
2.296360
  0
SEQEND
  8
0
  0
SOLID
  8
0
 62
    15
 10
5.016880
 20
2.257200
 11
5.650480
 21
2.622400
 12
5.053840
 22
2.220240
 13
5.687000
 23
2.585880
  0
POLYLINE
  8
0
  6
CONTINUOUS
 66
     1
 40
0.000000
 41
0.000000
  0
VERTEX
  8
0
  6
CONTINUOUS
 10
5.016880
 20
2.257200
  0
VERTEX
  8
0
  6
CONTINUOUS
 10
5.650480
 20
2.622400
  0
VERTEX
  8
0
  6
CONTINUOUS
 10
5.687000
 20
2.585880
  0
VERTEX
  8
0
  6
CONTINUOUS
 10
5.053840
 20
2.220240
  0
VERTEX
  8
0
  6
CONTINUOUS
 10
5.016880
 20
2.257200
  0
SEQEND
  8
0
  0
SOLID
  8
0
 62
    15
 10
5.148880
 20
1.536920
 11
5.782480
 21
1.902120
 12
5.148880
 22
0.882200
 13
5.782480
 23
1.247400
  0
POLYLINE
  8
0
  6
CONTINUOUS
 66
     1
 40
0.000000
 41
0.000000
  0
VERTEX
  8
0
  6
CONTINUOUS
 10
5.148880
 20
1.536920
  0
VERTEX
  8
0
  6
CONTINUOUS
 10
5.782480
 20
1.902120
  0
VERTEX
  8
0
  6
CONTINUOUS
 10
5.782480
 20
1.247400
  0
VERTEX
  8
0
  6
CONTINUOUS
 10
5.148880
 20
0.882200
  0
VERTEX
  8
0
  6
CONTINUOUS
 10
5.148880
 20
1.536920
  0
SEQEND
  8
0
  0
SOLID
  8
0
 62
    15
 10
5.083320
 20
2.185920
 11
5.716920
 21
2.551120
 12
5.106200
 22
2.153360
 13
5.739800
 23
2.518560
  0
POLYLINE
  8
0
  6
CONTINUOUS
 66
     1
 40
0.000000
 41
0.000000
  0
VERTEX
  8
0
  6
CONTINUOUS
 10
5.083320
 20
2.185920
  0
VERTEX
  8
0
  6
CONTINUOUS
 10
5.716920
 20
2.551120
  0
VERTEX
  8
0
  6
CONTINUOUS
 10
5.739800
 20
2.518560
  0
VERTEX
  8
0
  6
CONTINUOUS
 10
5.106200
 20
2.153360
  0
VERTEX
  8
0
  6
CONTINUOUS
 10
5.083320
 20
2.185920
  0
SEQEND
  8
0
  0
SOLID
  8
0
 62
    15
 10
5.106200
 20
2.153360
 11
5.739800
 21
2.518560
 12
5.122480
 22
2.123000
 13
5.756080
 23
2.488200
  0
POLYLINE
  8
0
  6
CONTINUOUS
 66
     1
 40
0.000000
 41
0.000000
  0
VERTEX
  8
0
  6
CONTINUOUS
 10
5.106200
 20
2.153360
  0
VERTEX
  8
0
  6
CONTINUOUS
 10
5.739800
 20
2.518560
  0
VERTEX
  8
0
  6
CONTINUOUS
 10
5.756080
 20
2.488200
  0
VERTEX
  8
0
  6
CONTINUOUS
 10
5.122480
 20
2.123000
  0
VERTEX
  8
0
  6
CONTINUOUS
 10
5.106200
 20
2.153360
  0
SEQEND
  8
0
  0
SOLID
  8
0
 62
    15
 10
5.122480
 20
2.123000
 11
5.756080
 21
2.488200
 12
5.133040
 22
2.094840
 13
5.766640
 23
2.460040
  0
POLYLINE
  8
0
  6
CONTINUOUS
 66
     1
 40
0.000000
 41
0.000000
  0
VERTEX
  8
0
  6
CONTINUOUS
 10
5.122480
 20
2.123000
  0
VERTEX
  8
0
  6
CONTINUOUS
 10
5.756080
 20
2.488200
  0
VERTEX
  8
0
  6
CONTINUOUS
 10
5.766640
 20
2.460040
  0
VERTEX
  8
0
  6
CONTINUOUS
 10
5.133040
 20
2.094840
  0
VERTEX
  8
0
  6
CONTINUOUS
 10
5.122480
 20
2.123000
  0
SEQEND
  8
0
  0
SOLID
  8
0
 62
    15
 10
5.133040
 20
2.094840
 11
5.766640
 21
2.460040
 12
5.138320
 22
2.068000
 13
5.771920
 23
2.433640
  0
POLYLINE
  8
0
  6
CONTINUOUS
 66
     1
 40
0.000000
 41
0.000000
  0
VERTEX
  8
0
  6
CONTINUOUS
 10
5.133040
 20
2.094840
  0
VERTEX
  8
0
  6
CONTINUOUS
 10
5.766640
 20
2.460040
  0
VERTEX
  8
0
  6
CONTINUOUS
 10
5.771920
 20
2.433640
  0
VERTEX
  8
0
  6
CONTINUOUS
 10
5.138320
 20
2.068000
  0
VERTEX
  8
0
  6
CONTINUOUS
 10
5.133040
 20
2.094840
  0
SEQEND
  8
0
  0
SOLID
  8
0
 62
    15
 10
5.138320
 20
2.068000
 11
5.771920
 21
2.433640
 12
5.138320
 22
2.043360
 13
5.771920
 23
2.408560
  0
POLYLINE
  8
0
  6
CONTINUOUS
 66
     1
 40
0.000000
 41
0.000000
  0
VERTEX
  8
0
  6
CONTINUOUS
 10
5.138320
 20
2.068000
  0
VERTEX
  8
0
  6
CONTINUOUS
 10
5.771920
 20
2.433640
  0
VERTEX
  8
0
  6
CONTINUOUS
 10
5.771920
 20
2.408560
  0
VERTEX
  8
0
  6
CONTINUOUS
 10
5.138320
 20
2.043360
  0
VERTEX
  8
0
  6
CONTINUOUS
 10
5.138320
 20
2.068000
  0
SEQEND
  8
0
  0
SOLID
  8
0
 62
    15
 10
5.138320
 20
2.043360
 11
5.771920
 21
2.408560
 12
5.133480
 22
2.020480
 13
5.767080
 23
2.385680
  0
POLYLINE
  8
0
  6
CONTINUOUS
 66
     1
 40
0.000000
 41
0.000000
  0
VERTEX
  8
0
  6
CONTINUOUS
 10
5.138320
 20
2.043360
  0
VERTEX
  8
0
  6
CONTINUOUS
 10
5.771920
 20
2.408560
  0
VERTEX
  8
0
  6
CONTINUOUS
 10
5.767080
 20
2.385680
  0
VERTEX
  8
0
  6
CONTINUOUS
 10
5.133480
 20
2.020480
  0
VERTEX
  8
0
  6
CONTINUOUS
 10
5.138320
 20
2.043360
  0
SEQEND
  8
0
  0
SOLID
  8
0
 62
    15
 10
5.133480
 20
2.020480
 11
5.767080
 21
2.385680
 12
5.124240
 22
1.998920
 13
5.757840
 23
2.364120
  0
POLYLINE
  8
0
  6
CONTINUOUS
 66
     1
 40
0.000000
 41
0.000000
  0
VERTEX
  8
0
  6
CONTINUOUS
 10
5.133480
 20
2.020480
  0
VERTEX
  8
0
  6
CONTINUOUS
 10
5.767080
 20
2.385680
  0
VERTEX
  8
0
  6
CONTINUOUS
 10
5.757840
 20
2.364120
  0
VERTEX
  8
0
  6
CONTINUOUS
 10
5.124240
 20
1.998920
  0
VERTEX
  8
0
  6
CONTINUOUS
 10
5.133480
 20
2.020480
  0
SEQEND
  8
0
  0
SOLID
  8
0
 62
    15
 10
5.124240
 20
1.998920
 11
5.757840
 21
2.364120
 12
5.111040
 22
1.978680
 13
5.744640
 23
2.343880
  0
POLYLINE
  8
0
  6
CONTINUOUS
 66
     1
 40
0.000000
 41
0.000000
  0
VERTEX
  8
0
  6
CONTINUOUS
 10
5.124240
 20
1.998920
  0
VERTEX
  8
0
  6
CONTINUOUS
 10
5.757840
 20
2.364120
  0
VERTEX
  8
0
  6
CONTINUOUS
 10
5.744640
 20
2.343880
  0
VERTEX
  8
0
  6
CONTINUOUS
 10
5.111040
 20
1.978680
  0
VERTEX
  8
0
  6
CONTINUOUS
 10
5.124240
 20
1.998920
  0
SEQEND
  8
0
  0
SOLID
  8
0
 62
    15
 10
5.111040
 20
1.978680
 11
5.744640
 21
2.343880
 12
5.094760
 22
1.959760
 13
5.728360
 23
2.324960
  0
POLYLINE
  8
0
  6
CONTINUOUS
 66
     1
 40
0.000000
 41
0.000000
  0
VERTEX
  8
0
  6
CONTINUOUS
 10
5.111040
 20
1.978680
  0
VERTEX
  8
0
  6
CONTINUOUS
 10
5.744640
 20
2.343880
  0
VERTEX
  8
0
  6
CONTINUOUS
 10
5.728360
 20
2.324960
  0
VERTEX
  8
0
  6
CONTINUOUS
 10
5.094760
 20
1.959760
  0
VERTEX
  8
0
  6
CONTINUOUS
 10
5.111040
 20
1.978680
  0
SEQEND
  8
0
  0
SOLID
  8
0
 62
    15
 10
5.094760
 20
1.959760
 11
5.728360
 21
2.324960
 12
5.075400
 22
1.942160
 13
5.709000
 23
2.307360
  0
POLYLINE
  8
0
  6
CONTINUOUS
 66
     1
 40
0.000000
 41
0.000000
  0
VERTEX
  8
0
  6
CONTINUOUS
 10
5.094760
 20
1.959760
  0
VERTEX
  8
0
  6
CONTINUOUS
 10
5.728360
 20
2.324960
  0
VERTEX
  8
0
  6
CONTINUOUS
 10
5.709000
 20
2.307360
  0
VERTEX
  8
0
  6
CONTINUOUS
 10
5.075400
 20
1.942160
  0
VERTEX
  8
0
  6
CONTINUOUS
 10
5.094760
 20
1.959760
  0
SEQEND
  8
0
  0
SOLID
  8
0
 62
    15
 10
5.075400
 20
1.942160
 11
5.709000
 21
2.307360
 12
5.028760
 22
1.910040
 13
5.662360
 23
2.275680
  0
POLYLINE
  8
0
  6
CONTINUOUS
 66
     1
 40
0.000000
 41
0.000000
  0
VERTEX
  8
0
  6
CONTINUOUS
 10
5.075400
 20
1.942160
  0
VERTEX
  8
0
  6
CONTINUOUS
 10
5.709000
 20
2.307360
  0
VERTEX
  8
0
  6
CONTINUOUS
 10
5.662360
 20
2.275680
  0
VERTEX
  8
0
  6
CONTINUOUS
 10
5.028760
 20
1.910040
  0
VERTEX
  8
0
  6
CONTINUOUS
 10
5.075400
 20
1.942160
  0
SEQEND
  8
0
  0
SOLID
  8
0
 62
    15
 10
5.028760
 20
1.910040
 11
5.662360
 21
2.275680
 12
4.990920
 22
1.884520
 13
5.624520
 23
2.249720
  0
POLYLINE
  8
0
  6
CONTINUOUS
 66
     1
 40
0.000000
 41
0.000000
  0
VERTEX
  8
0
  6
CONTINUOUS
 10
5.028760
 20
1.910040
  0
VERTEX
  8
0
  6
CONTINUOUS
 10
5.662360
 20
2.275680
  0
VERTEX
  8
0
  6
CONTINUOUS
 10
5.624520
 20
2.249720
  0
VERTEX
  8
0
  6
CONTINUOUS
 10
4.990920
 20
1.884520
  0
VERTEX
  8
0
  6
CONTINUOUS
 10
5.028760
 20
1.910040
  0
SEQEND
  8
0
  0
SOLID
  8
0
 62
    15
 10
4.990920
 20
1.884520
 11
5.624520
 21
2.249720
 12
4.962760
 22
1.859440
 13
5.596360
 23
2.224640
  0
POLYLINE
  8
0
  6
CONTINUOUS
 66
     1
 40
0.000000
 41
0.000000
  0
VERTEX
  8
0
  6
CONTINUOUS
 10
4.990920
 20
1.884520
  0
VERTEX
  8
0
  6
CONTINUOUS
 10
5.624520
 20
2.249720
  0
VERTEX
  8
0
  6
CONTINUOUS
 10
5.596360
 20
2.224640
  0
VERTEX
  8
0
  6
CONTINUOUS
 10
4.962760
 20
1.859440
  0
VERTEX
  8
0
  6
CONTINUOUS
 10
4.990920
 20
1.884520
  0
SEQEND
  8
0
  0
SOLID
  8
0
 62
    15
 10
4.962760
 20
1.859440
 11
5.596360
 21
2.224640
 12
4.944280
 22
1.835680
 13
5.577880
 23
2.200880
  0
POLYLINE
  8
0
  6
CONTINUOUS
 66
     1
 40
0.000000
 41
0.000000
  0
VERTEX
  8
0
  6
CONTINUOUS
 10
4.962760
 20
1.859440
  0
VERTEX
  8
0
  6
CONTINUOUS
 10
5.596360
 20
2.224640
  0
VERTEX
  8
0
  6
CONTINUOUS
 10
5.577880
 20
2.200880
  0
VERTEX
  8
0
  6
CONTINUOUS
 10
4.944280
 20
1.835680
  0
VERTEX
  8
0
  6
CONTINUOUS
 10
4.962760
 20
1.859440
  0
SEQEND
  8
0
  0
SOLID
  8
0
 62
    15
 10
4.944280
 20
1.835680
 11
5.577880
 21
2.200880
 12
4.934160
 22
1.812800
 13
5.567760
 23
2.178000
  0
POLYLINE
  8
0
  6
CONTINUOUS
 66
     1
 40
0.000000
 41
0.000000
  0
VERTEX
  8
0
  6
CONTINUOUS
 10
4.944280
 20
1.835680
  0
VERTEX
  8
0
  6
CONTINUOUS
 10
5.577880
 20
2.200880
  0
VERTEX
  8
0
  6
CONTINUOUS
 10
5.567760
 20
2.178000
  0
VERTEX
  8
0
  6
CONTINUOUS
 10
4.934160
 20
1.812800
  0
VERTEX
  8
0
  6
CONTINUOUS
 10
4.944280
 20
1.835680
  0
SEQEND
  8
0
  0
SOLID
  8
0
 62
    15
 10
4.934160
 20
1.812800
 11
5.567760
 21
2.178000
 12
4.930640
 22
1.791240
 13
5.564240
 23
2.156440
  0
POLYLINE
  8
0
  6
CONTINUOUS
 66
     1
 40
0.000000
 41
0.000000
  0
VERTEX
  8
0
  6
CONTINUOUS
 10
4.934160
 20
1.812800
  0
VERTEX
  8
0
  6
CONTINUOUS
 10
5.567760
 20
2.178000
  0
VERTEX
  8
0
  6
CONTINUOUS
 10
5.564240
 20
2.156440
  0
VERTEX
  8
0
  6
CONTINUOUS
 10
4.930640
 20
1.791240
  0
VERTEX
  8
0
  6
CONTINUOUS
 10
4.934160
 20
1.812800
  0
SEQEND
  8
0
  0
SOLID
  8
0
 62
    15
 10
4.930640
 20
1.791240
 11
5.564240
 21
2.156440
 12
4.933720
 22
1.771000
 13
5.567320
 23
2.136200
  0
POLYLINE
  8
0
  6
CONTINUOUS
 66
     1
 40
0.000000
 41
0.000000
  0
VERTEX
  8
0
  6
CONTINUOUS
 10
4.930640
 20
1.791240
  0
VERTEX
  8
0
  6
CONTINUOUS
 10
5.564240
 20
2.156440
  0
VERTEX
  8
0
  6
CONTINUOUS
 10
5.567320
 20
2.136200
  0
VERTEX
  8
0
  6
CONTINUOUS
 10
4.933720
 20
1.771000
  0
VERTEX
  8
0
  6
CONTINUOUS
 10
4.930640
 20
1.791240
  0
SEQEND
  8
0
  0
SOLID
  8
0
 62
    15
 10
4.933720
 20
1.771000
 11
5.567320
 21
2.136200
 12
4.941200
 22
1.752080
 13
5.574800
 23
2.117280
  0
POLYLINE
  8
0
  6
CONTINUOUS
 66
     1
 40
0.000000
 41
0.000000
  0
VERTEX
  8
0
  6
CONTINUOUS
 10
4.933720
 20
1.771000
  0
VERTEX
  8
0
  6
CONTINUOUS
 10
5.567320
 20
2.136200
  0
VERTEX
  8
0
  6
CONTINUOUS
 10
5.574800
 20
2.117280
  0
VERTEX
  8
0
  6
CONTINUOUS
 10
4.941200
 20
1.752080
  0
VERTEX
  8
0
  6
CONTINUOUS
 10
4.933720
 20
1.771000
  0
SEQEND
  8
0
  0
SOLID
  8
0
 62
    15
 10
4.941200
 20
1.752080
 11
5.574800
 21
2.117280
 12
4.952640
 22
1.734480
 13
5.586240
 23
2.099680
  0
POLYLINE
  8
0
  6
CONTINUOUS
 66
     1
 40
0.000000
 41
0.000000
  0
VERTEX
  8
0
  6
CONTINUOUS
 10
4.941200
 20
1.752080
  0
VERTEX
  8
0
  6
CONTINUOUS
 10
5.574800
 20
2.117280
  0
VERTEX
  8
0
  6
CONTINUOUS
 10
5.586240
 20
2.099680
  0
VERTEX
  8
0
  6
CONTINUOUS
 10
4.952640
 20
1.734480
  0
VERTEX
  8
0
  6
CONTINUOUS
 10
4.941200
 20
1.752080
  0
SEQEND
  8
0
  0
SOLID
  8
0
 62
     7
 10
4.952640
 20
1.734480
 11
5.586240
 21
2.099680
 12
4.983000
 22
1.704560
 13
5.616600
 23
2.069760
  0
POLYLINE
  8
0
  6
CONTINUOUS
 66
     1
 40
0.000000
 41
0.000000
  0
VERTEX
  8
0
  6
CONTINUOUS
 10
4.952640
 20
1.734480
  0
VERTEX
  8
0
  6
CONTINUOUS
 10
5.586240
 20
2.099680
  0
VERTEX
  8
0
  6
CONTINUOUS
 10
5.616600
 20
2.069760
  0
VERTEX
  8
0
  6
CONTINUOUS
 10
4.983000
 20
1.704560
  0
VERTEX
  8
0
  6
CONTINUOUS
 10
4.952640
 20
1.734480
  0
SEQEND
  8
0
  0
SOLID
  8
0
 62
     7
 10
4.983000
 20
1.704560
 11
5.616600
 21
2.069760
 12
5.015120
 22
1.681680
 13
5.648720
 23
2.047320
  0
POLYLINE
  8
0
  6
CONTINUOUS
 66
     1
 40
0.000000
 41
0.000000
  0
VERTEX
  8
0
  6
CONTINUOUS
 10
4.983000
 20
1.704560
  0
VERTEX
  8
0
  6
CONTINUOUS
 10
5.616600
 20
2.069760
  0
VERTEX
  8
0
  6
CONTINUOUS
 10
5.648720
 20
2.047320
  0
VERTEX
  8
0
  6
CONTINUOUS
 10
5.015120
 20
1.681680
  0
VERTEX
  8
0
  6
CONTINUOUS
 10
4.983000
 20
1.704560
  0
SEQEND
  8
0
  0
SOLID
  8
0
 62
     7
 10
5.015120
 20
1.681680
 11
5.648720
 21
2.047320
 12
5.029640
 22
1.673320
 13
5.663240
 23
2.038520
  0
POLYLINE
  8
0
  6
CONTINUOUS
 66
     1
 40
0.000000
 41
0.000000
  0
VERTEX
  8
0
  6
CONTINUOUS
 10
5.015120
 20
1.681680
  0
VERTEX
  8
0
  6
CONTINUOUS
 10
5.648720
 20
2.047320
  0
VERTEX
  8
0
  6
CONTINUOUS
 10
5.663240
 20
2.038520
  0
VERTEX
  8
0
  6
CONTINUOUS
 10
5.029640
 20
1.673320
  0
VERTEX
  8
0
  6
CONTINUOUS
 10
5.015120
 20
1.681680
  0
SEQEND
  8
0
  0
SOLID
  8
0
 62
    15
 10
5.029640
 20
1.673320
 11
5.663240
 21
2.038520
 12
5.041080
 22
1.667160
 13
5.674680
 23
2.032360
  0
POLYLINE
  8
0
  6
CONTINUOUS
 66
     1
 40
0.000000
 41
0.000000
  0
VERTEX
  8
0
  6
CONTINUOUS
 10
5.029640
 20
1.673320
  0
VERTEX
  8
0
  6
CONTINUOUS
 10
5.663240
 20
2.038520
  0
VERTEX
  8
0
  6
CONTINUOUS
 10
5.674680
 20
2.032360
  0
VERTEX
  8
0
  6
CONTINUOUS
 10
5.041080
 20
1.667160
  0
VERTEX
  8
0
  6
CONTINUOUS
 10
5.029640
 20
1.673320
  0
SEQEND
  8
0
  0
SOLID
  8
0
 62
    15
 10
5.041080
 20
1.667160
 11
5.674680
 21
2.032360
 12
5.048560
 22
1.662760
 13
5.682160
 23
2.027960
  0
POLYLINE
  8
0
  6
CONTINUOUS
 66
     1
 40
0.000000
 41
0.000000
  0
VERTEX
  8
0
  6
CONTINUOUS
 10
5.041080
 20
1.667160
  0
VERTEX
  8
0
  6
CONTINUOUS
 10
5.674680
 20
2.032360
  0
VERTEX
  8
0
  6
CONTINUOUS
 10
5.682160
 20
2.027960
  0
VERTEX
  8
0
  6
CONTINUOUS
 10
5.048560
 20
1.662760
  0
VERTEX
  8
0
  6
CONTINUOUS
 10
5.041080
 20
1.667160
  0
SEQEND
  8
0
  0
SOLID
  8
0
 62
     7
 10
5.048560
 20
1.662760
 11
5.682160
 21
2.027960
 12
5.051640
 22
1.661000
 13
5.685240
 23
2.026200
  0
POLYLINE
  8
0
  6
CONTINUOUS
 66
     1
 40
0.000000
 41
0.000000
  0
VERTEX
  8
0
  6
CONTINUOUS
 10
5.048560
 20
1.662760
  0
VERTEX
  8
0
  6
CONTINUOUS
 10
5.682160
 20
2.027960
  0
VERTEX
  8
0
  6
CONTINUOUS
 10
5.685240
 20
2.026200
  0
VERTEX
  8
0
  6
CONTINUOUS
 10
5.051640
 20
1.661000
  0
VERTEX
  8
0
  6
CONTINUOUS
 10
5.048560
 20
1.662760
  0
SEQEND
  8
0
  0
SOLID
  8
0
 62
    15
 10
5.051640
 20
1.661000
 11
5.685240
 21
2.026200
 12
5.055600
 22
1.660120
 13
5.689200
 23
2.025320
  0
POLYLINE
  8
0
  6
CONTINUOUS
 66
     1
 40
0.000000
 41
0.000000
  0
VERTEX
  8
0
  6
CONTINUOUS
 10
5.051640
 20
1.661000
  0
VERTEX
  8
0
  6
CONTINUOUS
 10
5.685240
 20
2.026200
  0
VERTEX
  8
0
  6
CONTINUOUS
 10
5.689200
 20
2.025320
  0
VERTEX
  8
0
  6
CONTINUOUS
 10
5.055600
 20
1.660120
  0
VERTEX
  8
0
  6
CONTINUOUS
 10
5.051640
 20
1.661000
  0
SEQEND
  8
0
  0
SOLID
  8
0
 62
    15
 10
5.055600
 20
1.660120
 11
5.689200
 21
2.025320
 12
5.066600
 22
1.657480
 13
5.700200
 23
2.022680
  0
POLYLINE
  8
0
  6
CONTINUOUS
 66
     1
 40
0.000000
 41
0.000000
  0
VERTEX
  8
0
  6
CONTINUOUS
 10
5.055600
 20
1.660120
  0
VERTEX
  8
0
  6
CONTINUOUS
 10
5.689200
 20
2.025320
  0
VERTEX
  8
0
  6
CONTINUOUS
 10
5.700200
 20
2.022680
  0
VERTEX
  8
0
  6
CONTINUOUS
 10
5.066600
 20
1.657480
  0
VERTEX
  8
0
  6
CONTINUOUS
 10
5.055600
 20
1.660120
  0
SEQEND
  8
0
  0
SOLID
  8
0
 62
    15
 10
5.066600
 20
1.657480
 11
5.700200
 21
2.022680
 12
5.082440
 22
1.651760
 13
5.716040
 23
2.016960
  0
POLYLINE
  8
0
  6
CONTINUOUS
 66
     1
 40
0.000000
 41
0.000000
  0
VERTEX
  8
0
  6
CONTINUOUS
 10
5.066600
 20
1.657480
  0
VERTEX
  8
0
  6
CONTINUOUS
 10
5.700200
 20
2.022680
  0
VERTEX
  8
0
  6
CONTINUOUS
 10
5.716040
 20
2.016960
  0
VERTEX
  8
0
  6
CONTINUOUS
 10
5.082440
 20
1.651760
  0
VERTEX
  8
0
  6
CONTINUOUS
 10
5.066600
 20
1.657480
  0
SEQEND
  8
0
  0
SOLID
  8
0
 62
    15
 10
5.082440
 20
1.651760
 11
5.716040
 21
2.016960
 12
5.100480
 22
1.642080
 13
5.733640
 23
2.007280
  0
POLYLINE
  8
0
  6
CONTINUOUS
 66
     1
 40
0.000000
 41
0.000000
  0
VERTEX
  8
0
  6
CONTINUOUS
 10
5.082440
 20
1.651760
  0
VERTEX
  8
0
  6
CONTINUOUS
 10
5.716040
 20
2.016960
  0
VERTEX
  8
0
  6
CONTINUOUS
 10
5.733640
 20
2.007280
  0
VERTEX
  8
0
  6
CONTINUOUS
 10
5.100480
 20
1.642080
  0
VERTEX
  8
0
  6
CONTINUOUS
 10
5.082440
 20
1.651760
  0
SEQEND
  8
0
  0
SOLID
  8
0
 62
     7
 10
5.100480
 20
1.642080
 11
5.733640
 21
2.007280
 12
5.118080
 22
1.627120
 13
5.751680
 23
1.992320
  0
POLYLINE
  8
0
  6
CONTINUOUS
 66
     1
 40
0.000000
 41
0.000000
  0
VERTEX
  8
0
  6
CONTINUOUS
 10
5.100480
 20
1.642080
  0
VERTEX
  8
0
  6
CONTINUOUS
 10
5.733640
 20
2.007280
  0
VERTEX
  8
0
  6
CONTINUOUS
 10
5.751680
 20
1.992320
  0
VERTEX
  8
0
  6
CONTINUOUS
 10
5.118080
 20
1.627120
  0
VERTEX
  8
0
  6
CONTINUOUS
 10
5.100480
 20
1.642080
  0
SEQEND
  8
0
  0
SOLID
  8
0
 62
    15
 10
5.118080
 20
1.627120
 11
5.751680
 21
1.992320
 12
5.133920
 22
1.605560
 13
5.767520
 23
1.971200
  0
POLYLINE
  8
0
  6
CONTINUOUS
 66
     1
 40
0.000000
 41
0.000000
  0
VERTEX
  8
0
  6
CONTINUOUS
 10
5.118080
 20
1.627120
  0
VERTEX
  8
0
  6
CONTINUOUS
 10
5.751680
 20
1.992320
  0
VERTEX
  8
0
  6
CONTINUOUS
 10
5.767520
 20
1.971200
  0
VERTEX
  8
0
  6
CONTINUOUS
 10
5.133920
 20
1.605560
  0
VERTEX
  8
0
  6
CONTINUOUS
 10
5.118080
 20
1.627120
  0
SEQEND
  8
0
  0
SOLID
  8
0
 62
    15
 10
5.133920
 20
1.605560
 11
5.767520
 21
1.971200
 12
5.144920
 22
1.577400
 13
5.778520
 23
1.942600
  0
POLYLINE
  8
0
  6
CONTINUOUS
 66
     1
 40
0.000000
 41
0.000000
  0
VERTEX
  8
0
  6
CONTINUOUS
 10
5.133920
 20
1.605560
  0
VERTEX
  8
0
  6
CONTINUOUS
 10
5.767520
 20
1.971200
  0
VERTEX
  8
0
  6
CONTINUOUS
 10
5.778520
 20
1.942600
  0
VERTEX
  8
0
  6
CONTINUOUS
 10
5.144920
 20
1.577400
  0
VERTEX
  8
0
  6
CONTINUOUS
 10
5.133920
 20
1.605560
  0
SEQEND
  8
0
  0
SOLID
  8
0
 62
    15
 10
5.144920
 20
1.577400
 11
5.778520
 21
1.942600
 12
5.148880
 22
1.540880
 13
5.782480
 23
1.906080
  0
POLYLINE
  8
0
  6
CONTINUOUS
 66
     1
 40
0.000000
 41
0.000000
  0
VERTEX
  8
0
  6
CONTINUOUS
 10
5.144920
 20
1.577400
  0
VERTEX
  8
0
  6
CONTINUOUS
 10
5.778520
 20
1.942600
  0
VERTEX
  8
0
  6
CONTINUOUS
 10
5.782480
 20
1.906080
  0
VERTEX
  8
0
  6
CONTINUOUS
 10
5.148880
 20
1.540880
  0
VERTEX
  8
0
  6
CONTINUOUS
 10
5.144920
 20
1.577400
  0
SEQEND
  8
0
  0
SOLID
  8
0
 62
    15
 10
5.148880
 20
1.540880
 11
5.782480
 21
1.906080
 12
5.148880
 22
1.536920
 13
5.782480
 23
1.902120
  0
POLYLINE
  8
0
  6
CONTINUOUS
 66
     1
 40
0.000000
 41
0.000000
  0
VERTEX
  8
0
  6
CONTINUOUS
 10
5.148880
 20
1.540880
  0
VERTEX
  8
0
  6
CONTINUOUS
 10
5.782480
 20
1.906080
  0
VERTEX
  8
0
  6
CONTINUOUS
 10
5.782480
 20
1.902120
  0
VERTEX
  8
0
  6
CONTINUOUS
 10
5.148880
 20
1.536920
  0
VERTEX
  8
0
  6
CONTINUOUS
 10
5.148880
 20
1.540880
  0
SEQEND
  8
0
  0
POLYLINE
  8
0
  6
CONTINUOUS
 66
     1
 40
0.000000
 41
0.000000
  0
VERTEX
  8
0
  6
CONTINUOUS
 10
5.148880
 20
1.536920
  0
VERTEX
  8
0
  6
CONTINUOUS
 10
5.148880
 20
0.882200
  0
VERTEX
  8
0
  6
CONTINUOUS
 10
4.456760
 20
0.882200
  0
VERTEX
  8
0
  6
CONTINUOUS
 10
4.456760
 20
3.323320
  0
VERTEX
  8
0
  6
CONTINUOUS
 10
4.484480
 20
3.320240
  0
VERTEX
  8
0
  6
CONTINUOUS
 10
4.508240
 20
3.311000
  0
VERTEX
  8
0
  6
CONTINUOUS
 10
4.528480
 20
3.296480
  0
VERTEX
  8
0
  6
CONTINUOUS
 10
4.546520
 20
3.277120
  0
VERTEX
  8
0
  6
CONTINUOUS
 10
4.577320
 20
3.229160
  0
VERTEX
  8
0
  6
CONTINUOUS
 10
4.606800
 20
3.172840
  0
VERTEX
  8
0
  6
CONTINUOUS
 10
4.639800
 20
3.114320
  0
VERTEX
  8
0
  6
CONTINUOUS
 10
4.659600
 20
3.086600
  0
VERTEX
  8
0
  6
CONTINUOUS
 10
4.682480
 20
3.060640
  0
VERTEX
  8
0
  6
CONTINUOUS
 10
4.708880
 20
3.037760
  0
VERTEX
  8
0
  6
CONTINUOUS
 10
4.740120
 20
3.018400
  0
VERTEX
  8
0
  6
CONTINUOUS
 10
4.776200
 20
3.003000
  0
VERTEX
  8
0
  6
CONTINUOUS
 10
4.818440
 20
2.992880
  0
VERTEX
  8
0
  6
CONTINUOUS
 10
4.818440
 20
2.802360
  0
VERTEX
  8
0
  6
CONTINUOUS
 10
4.791160
 20
2.778600
  0
VERTEX
  8
0
  6
CONTINUOUS
 10
4.767840
 20
2.755280
  0
VERTEX
  8
0
  6
CONTINUOUS
 10
4.747600
 20
2.732400
  0
VERTEX
  8
0
  6
CONTINUOUS
 10
4.731320
 20
2.709960
  0
VERTEX
  8
0
  6
CONTINUOUS
 10
4.719000
 20
2.686640
  0
VERTEX
  8
0
  6
CONTINUOUS
 10
4.710640
 20
2.663320
  0
VERTEX
  8
0
  6
CONTINUOUS
 10
4.707120
 20
2.638680
  0
VERTEX
  8
0
  6
CONTINUOUS
 10
4.708440
 20
2.613160
  0
VERTEX
  8
0
  6
CONTINUOUS
 10
4.714600
 20
2.586320
  0
VERTEX
  8
0
  6
CONTINUOUS
 10
4.726040
 20
2.557720
  0
VERTEX
  8
0
  6
CONTINUOUS
 10
4.743200
 20
2.527360
  0
VERTEX
  8
0
  6
CONTINUOUS
 10
4.766080
 20
2.495240
  0
VERTEX
  8
0
  6
CONTINUOUS
 10
4.794680
 20
2.460040
  0
VERTEX
  8
0
  6
CONTINUOUS
 10
4.829880
 20
2.422640
  0
VERTEX
  8
0
  6
CONTINUOUS
 10
4.871240
 20
2.382160
  0
VERTEX
  8
0
  6
CONTINUOUS
 10
4.919640
 20
2.338160
  0
VERTEX
  8
0
  6
CONTINUOUS
 10
4.972000
 20
2.296360
  0
VERTEX
  8
0
  6
CONTINUOUS
 10
5.016880
 20
2.257200
  0
VERTEX
  8
0
  6
CONTINUOUS
 10
5.053840
 20
2.220240
  0
VERTEX
  8
0
  6
CONTINUOUS
 10
5.083320
 20
2.185920
  0
VERTEX
  8
0
  6
CONTINUOUS
 10
5.106200
 20
2.153360
  0
VERTEX
  8
0
  6
CONTINUOUS
 10
5.122480
 20
2.123000
  0
VERTEX
  8
0
  6
CONTINUOUS
 10
5.133040
 20
2.094840
  0
VERTEX
  8
0
  6
CONTINUOUS
 10
5.138320
 20
2.068000
  0
VERTEX
  8
0
  6
CONTINUOUS
 10
5.138320
 20
2.043360
  0
VERTEX
  8
0
  6
CONTINUOUS
 10
5.133480
 20
2.020480
  0
VERTEX
  8
0
  6
CONTINUOUS
 10
5.124240
 20
1.998920
  0
VERTEX
  8
0
  6
CONTINUOUS
 10
5.111040
 20
1.978680
  0
VERTEX
  8
0
  6
CONTINUOUS
 10
5.094760
 20
1.959760
  0
VERTEX
  8
0
  6
CONTINUOUS
 10
5.075400
 20
1.942160
  0
VERTEX
  8
0
  6
CONTINUOUS
 10
4.990920
 20
1.884520
  0
VERTEX
  8
0
  6
CONTINUOUS
 10
4.962760
 20
1.859440
  0
VERTEX
  8
0
  6
CONTINUOUS
 10
4.944280
 20
1.835680
  0
VERTEX
  8
0
  6
CONTINUOUS
 10
4.934160
 20
1.812800
  0
VERTEX
  8
0
  6
CONTINUOUS
 10
4.930640
 20
1.791240
  0
VERTEX
  8
0
  6
CONTINUOUS
 10
4.933720
 20
1.771000
  0
VERTEX
  8
0
  6
CONTINUOUS
 10
4.941200
 20
1.752080
  0
VERTEX
  8
0
  6
CONTINUOUS
 10
4.952640
 20
1.734480
  0
VERTEX
  8
0
  6
CONTINUOUS
 10
4.983000
 20
1.704560
  0
VERTEX
  8
0
  6
CONTINUOUS
 10
5.015120
 20
1.681680
  0
VERTEX
  8
0
  6
CONTINUOUS
 10
5.051640
 20
1.661000
  0
VERTEX
  8
0
  6
CONTINUOUS
 10
5.066600
 20
1.657480
  0
VERTEX
  8
0
  6
CONTINUOUS
 10
5.082440
 20
1.651760
  0
VERTEX
  8
0
  6
CONTINUOUS
 10
5.100480
 20
1.642080
  0
VERTEX
  8
0
  6
CONTINUOUS
 10
5.118080
 20
1.627120
  0
VERTEX
  8
0
  6
CONTINUOUS
 10
5.133920
 20
1.605560
  0
VERTEX
  8
0
  6
CONTINUOUS
 10
5.144920
 20
1.577400
  0
VERTEX
  8
0
  6
CONTINUOUS
 10
5.148880
 20
1.536920
  0
SEQEND
  8
0
  0
TEXT
  8
0
 10
4.870800
 20
0.605880
 40
0.138196
  1
BA  32
 41
1.000000
  7
SN0
 71
     0
 72
     5
 11
5.368787
 21
0.605880
  0
TEXT
  8
0
 10
4.668840
 20
0.414040
 40
0.138196
  1
3/4" x 2-1/2"
 41
1.000000
  7
SN0
 71
     0
 72
     5
 11
5.569075
 21
0.414040
  0
TEXT
  8
0
 10
7.667880
 20
3.608440
 40
0.138196
  1
base
 41
1.000000
  7
SN0
 71
     0
 72
     5
 11
8.027617
 21
3.608440
  0
TEXT
  8
0
 10
7.755880
 20
3.417040
 40
0.138196
  1
32
 41
1.000000
  7
SN0
 71
     0
 72
     5
 11
7.940571
 21
3.417040
  0
ENDSEC
  0
EOF
