  0
SECTION
  2
HEADER
  9
$ACADVER
  1
AC1006
  9
$EXTMIN
 10
2.746040
 20
1.178320
  9
$EXTMAX
 10
5.721760
 20
4.171200
  9
$LTSCALE
 40
0.044000
  9
$PDMODE
 70
    35
  9
$PDSIZE
 40
0.035200
  0
ENDSEC
  0
SECTION
  2
TABLES
  0
TABLE
  2
LTYPE
 70
     9
  0
LTYPE
  2
CONTINUOUS
 70
    64
  3
Solid line
 72
    65
 73
     0
 40
0.000000
  0
LTYPE
  2
DASHED
 70
    64
  3
__ __ __ __ __ __ __ __ __ __ __ __ __ __ __
 72
    65
 73
     2
 40
0.000330
 49
0.000220
 49
-0.000110
  0
LTYPE
  2
HIDDEN
 70
    64
  3
 _ _ _ _ _ _ _ _ _ _ _ _ _ _ _ _ _ _ _ _ _ _
 72
    65
 73
     2
 40
0.000165
 49
0.000110
 49
-0.000055
  0
LTYPE
  2
CENTER
 70
    64
  3
____ _ ____ _ ____ _ ____ _ ____ _ ____ _ ____
 72
    65
 73
     4
 40
0.000880
 49
0.000550
 49
-0.000110
 49
0.000110
 49
-0.000110
  0
LTYPE
  2
PHANTOM
 70
    64
  3
_____ _ _ _____ _ _ _____ _ _ _____ _ _ ____
 72
    65
 73
     6
 40
0.001100
 49
0.000550
 49
-0.000110
 49
0.000110
 49
-0.000110
 49
0.000110
 49
-0.000110
  0
LTYPE
  2
DOT
 70
    64
  3
...............................................
 72
    65
 73
     2
 40
0.000110
 49
0.000000
 49
-0.000110
  0
LTYPE
  2
DASHDOT
 70
    64
  3
__ . __ . __ . __ . __ . __ . __ . __ . __ . __
 72
    65
 73
     4
 40
0.000440
 49
0.000220
 49
-0.000110
 49
0.000000
 49
-0.000110
  0
LTYPE
  2
BORDER
 70
    64
  3
__ __ . __ __ . __ __ . __ __ . __ __ . __ __
 72
    65
 73
     6
 40
0.000770
 49
0.000220
 49
-0.000110
 49
0.000220
 49
-0.000110
 49
0.000000
 49
-0.000110
  0
LTYPE
  2
DIVIDE
 70
    64
  3
__ . . __ . . __ . . __ . . __ . . __ . . __
 72
    65
 73
     6
 40
0.000550
 49
0.000220
 49
-0.000110
 49
0.000000
 49
-0.000110
 49
0.000000
 49
-0.000110
  0
LTYPE
  2
DOTDOT
 70
    64
  3
 . .  . .  . .  . .  . .  . . 
 72
    65
 73
     5
 40
0.000242
 49
-0.000110
 49
0.000000
 49
-0.000110
 49
0.000000
 49
-0.000110
  0
ENDTAB
  0
TABLE
  2
STYLE
 70
     2
  0
STYLE
 70
     0
  2
SN0
 40
0.000000
 41
0.000440
 50
0.000000
 71
     0
 42
0.000000
  3
ROMAND
  0
STYLE
 70
    68
  2
SV0
 40
0.000000
 41
0.000440
 50
0.000000
 71
     0
 42
0.000000
  3
ROMAND
  0
ENDTAB
  0
TABLE
  2
LAYER
 70
     3
  0
LAYER
  2
FOREGROUND
 70
    64
 62
     7
  6
CONTINUOUS
  0
LAYER
  2
BACKGROUND
 70
    65
 62
    -7
  6
CONTINUOUS
  0
LAYER
  2
0
 70
    64
 62
     7
  6
CONTINUOUS
  0
ENDTAB
  0
ENDSEC
  0
SECTION
  2
ENTITIES
  0
POLYLINE
  8
FOREGROUND
  6
CONTINUOUS
 66
     1
 40
0.000000
 41
0.000000
  0
VERTEX
  8
FOREGROUND
  6
CONTINUOUS
 10
0.000000
 20
5.349520
  0
VERTEX
  8
FOREGROUND
  6
CONTINUOUS
 10
8.499920
 20
5.349520
  0
VERTEX
  8
FOREGROUND
  6
CONTINUOUS
 10
8.499920
 20
-5.650480
  0
VERTEX
  8
FOREGROUND
  6
CONTINUOUS
 10
0.000000
 20
-5.650480
  0
VERTEX
  8
FOREGROUND
  6
CONTINUOUS
 10
0.000000
 20
5.349520
  0
SEQEND
  8
0
  0
POLYLINE
  8
FOREGROUND
  6
CONTINUOUS
 66
     1
 40
0.000000
 41
0.000000
  0
VERTEX
  8
FOREGROUND
  6
CONTINUOUS
 10
0.000000
 20
5.349520
  0
VERTEX
  8
FOREGROUND
  6
CONTINUOUS
 10
8.499920
 20
5.349520
  0
VERTEX
  8
FOREGROUND
  6
CONTINUOUS
 10
8.499920
 20
-5.650480
  0
VERTEX
  8
FOREGROUND
  6
CONTINUOUS
 10
0.000000
 20
-5.650480
  0
VERTEX
  8
FOREGROUND
  6
CONTINUOUS
 10
0.000000
 20
5.349520
  0
SEQEND
  8
0
  0
POLYLINE
  8
0
  6
CONTINUOUS
 66
     1
 40
0.014080
 41
0.014080
  0
VERTEX
  8
0
  6
CONTINUOUS
 10
5.714720
 20
4.156680
  0
VERTEX
  8
0
  6
CONTINUOUS
 10
5.714720
 20
3.400760
  0
SEQEND
  8
0
  0
POLYLINE
  8
0
  6
CONTINUOUS
 66
     1
 40
0.014080
 41
0.014080
  0
VERTEX
  8
0
  6
CONTINUOUS
 10
5.694480
 20
3.400760
  0
VERTEX
  8
0
  6
CONTINUOUS
 10
2.753520
 20
3.400760
  0
SEQEND
  8
0
  0
POLYLINE
  8
0
  6
CONTINUOUS
 66
     1
 40
0.014080
 41
0.014080
  0
VERTEX
  8
0
  6
CONTINUOUS
 10
2.754840
 20
3.404720
  0
VERTEX
  8
0
  6
CONTINUOUS
 10
2.754840
 20
4.159320
  0
SEQEND
  8
0
  0
POLYLINE
  8
0
  6
CONTINUOUS
 66
     1
 40
0.014080
 41
0.014080
  0
VERTEX
  8
0
  6
CONTINUOUS
 10
2.756160
 20
4.158000
  0
VERTEX
  8
0
  6
CONTINUOUS
 10
3.357200
 20
4.158000
  0
SEQEND
  8
0
  0
POLYLINE
  8
0
  6
CONTINUOUS
 66
     1
 40
0.014080
 41
0.014080
  0
VERTEX
  8
0
  6
CONTINUOUS
 10
3.357200
 20
4.156680
  0
VERTEX
  8
0
  6
CONTINUOUS
 10
3.363738
 20
4.130588
  0
VERTEX
  8
0
  6
CONTINUOUS
 10
3.374607
 20
4.110219
  0
VERTEX
  8
0
  6
CONTINUOUS
 10
3.389066
 20
4.094325
  0
VERTEX
  8
0
  6
CONTINUOUS
 10
3.406370
 20
4.081660
  0
VERTEX
  8
0
  6
CONTINUOUS
 10
3.425778
 20
4.070975
  0
VERTEX
  8
0
  6
CONTINUOUS
 10
3.446547
 20
4.061021
  0
VERTEX
  8
0
  6
CONTINUOUS
 10
3.467936
 20
4.050552
  0
VERTEX
  8
0
  6
CONTINUOUS
 10
3.489200
 20
4.038320
  0
SEQEND
  8
0
  0
POLYLINE
  8
0
  6
CONTINUOUS
 66
     1
 40
0.014080
 41
0.014080
  0
VERTEX
  8
0
  6
CONTINUOUS
 10
3.491840
 20
4.037000
  0
VERTEX
  8
0
  6
CONTINUOUS
 10
3.501235
 20
4.028996
  0
VERTEX
  8
0
  6
CONTINUOUS
 10
3.507020
 20
4.020156
  0
VERTEX
  8
0
  6
CONTINUOUS
 10
3.511733
 20
4.010471
  0
VERTEX
  8
0
  6
CONTINUOUS
 10
3.517910
 20
3.999930
  0
VERTEX
  8
0
  6
CONTINUOUS
 10
3.528088
 20
3.988523
  0
VERTEX
  8
0
  6
CONTINUOUS
 10
3.544805
 20
3.976239
  0
VERTEX
  8
0
  6
CONTINUOUS
 10
3.570597
 20
3.963068
  0
VERTEX
  8
0
  6
CONTINUOUS
 10
3.608000
 20
3.949000
  0
SEQEND
  8
0
  0
POLYLINE
  8
0
  6
CONTINUOUS
 66
     1
 40
0.014080
 41
0.014080
  0
VERTEX
  8
0
  6
CONTINUOUS
 10
3.608000
 20
3.949000
  0
VERTEX
  8
0
  6
CONTINUOUS
 10
3.619440
 20
3.944600
  0
VERTEX
  8
0
  6
CONTINUOUS
 10
3.648920
 20
3.921280
  0
VERTEX
  8
0
  6
CONTINUOUS
 10
3.673560
 20
3.897080
  0
SEQEND
  8
0
  0
POLYLINE
  8
0
  6
CONTINUOUS
 66
     1
 40
0.014080
 41
0.014080
  0
VERTEX
  8
0
  6
CONTINUOUS
 10
3.677520
 20
3.898400
  0
VERTEX
  8
0
  6
CONTINUOUS
 10
3.695267
 20
3.909297
  0
VERTEX
  8
0
  6
CONTINUOUS
 10
3.713244
 20
3.919751
  0
VERTEX
  8
0
  6
CONTINUOUS
 10
3.731441
 20
3.929766
  0
VERTEX
  8
0
  6
CONTINUOUS
 10
3.749850
 20
3.939345
  0
VERTEX
  8
0
  6
CONTINUOUS
 10
3.768462
 20
3.948490
  0
VERTEX
  8
0
  6
CONTINUOUS
 10
3.787267
 20
3.957207
  0
VERTEX
  8
0
  6
CONTINUOUS
 10
3.806258
 20
3.965496
  0
VERTEX
  8
0
  6
CONTINUOUS
 10
3.825424
 20
3.973363
  0
VERTEX
  8
0
  6
CONTINUOUS
 10
3.844759
 20
3.980810
  0
VERTEX
  8
0
  6
CONTINUOUS
 10
3.864251
 20
3.987840
  0
VERTEX
  8
0
  6
CONTINUOUS
 10
3.883894
 20
3.994457
  0
VERTEX
  8
0
  6
CONTINUOUS
 10
3.903677
 20
4.000664
  0
VERTEX
  8
0
  6
CONTINUOUS
 10
3.923592
 20
4.006465
  0
VERTEX
  8
0
  6
CONTINUOUS
 10
3.943631
 20
4.011861
  0
VERTEX
  8
0
  6
CONTINUOUS
 10
3.963783
 20
4.016858
  0
VERTEX
  8
0
  6
CONTINUOUS
 10
3.984042
 20
4.021458
  0
VERTEX
  8
0
  6
CONTINUOUS
 10
4.004397
 20
4.025664
  0
VERTEX
  8
0
  6
CONTINUOUS
 10
4.024839
 20
4.029479
  0
VERTEX
  8
0
  6
CONTINUOUS
 10
4.045361
 20
4.032907
  0
VERTEX
  8
0
  6
CONTINUOUS
 10
4.065953
 20
4.035952
  0
VERTEX
  8
0
  6
CONTINUOUS
 10
4.086606
 20
4.038615
  0
VERTEX
  8
0
  6
CONTINUOUS
 10
4.107311
 20
4.040902
  0
VERTEX
  8
0
  6
CONTINUOUS
 10
4.128060
 20
4.042814
  0
VERTEX
  8
0
  6
CONTINUOUS
 10
4.148844
 20
4.044355
  0
VERTEX
  8
0
  6
CONTINUOUS
 10
4.169653
 20
4.045529
  0
VERTEX
  8
0
  6
CONTINUOUS
 10
4.190480
 20
4.046339
  0
VERTEX
  8
0
  6
CONTINUOUS
 10
4.211315
 20
4.046787
  0
VERTEX
  8
0
  6
CONTINUOUS
 10
4.232149
 20
4.046878
  0
VERTEX
  8
0
  6
CONTINUOUS
 10
4.252974
 20
4.046614
  0
VERTEX
  8
0
  6
CONTINUOUS
 10
4.273780
 20
4.045999
  0
VERTEX
  8
0
  6
CONTINUOUS
 10
4.294560
 20
4.045036
  0
VERTEX
  8
0
  6
CONTINUOUS
 10
4.315303
 20
4.043728
  0
VERTEX
  8
0
  6
CONTINUOUS
 10
4.336001
 20
4.042078
  0
VERTEX
  8
0
  6
CONTINUOUS
 10
4.356646
 20
4.040091
  0
VERTEX
  8
0
  6
CONTINUOUS
 10
4.377228
 20
4.037769
  0
VERTEX
  8
0
  6
CONTINUOUS
 10
4.397739
 20
4.035114
  0
VERTEX
  8
0
  6
CONTINUOUS
 10
4.418169
 20
4.032132
  0
VERTEX
  8
0
  6
CONTINUOUS
 10
4.438511
 20
4.028824
  0
VERTEX
  8
0
  6
CONTINUOUS
 10
4.458754
 20
4.025195
  0
VERTEX
  8
0
  6
CONTINUOUS
 10
4.478891
 20
4.021247
  0
VERTEX
  8
0
  6
CONTINUOUS
 10
4.498912
 20
4.016983
  0
VERTEX
  8
0
  6
CONTINUOUS
 10
4.518808
 20
4.012408
  0
VERTEX
  8
0
  6
CONTINUOUS
 10
4.538572
 20
4.007523
  0
VERTEX
  8
0
  6
CONTINUOUS
 10
4.558193
 20
4.002334
  0
VERTEX
  8
0
  6
CONTINUOUS
 10
4.577663
 20
3.996841
  0
VERTEX
  8
0
  6
CONTINUOUS
 10
4.596974
 20
3.991050
  0
VERTEX
  8
0
  6
CONTINUOUS
 10
4.616115
 20
3.984963
  0
VERTEX
  8
0
  6
CONTINUOUS
 10
4.635079
 20
3.978584
  0
VERTEX
  8
0
  6
CONTINUOUS
 10
4.653857
 20
3.971915
  0
VERTEX
  8
0
  6
CONTINUOUS
 10
4.672440
 20
3.964961
  0
VERTEX
  8
0
  6
CONTINUOUS
 10
4.690818
 20
3.957723
  0
VERTEX
  8
0
  6
CONTINUOUS
 10
4.708984
 20
3.950207
  0
VERTEX
  8
0
  6
CONTINUOUS
 10
4.726928
 20
3.942414
  0
VERTEX
  8
0
  6
CONTINUOUS
 10
4.744641
 20
3.934348
  0
VERTEX
  8
0
  6
CONTINUOUS
 10
4.762115
 20
3.926013
  0
VERTEX
  8
0
  6
CONTINUOUS
 10
4.779341
 20
3.917411
  0
VERTEX
  8
0
  6
CONTINUOUS
 10
4.796310
 20
3.908546
  0
VERTEX
  8
0
  6
CONTINUOUS
 10
4.813012
 20
3.899421
  0
VERTEX
  8
0
  6
CONTINUOUS
 10
4.829440
 20
3.890040
  0
SEQEND
  8
0
  0
POLYLINE
  8
0
  6
CONTINUOUS
 66
     1
 40
0.014080
 41
0.014080
  0
VERTEX
  8
0
  6
CONTINUOUS
 10
4.830760
 20
3.890040
  0
VERTEX
  8
0
  6
CONTINUOUS
 10
4.870360
 20
3.927440
  0
VERTEX
  8
0
  6
CONTINUOUS
 10
4.891480
 20
3.941520
  0
VERTEX
  8
0
  6
CONTINUOUS
 10
4.895880
 20
3.942400
  0
SEQEND
  8
0
  0
POLYLINE
  8
0
  6
CONTINUOUS
 66
     1
 40
0.014080
 41
0.014080
  0
VERTEX
  8
0
  6
CONTINUOUS
 10
4.895880
 20
3.942400
  0
VERTEX
  8
0
  6
CONTINUOUS
 10
4.933283
 20
3.956342
  0
VERTEX
  8
0
  6
CONTINUOUS
 10
4.959075
 20
3.969453
  0
VERTEX
  8
0
  6
CONTINUOUS
 10
4.975792
 20
3.981729
  0
VERTEX
  8
0
  6
CONTINUOUS
 10
4.985970
 20
3.993165
  0
VERTEX
  8
0
  6
CONTINUOUS
 10
4.992147
 20
4.003755
  0
VERTEX
  8
0
  6
CONTINUOUS
 10
4.996860
 20
4.013494
  0
VERTEX
  8
0
  6
CONTINUOUS
 10
5.002645
 20
4.022378
  0
VERTEX
  8
0
  6
CONTINUOUS
 10
5.012040
 20
4.030400
  0
SEQEND
  8
0
  0
POLYLINE
  8
0
  6
CONTINUOUS
 66
     1
 40
0.014080
 41
0.014080
  0
VERTEX
  8
0
  6
CONTINUOUS
 10
5.014680
 20
4.031720
  0
VERTEX
  8
0
  6
CONTINUOUS
 10
5.035849
 20
4.044110
  0
VERTEX
  8
0
  6
CONTINUOUS
 10
5.056982
 20
4.055267
  0
VERTEX
  8
0
  6
CONTINUOUS
 10
5.077383
 20
4.066269
  0
VERTEX
  8
0
  6
CONTINUOUS
 10
5.096355
 20
4.078195
  0
VERTEX
  8
0
  6
CONTINUOUS
 10
5.113203
 20
4.092121
  0
VERTEX
  8
0
  6
CONTINUOUS
 10
5.127231
 20
4.109126
  0
VERTEX
  8
0
  6
CONTINUOUS
 10
5.137742
 20
4.130286
  0
VERTEX
  8
0
  6
CONTINUOUS
 10
5.144040
 20
4.156680
  0
SEQEND
  8
0
  0
POLYLINE
  8
0
  6
CONTINUOUS
 66
     1
 40
0.014080
 41
0.014080
  0
VERTEX
  8
0
  6
CONTINUOUS
 10
5.145360
 20
4.156680
  0
VERTEX
  8
0
  6
CONTINUOUS
 10
5.689200
 20
4.156680
  0
SEQEND
  8
0
  0
POLYLINE
  8
0
  6
CONTINUOUS
 66
     1
 40
0.014080
 41
0.014080
  0
VERTEX
  8
0
  6
CONTINUOUS
 10
5.136120
 20
4.123240
  0
VERTEX
  8
0
  6
CONTINUOUS
 10
5.134800
 20
4.124560
  0
VERTEX
  8
0
  6
CONTINUOUS
 10
5.133040
 20
4.125880
  0
SEQEND
  8
0
  0
POLYLINE
  8
0
  6
CONTINUOUS
 66
     1
 40
0.014080
 41
0.014080
  0
VERTEX
  8
0
  6
CONTINUOUS
 10
4.873000
 20
3.929640
  0
VERTEX
  8
0
  6
CONTINUOUS
 10
4.876080
 20
3.926560
  0
SEQEND
  8
0
  0
POLYLINE
  8
0
  6
CONTINUOUS
 66
     1
 40
0.014080
 41
0.014080
  0
VERTEX
  8
0
  6
CONTINUOUS
 10
3.630880
 20
3.935800
  0
VERTEX
  8
0
  6
CONTINUOUS
 10
3.629560
 20
3.934480
  0
VERTEX
  8
0
  6
CONTINUOUS
 10
3.627800
 20
3.933160
  0
SEQEND
  8
0
  0
POLYLINE
  8
0
  6
CONTINUOUS
 66
     1
 40
0.014080
 41
0.014080
  0
VERTEX
  8
0
  6
CONTINUOUS
 10
5.666760
 20
4.158000
  0
VERTEX
  8
0
  6
CONTINUOUS
 10
5.706800
 20
4.158000
  0
SEQEND
  8
0
  0
POLYLINE
  8
0
  6
CONTINUOUS
 66
     1
 40
0.014080
 41
0.014080
  0
VERTEX
  8
0
  6
CONTINUOUS
 10
5.661480
 20
4.163720
  0
VERTEX
  8
0
  6
CONTINUOUS
 10
5.706800
 20
4.163720
  0
SEQEND
  8
0
  0
POLYLINE
  8
0
  6
CONTINUOUS
 66
     1
 40
0.014080
 41
0.014080
  0
VERTEX
  8
0
  6
CONTINUOUS
 10
5.677320
 20
3.402080
  0
VERTEX
  8
0
  6
CONTINUOUS
 10
5.712080
 20
3.402080
  0
SEQEND
  8
0
  0
POLYLINE
  8
0
  6
CONTINUOUS
 66
     1
 40
0.014080
 41
0.014080
  0
VERTEX
  8
0
  6
CONTINUOUS
 10
5.661480
 20
3.407360
  0
VERTEX
  8
0
  6
CONTINUOUS
 10
5.712080
 20
3.407360
  0
SEQEND
  8
0
  0
POLYLINE
  8
0
  6
CONTINUOUS
 66
     1
 40
0.014080
 41
0.014080
  0
VERTEX
  8
0
  6
CONTINUOUS
 10
5.558520
 20
3.407360
  0
VERTEX
  8
0
  6
CONTINUOUS
 10
5.437520
 20
3.408680
  0
SEQEND
  8
0
  0
SOLID
  8
0
 62
    15
 10
4.256560
 20
2.333320
 11
4.260960
 21
3.073840
 12
4.333120
 22
2.328480
 13
4.337520
 23
3.069440
  0
POLYLINE
  8
0
  6
CONTINUOUS
 66
     1
 40
0.000000
 41
0.000000
  0
VERTEX
  8
0
  6
CONTINUOUS
 10
4.256560
 20
2.333320
  0
VERTEX
  8
0
  6
CONTINUOUS
 10
4.260960
 20
3.073840
  0
VERTEX
  8
0
  6
CONTINUOUS
 10
4.337520
 20
3.069440
  0
VERTEX
  8
0
  6
CONTINUOUS
 10
4.333120
 20
2.328480
  0
VERTEX
  8
0
  6
CONTINUOUS
 10
4.256560
 20
2.333320
  0
SEQEND
  8
0
  0
SOLID
  8
0
 62
    15
 10
2.749120
 20
2.445080
 11
2.753520
 21
3.186040
 12
3.349280
 22
2.445080
 13
3.353680
 23
3.186040
  0
POLYLINE
  8
0
  6
CONTINUOUS
 66
     1
 40
0.000000
 41
0.000000
  0
VERTEX
  8
0
  6
CONTINUOUS
 10
2.749120
 20
2.445080
  0
VERTEX
  8
0
  6
CONTINUOUS
 10
2.753520
 20
3.186040
  0
VERTEX
  8
0
  6
CONTINUOUS
 10
3.353680
 20
3.186040
  0
VERTEX
  8
0
  6
CONTINUOUS
 10
3.349280
 20
2.445080
  0
VERTEX
  8
0
  6
CONTINUOUS
 10
2.749120
 20
2.445080
  0
SEQEND
  8
0
  0
SOLID
  8
0
 62
    15
 10
3.349280
 20
2.445520
 11
3.353240
 21
3.186480
 12
3.357640
 22
2.415160
 13
3.361600
 23
3.155680
  0
POLYLINE
  8
0
  6
CONTINUOUS
 66
     1
 40
0.000000
 41
0.000000
  0
VERTEX
  8
0
  6
CONTINUOUS
 10
3.349280
 20
2.445520
  0
VERTEX
  8
0
  6
CONTINUOUS
 10
3.353240
 20
3.186480
  0
VERTEX
  8
0
  6
CONTINUOUS
 10
3.361600
 20
3.155680
  0
VERTEX
  8
0
  6
CONTINUOUS
 10
3.357640
 20
2.415160
  0
VERTEX
  8
0
  6
CONTINUOUS
 10
3.349280
 20
2.445520
  0
SEQEND
  8
0
  0
SOLID
  8
0
 62
    15
 10
3.353680
 20
3.186040
 11
3.355000
 21
3.186040
 12
3.349280
 22
2.445080
 13
3.350600
 23
2.445080
  0
POLYLINE
  8
0
  6
CONTINUOUS
 66
     1
 40
0.000000
 41
0.000000
  0
VERTEX
  8
0
  6
CONTINUOUS
 10
3.353680
 20
3.186040
  0
VERTEX
  8
0
  6
CONTINUOUS
 10
3.355000
 20
3.186040
  0
VERTEX
  8
0
  6
CONTINUOUS
 10
3.350600
 20
2.445080
  0
VERTEX
  8
0
  6
CONTINUOUS
 10
3.349280
 20
2.445080
  0
VERTEX
  8
0
  6
CONTINUOUS
 10
3.353680
 20
3.186040
  0
SEQEND
  8
0
  0
SOLID
  8
0
 62
    15
 10
3.357640
 20
2.415160
 11
3.361600
 21
3.155680
 12
3.371280
 22
2.391400
 13
3.375240
 23
3.132360
  0
POLYLINE
  8
0
  6
CONTINUOUS
 66
     1
 40
0.000000
 41
0.000000
  0
VERTEX
  8
0
  6
CONTINUOUS
 10
3.357640
 20
2.415160
  0
VERTEX
  8
0
  6
CONTINUOUS
 10
3.361600
 20
3.155680
  0
VERTEX
  8
0
  6
CONTINUOUS
 10
3.375240
 20
3.132360
  0
VERTEX
  8
0
  6
CONTINUOUS
 10
3.371280
 20
2.391400
  0
VERTEX
  8
0
  6
CONTINUOUS
 10
3.357640
 20
2.415160
  0
SEQEND
  8
0
  0
SOLID
  8
0
 62
    15
 10
3.371280
 20
2.391400
 11
3.375240
 21
3.132360
 12
3.388880
 22
2.373360
 13
3.392840
 23
3.114320
  0
POLYLINE
  8
0
  6
CONTINUOUS
 66
     1
 40
0.000000
 41
0.000000
  0
VERTEX
  8
0
  6
CONTINUOUS
 10
3.371280
 20
2.391400
  0
VERTEX
  8
0
  6
CONTINUOUS
 10
3.375240
 20
3.132360
  0
VERTEX
  8
0
  6
CONTINUOUS
 10
3.392840
 20
3.114320
  0
VERTEX
  8
0
  6
CONTINUOUS
 10
3.388880
 20
2.373360
  0
VERTEX
  8
0
  6
CONTINUOUS
 10
3.371280
 20
2.391400
  0
SEQEND
  8
0
  0
SOLID
  8
0
 62
    15
 10
3.388880
 20
2.373360
 11
3.392840
 21
3.114320
 12
3.408680
 22
2.360160
 13
3.413080
 23
3.100680
  0
POLYLINE
  8
0
  6
CONTINUOUS
 66
     1
 40
0.000000
 41
0.000000
  0
VERTEX
  8
0
  6
CONTINUOUS
 10
3.388880
 20
2.373360
  0
VERTEX
  8
0
  6
CONTINUOUS
 10
3.392840
 20
3.114320
  0
VERTEX
  8
0
  6
CONTINUOUS
 10
3.413080
 20
3.100680
  0
VERTEX
  8
0
  6
CONTINUOUS
 10
3.408680
 20
2.360160
  0
VERTEX
  8
0
  6
CONTINUOUS
 10
3.388880
 20
2.373360
  0
SEQEND
  8
0
  0
SOLID
  8
0
 62
    15
 10
3.408680
 20
2.360160
 11
3.413080
 21
3.100680
 12
3.429800
 22
2.349600
 13
3.433760
 23
3.090120
  0
POLYLINE
  8
0
  6
CONTINUOUS
 66
     1
 40
0.000000
 41
0.000000
  0
VERTEX
  8
0
  6
CONTINUOUS
 10
3.408680
 20
2.360160
  0
VERTEX
  8
0
  6
CONTINUOUS
 10
3.413080
 20
3.100680
  0
VERTEX
  8
0
  6
CONTINUOUS
 10
3.433760
 20
3.090120
  0
VERTEX
  8
0
  6
CONTINUOUS
 10
3.429800
 20
2.349600
  0
VERTEX
  8
0
  6
CONTINUOUS
 10
3.408680
 20
2.360160
  0
SEQEND
  8
0
  0
SOLID
  8
0
 62
    15
 10
3.429800
 20
2.349600
 11
3.433760
 21
3.090120
 12
3.440360
 22
2.345200
 13
3.444320
 23
3.085720
  0
POLYLINE
  8
0
  6
CONTINUOUS
 66
     1
 40
0.000000
 41
0.000000
  0
VERTEX
  8
0
  6
CONTINUOUS
 10
3.429800
 20
2.349600
  0
VERTEX
  8
0
  6
CONTINUOUS
 10
3.433760
 20
3.090120
  0
VERTEX
  8
0
  6
CONTINUOUS
 10
3.444320
 20
3.085720
  0
VERTEX
  8
0
  6
CONTINUOUS
 10
3.440360
 20
2.345200
  0
VERTEX
  8
0
  6
CONTINUOUS
 10
3.429800
 20
2.349600
  0
SEQEND
  8
0
  0
SOLID
  8
0
 62
    15
 10
3.440360
 20
2.345200
 11
3.444320
 21
3.085720
 12
3.450040
 22
2.341240
 13
3.454440
 23
3.081760
  0
POLYLINE
  8
0
  6
CONTINUOUS
 66
     1
 40
0.000000
 41
0.000000
  0
VERTEX
  8
0
  6
CONTINUOUS
 10
3.440360
 20
2.345200
  0
VERTEX
  8
0
  6
CONTINUOUS
 10
3.444320
 20
3.085720
  0
VERTEX
  8
0
  6
CONTINUOUS
 10
3.454440
 20
3.081760
  0
VERTEX
  8
0
  6
CONTINUOUS
 10
3.450040
 20
2.341240
  0
VERTEX
  8
0
  6
CONTINUOUS
 10
3.440360
 20
2.345200
  0
SEQEND
  8
0
  0
SOLID
  8
0
 62
    15
 10
3.450040
 20
2.341240
 11
3.454440
 21
3.081760
 12
3.468520
 22
2.333320
 13
3.472920
 23
3.073840
  0
POLYLINE
  8
0
  6
CONTINUOUS
 66
     1
 40
0.000000
 41
0.000000
  0
VERTEX
  8
0
  6
CONTINUOUS
 10
3.450040
 20
2.341240
  0
VERTEX
  8
0
  6
CONTINUOUS
 10
3.454440
 20
3.081760
  0
VERTEX
  8
0
  6
CONTINUOUS
 10
3.472920
 20
3.073840
  0
VERTEX
  8
0
  6
CONTINUOUS
 10
3.468520
 20
2.333320
  0
VERTEX
  8
0
  6
CONTINUOUS
 10
3.450040
 20
2.341240
  0
SEQEND
  8
0
  0
SOLID
  8
0
 62
    15
 10
3.468520
 20
2.333320
 11
3.472920
 21
3.073840
 12
3.483480
 22
2.324960
 13
3.487440
 23
3.065480
  0
POLYLINE
  8
0
  6
CONTINUOUS
 66
     1
 40
0.000000
 41
0.000000
  0
VERTEX
  8
0
  6
CONTINUOUS
 10
3.468520
 20
2.333320
  0
VERTEX
  8
0
  6
CONTINUOUS
 10
3.472920
 20
3.073840
  0
VERTEX
  8
0
  6
CONTINUOUS
 10
3.487440
 20
3.065480
  0
VERTEX
  8
0
  6
CONTINUOUS
 10
3.483480
 20
2.324960
  0
VERTEX
  8
0
  6
CONTINUOUS
 10
3.468520
 20
2.333320
  0
SEQEND
  8
0
  0
SOLID
  8
0
 62
    15
 10
3.483480
 20
2.324960
 11
3.487440
 21
3.065480
 12
3.501080
 22
2.306040
 13
3.505040
 23
3.046560
  0
POLYLINE
  8
0
  6
CONTINUOUS
 66
     1
 40
0.000000
 41
0.000000
  0
VERTEX
  8
0
  6
CONTINUOUS
 10
3.483480
 20
2.324960
  0
VERTEX
  8
0
  6
CONTINUOUS
 10
3.487440
 20
3.065480
  0
VERTEX
  8
0
  6
CONTINUOUS
 10
3.505040
 20
3.046560
  0
VERTEX
  8
0
  6
CONTINUOUS
 10
3.501080
 20
2.306040
  0
VERTEX
  8
0
  6
CONTINUOUS
 10
3.483480
 20
2.324960
  0
SEQEND
  8
0
  0
SOLID
  8
0
 62
    15
 10
3.501080
 20
2.306040
 11
3.505040
 21
3.046560
 12
3.505920
 22
2.296800
 13
3.509880
 23
3.037320
  0
POLYLINE
  8
0
  6
CONTINUOUS
 66
     1
 40
0.000000
 41
0.000000
  0
VERTEX
  8
0
  6
CONTINUOUS
 10
3.501080
 20
2.306040
  0
VERTEX
  8
0
  6
CONTINUOUS
 10
3.505040
 20
3.046560
  0
VERTEX
  8
0
  6
CONTINUOUS
 10
3.509880
 20
3.037320
  0
VERTEX
  8
0
  6
CONTINUOUS
 10
3.505920
 20
2.296800
  0
VERTEX
  8
0
  6
CONTINUOUS
 10
3.501080
 20
2.306040
  0
SEQEND
  8
0
  0
SOLID
  8
0
 62
    15
 10
3.505920
 20
2.296800
 11
3.509880
 21
3.037320
 12
3.509880
 22
2.288000
 13
3.513840
 23
3.028520
  0
POLYLINE
  8
0
  6
CONTINUOUS
 66
     1
 40
0.000000
 41
0.000000
  0
VERTEX
  8
0
  6
CONTINUOUS
 10
3.505920
 20
2.296800
  0
VERTEX
  8
0
  6
CONTINUOUS
 10
3.509880
 20
3.037320
  0
VERTEX
  8
0
  6
CONTINUOUS
 10
3.513840
 20
3.028520
  0
VERTEX
  8
0
  6
CONTINUOUS
 10
3.509880
 20
2.288000
  0
VERTEX
  8
0
  6
CONTINUOUS
 10
3.505920
 20
2.296800
  0
SEQEND
  8
0
  0
SOLID
  8
0
 62
    15
 10
3.509880
 20
2.288000
 11
3.513840
 21
3.028520
 12
3.519120
 22
2.272600
 13
3.523520
 23
3.013560
  0
POLYLINE
  8
0
  6
CONTINUOUS
 66
     1
 40
0.000000
 41
0.000000
  0
VERTEX
  8
0
  6
CONTINUOUS
 10
3.509880
 20
2.288000
  0
VERTEX
  8
0
  6
CONTINUOUS
 10
3.513840
 20
3.028520
  0
VERTEX
  8
0
  6
CONTINUOUS
 10
3.523520
 20
3.013560
  0
VERTEX
  8
0
  6
CONTINUOUS
 10
3.519120
 20
2.272600
  0
VERTEX
  8
0
  6
CONTINUOUS
 10
3.509880
 20
2.288000
  0
SEQEND
  8
0
  0
SOLID
  8
0
 62
    15
 10
3.519120
 20
2.272600
 11
3.523520
 21
3.013560
 12
3.527480
 22
2.266880
 13
3.531440
 23
3.007400
  0
POLYLINE
  8
0
  6
CONTINUOUS
 66
     1
 40
0.000000
 41
0.000000
  0
VERTEX
  8
0
  6
CONTINUOUS
 10
3.519120
 20
2.272600
  0
VERTEX
  8
0
  6
CONTINUOUS
 10
3.523520
 20
3.013560
  0
VERTEX
  8
0
  6
CONTINUOUS
 10
3.531440
 20
3.007400
  0
VERTEX
  8
0
  6
CONTINUOUS
 10
3.527480
 20
2.266880
  0
VERTEX
  8
0
  6
CONTINUOUS
 10
3.519120
 20
2.272600
  0
SEQEND
  8
0
  0
SOLID
  8
0
 62
    15
 10
3.527480
 20
2.266880
 11
3.531440
 21
3.007400
 12
3.539360
 22
2.262040
 13
3.543760
 23
3.003000
  0
POLYLINE
  8
0
  6
CONTINUOUS
 66
     1
 40
0.000000
 41
0.000000
  0
VERTEX
  8
0
  6
CONTINUOUS
 10
3.527480
 20
2.266880
  0
VERTEX
  8
0
  6
CONTINUOUS
 10
3.531440
 20
3.007400
  0
VERTEX
  8
0
  6
CONTINUOUS
 10
3.543760
 20
3.003000
  0
VERTEX
  8
0
  6
CONTINUOUS
 10
3.539360
 20
2.262040
  0
VERTEX
  8
0
  6
CONTINUOUS
 10
3.527480
 20
2.266880
  0
SEQEND
  8
0
  0
SOLID
  8
0
 62
    15
 10
3.539360
 20
2.262040
 11
3.543760
 21
3.003000
 12
3.571480
 22
2.250160
 13
3.575440
 23
2.990680
  0
POLYLINE
  8
0
  6
CONTINUOUS
 66
     1
 40
0.000000
 41
0.000000
  0
VERTEX
  8
0
  6
CONTINUOUS
 10
3.539360
 20
2.262040
  0
VERTEX
  8
0
  6
CONTINUOUS
 10
3.543760
 20
3.003000
  0
VERTEX
  8
0
  6
CONTINUOUS
 10
3.575440
 20
2.990680
  0
VERTEX
  8
0
  6
CONTINUOUS
 10
3.571480
 20
2.250160
  0
VERTEX
  8
0
  6
CONTINUOUS
 10
3.539360
 20
2.262040
  0
SEQEND
  8
0
  0
SOLID
  8
0
 62
    15
 10
3.571480
 20
2.250160
 11
3.575440
 21
2.990680
 12
3.606680
 22
2.230800
 13
3.611080
 23
2.971760
  0
POLYLINE
  8
0
  6
CONTINUOUS
 66
     1
 40
0.000000
 41
0.000000
  0
VERTEX
  8
0
  6
CONTINUOUS
 10
3.571480
 20
2.250160
  0
VERTEX
  8
0
  6
CONTINUOUS
 10
3.575440
 20
2.990680
  0
VERTEX
  8
0
  6
CONTINUOUS
 10
3.611080
 20
2.971760
  0
VERTEX
  8
0
  6
CONTINUOUS
 10
3.606680
 20
2.230800
  0
VERTEX
  8
0
  6
CONTINUOUS
 10
3.571480
 20
2.250160
  0
SEQEND
  8
0
  0
SOLID
  8
0
 62
    15
 10
3.606680
 20
2.230800
 11
3.611080
 21
2.971760
 12
3.641000
 22
2.207920
 13
3.645400
 23
2.948440
  0
POLYLINE
  8
0
  6
CONTINUOUS
 66
     1
 40
0.000000
 41
0.000000
  0
VERTEX
  8
0
  6
CONTINUOUS
 10
3.606680
 20
2.230800
  0
VERTEX
  8
0
  6
CONTINUOUS
 10
3.611080
 20
2.971760
  0
VERTEX
  8
0
  6
CONTINUOUS
 10
3.645400
 20
2.948440
  0
VERTEX
  8
0
  6
CONTINUOUS
 10
3.641000
 20
2.207920
  0
VERTEX
  8
0
  6
CONTINUOUS
 10
3.606680
 20
2.230800
  0
SEQEND
  8
0
  0
SOLID
  8
0
 62
    15
 10
3.641000
 20
2.207920
 11
3.645400
 21
2.948440
 12
3.669160
 22
2.183720
 13
3.673560
 23
2.924680
  0
POLYLINE
  8
0
  6
CONTINUOUS
 66
     1
 40
0.000000
 41
0.000000
  0
VERTEX
  8
0
  6
CONTINUOUS
 10
3.641000
 20
2.207920
  0
VERTEX
  8
0
  6
CONTINUOUS
 10
3.645400
 20
2.948440
  0
VERTEX
  8
0
  6
CONTINUOUS
 10
3.673560
 20
2.924680
  0
VERTEX
  8
0
  6
CONTINUOUS
 10
3.669160
 20
2.183720
  0
VERTEX
  8
0
  6
CONTINUOUS
 10
3.641000
 20
2.207920
  0
SEQEND
  8
0
  0
SOLID
  8
0
 62
    15
 10
3.669160
 20
2.183720
 11
3.673560
 21
2.924680
 12
3.670480
 22
2.185040
 13
3.674880
 23
2.926000
  0
POLYLINE
  8
0
  6
CONTINUOUS
 66
     1
 40
0.000000
 41
0.000000
  0
VERTEX
  8
0
  6
CONTINUOUS
 10
3.669160
 20
2.183720
  0
VERTEX
  8
0
  6
CONTINUOUS
 10
3.673560
 20
2.924680
  0
VERTEX
  8
0
  6
CONTINUOUS
 10
3.674880
 20
2.926000
  0
VERTEX
  8
0
  6
CONTINUOUS
 10
3.670480
 20
2.185040
  0
VERTEX
  8
0
  6
CONTINUOUS
 10
3.669160
 20
2.183720
  0
SEQEND
  8
0
  0
SOLID
  8
0
 62
    15
 10
3.670480
 20
2.185040
 11
3.674880
 21
2.926000
 12
3.737360
 22
2.223320
 13
3.741320
 23
2.963840
  0
POLYLINE
  8
0
  6
CONTINUOUS
 66
     1
 40
0.000000
 41
0.000000
  0
VERTEX
  8
0
  6
CONTINUOUS
 10
3.670480
 20
2.185040
  0
VERTEX
  8
0
  6
CONTINUOUS
 10
3.674880
 20
2.926000
  0
VERTEX
  8
0
  6
CONTINUOUS
 10
3.741320
 20
2.963840
  0
VERTEX
  8
0
  6
CONTINUOUS
 10
3.737360
 20
2.223320
  0
VERTEX
  8
0
  6
CONTINUOUS
 10
3.670480
 20
2.185040
  0
SEQEND
  8
0
  0
SOLID
  8
0
 62
    15
 10
3.737360
 20
2.223320
 11
3.741320
 21
2.963840
 12
3.806440
 22
2.255440
 13
3.810840
 23
2.995960
  0
POLYLINE
  8
0
  6
CONTINUOUS
 66
     1
 40
0.000000
 41
0.000000
  0
VERTEX
  8
0
  6
CONTINUOUS
 10
3.737360
 20
2.223320
  0
VERTEX
  8
0
  6
CONTINUOUS
 10
3.741320
 20
2.963840
  0
VERTEX
  8
0
  6
CONTINUOUS
 10
3.810840
 20
2.995960
  0
VERTEX
  8
0
  6
CONTINUOUS
 10
3.806440
 20
2.255440
  0
VERTEX
  8
0
  6
CONTINUOUS
 10
3.737360
 20
2.223320
  0
SEQEND
  8
0
  0
SOLID
  8
0
 62
    15
 10
3.806440
 20
2.255440
 11
3.810840
 21
2.995960
 12
3.878160
 22
2.281840
 13
3.882560
 23
3.022360
  0
POLYLINE
  8
0
  6
CONTINUOUS
 66
     1
 40
0.000000
 41
0.000000
  0
VERTEX
  8
0
  6
CONTINUOUS
 10
3.806440
 20
2.255440
  0
VERTEX
  8
0
  6
CONTINUOUS
 10
3.810840
 20
2.995960
  0
VERTEX
  8
0
  6
CONTINUOUS
 10
3.882560
 20
3.022360
  0
VERTEX
  8
0
  6
CONTINUOUS
 10
3.878160
 20
2.281840
  0
VERTEX
  8
0
  6
CONTINUOUS
 10
3.806440
 20
2.255440
  0
SEQEND
  8
0
  0
SOLID
  8
0
 62
    15
 10
3.878160
 20
2.281840
 11
3.882560
 21
3.022360
 12
3.952080
 22
2.302520
 13
3.956040
 23
3.043040
  0
POLYLINE
  8
0
  6
CONTINUOUS
 66
     1
 40
0.000000
 41
0.000000
  0
VERTEX
  8
0
  6
CONTINUOUS
 10
3.878160
 20
2.281840
  0
VERTEX
  8
0
  6
CONTINUOUS
 10
3.882560
 20
3.022360
  0
VERTEX
  8
0
  6
CONTINUOUS
 10
3.956040
 20
3.043040
  0
VERTEX
  8
0
  6
CONTINUOUS
 10
3.952080
 20
2.302520
  0
VERTEX
  8
0
  6
CONTINUOUS
 10
3.878160
 20
2.281840
  0
SEQEND
  8
0
  0
SOLID
  8
0
 62
    15
 10
3.952080
 20
2.302520
 11
3.956040
 21
3.043040
 12
4.026880
 22
2.317920
 13
4.031280
 23
3.058440
  0
POLYLINE
  8
0
  6
CONTINUOUS
 66
     1
 40
0.000000
 41
0.000000
  0
VERTEX
  8
0
  6
CONTINUOUS
 10
3.952080
 20
2.302520
  0
VERTEX
  8
0
  6
CONTINUOUS
 10
3.956040
 20
3.043040
  0
VERTEX
  8
0
  6
CONTINUOUS
 10
4.031280
 20
3.058440
  0
VERTEX
  8
0
  6
CONTINUOUS
 10
4.026880
 20
2.317920
  0
VERTEX
  8
0
  6
CONTINUOUS
 10
3.952080
 20
2.302520
  0
SEQEND
  8
0
  0
SOLID
  8
0
 62
    15
 10
4.026880
 20
2.317920
 11
4.031280
 21
3.058440
 12
4.103000
 22
2.328040
 13
4.107400
 23
3.068560
  0
POLYLINE
  8
0
  6
CONTINUOUS
 66
     1
 40
0.000000
 41
0.000000
  0
VERTEX
  8
0
  6
CONTINUOUS
 10
4.026880
 20
2.317920
  0
VERTEX
  8
0
  6
CONTINUOUS
 10
4.031280
 20
3.058440
  0
VERTEX
  8
0
  6
CONTINUOUS
 10
4.107400
 20
3.068560
  0
VERTEX
  8
0
  6
CONTINUOUS
 10
4.103000
 20
2.328040
  0
VERTEX
  8
0
  6
CONTINUOUS
 10
4.026880
 20
2.317920
  0
SEQEND
  8
0
  0
SOLID
  8
0
 62
    15
 10
4.103000
 20
2.328040
 11
4.107400
 21
3.068560
 12
4.180000
 22
2.332880
 13
4.183960
 23
3.073840
  0
POLYLINE
  8
0
  6
CONTINUOUS
 66
     1
 40
0.000000
 41
0.000000
  0
VERTEX
  8
0
  6
CONTINUOUS
 10
4.103000
 20
2.328040
  0
VERTEX
  8
0
  6
CONTINUOUS
 10
4.107400
 20
3.068560
  0
VERTEX
  8
0
  6
CONTINUOUS
 10
4.183960
 20
3.073840
  0
VERTEX
  8
0
  6
CONTINUOUS
 10
4.180000
 20
2.332880
  0
VERTEX
  8
0
  6
CONTINUOUS
 10
4.103000
 20
2.328040
  0
SEQEND
  8
0
  0
SOLID
  8
0
 62
    15
 10
4.180000
 20
2.332880
 11
4.183960
 21
3.073840
 12
4.256560
 22
2.333320
 13
4.260960
 23
3.073840
  0
POLYLINE
  8
0
  6
CONTINUOUS
 66
     1
 40
0.000000
 41
0.000000
  0
VERTEX
  8
0
  6
CONTINUOUS
 10
4.180000
 20
2.332880
  0
VERTEX
  8
0
  6
CONTINUOUS
 10
4.183960
 20
3.073840
  0
VERTEX
  8
0
  6
CONTINUOUS
 10
4.260960
 20
3.073840
  0
VERTEX
  8
0
  6
CONTINUOUS
 10
4.256560
 20
2.333320
  0
VERTEX
  8
0
  6
CONTINUOUS
 10
4.180000
 20
2.332880
  0
SEQEND
  8
0
  0
SOLID
  8
0
 62
    15
 10
2.747800
 20
2.446400
 11
2.752200
 21
3.187360
 12
2.749120
 22
2.445080
 13
2.753520
 23
3.186040
  0
POLYLINE
  8
0
  6
CONTINUOUS
 66
     1
 40
0.000000
 41
0.000000
  0
VERTEX
  8
0
  6
CONTINUOUS
 10
2.747800
 20
2.446400
  0
VERTEX
  8
0
  6
CONTINUOUS
 10
2.752200
 20
3.187360
  0
VERTEX
  8
0
  6
CONTINUOUS
 10
2.753520
 20
3.186040
  0
VERTEX
  8
0
  6
CONTINUOUS
 10
2.749120
 20
2.445080
  0
VERTEX
  8
0
  6
CONTINUOUS
 10
2.747800
 20
2.446400
  0
SEQEND
  8
0
  0
SOLID
  8
0
 62
    15
 10
4.333120
 20
2.328480
 11
4.337520
 21
3.069440
 12
4.408800
 22
2.319240
 13
4.413200
 23
3.060200
  0
POLYLINE
  8
0
  6
CONTINUOUS
 66
     1
 40
0.000000
 41
0.000000
  0
VERTEX
  8
0
  6
CONTINUOUS
 10
4.333120
 20
2.328480
  0
VERTEX
  8
0
  6
CONTINUOUS
 10
4.337520
 20
3.069440
  0
VERTEX
  8
0
  6
CONTINUOUS
 10
4.413200
 20
3.060200
  0
VERTEX
  8
0
  6
CONTINUOUS
 10
4.408800
 20
2.319240
  0
VERTEX
  8
0
  6
CONTINUOUS
 10
4.333120
 20
2.328480
  0
SEQEND
  8
0
  0
SOLID
  8
0
 62
    15
 10
4.408800
 20
2.319240
 11
4.413200
 21
3.060200
 12
4.483600
 22
2.306040
 13
4.487560
 23
3.046560
  0
POLYLINE
  8
0
  6
CONTINUOUS
 66
     1
 40
0.000000
 41
0.000000
  0
VERTEX
  8
0
  6
CONTINUOUS
 10
4.408800
 20
2.319240
  0
VERTEX
  8
0
  6
CONTINUOUS
 10
4.413200
 20
3.060200
  0
VERTEX
  8
0
  6
CONTINUOUS
 10
4.487560
 20
3.046560
  0
VERTEX
  8
0
  6
CONTINUOUS
 10
4.483600
 20
2.306040
  0
VERTEX
  8
0
  6
CONTINUOUS
 10
4.408800
 20
2.319240
  0
SEQEND
  8
0
  0
SOLID
  8
0
 62
    15
 10
4.483600
 20
2.306040
 11
4.487560
 21
3.046560
 12
4.556200
 22
2.288000
 13
4.560600
 23
3.028520
  0
POLYLINE
  8
0
  6
CONTINUOUS
 66
     1
 40
0.000000
 41
0.000000
  0
VERTEX
  8
0
  6
CONTINUOUS
 10
4.483600
 20
2.306040
  0
VERTEX
  8
0
  6
CONTINUOUS
 10
4.487560
 20
3.046560
  0
VERTEX
  8
0
  6
CONTINUOUS
 10
4.560600
 20
3.028520
  0
VERTEX
  8
0
  6
CONTINUOUS
 10
4.556200
 20
2.288000
  0
VERTEX
  8
0
  6
CONTINUOUS
 10
4.483600
 20
2.306040
  0
SEQEND
  8
0
  0
SOLID
  8
0
 62
    15
 10
4.556200
 20
2.288000
 11
4.560600
 21
3.028520
 12
4.627040
 22
2.266000
 13
4.631440
 23
3.006520
  0
POLYLINE
  8
0
  6
CONTINUOUS
 66
     1
 40
0.000000
 41
0.000000
  0
VERTEX
  8
0
  6
CONTINUOUS
 10
4.556200
 20
2.288000
  0
VERTEX
  8
0
  6
CONTINUOUS
 10
4.560600
 20
3.028520
  0
VERTEX
  8
0
  6
CONTINUOUS
 10
4.631440
 20
3.006520
  0
VERTEX
  8
0
  6
CONTINUOUS
 10
4.627040
 20
2.266000
  0
VERTEX
  8
0
  6
CONTINUOUS
 10
4.556200
 20
2.288000
  0
SEQEND
  8
0
  0
SOLID
  8
0
 62
    15
 10
4.627040
 20
2.266000
 11
4.631440
 21
3.006520
 12
4.695680
 22
2.240040
 13
4.699640
 23
2.981000
  0
POLYLINE
  8
0
  6
CONTINUOUS
 66
     1
 40
0.000000
 41
0.000000
  0
VERTEX
  8
0
  6
CONTINUOUS
 10
4.627040
 20
2.266000
  0
VERTEX
  8
0
  6
CONTINUOUS
 10
4.631440
 20
3.006520
  0
VERTEX
  8
0
  6
CONTINUOUS
 10
4.699640
 20
2.981000
  0
VERTEX
  8
0
  6
CONTINUOUS
 10
4.695680
 20
2.240040
  0
VERTEX
  8
0
  6
CONTINUOUS
 10
4.627040
 20
2.266000
  0
SEQEND
  8
0
  0
SOLID
  8
0
 62
    15
 10
4.695680
 20
2.240040
 11
4.699640
 21
2.981000
 12
4.760800
 22
2.210560
 13
4.764760
 23
2.951080
  0
POLYLINE
  8
0
  6
CONTINUOUS
 66
     1
 40
0.000000
 41
0.000000
  0
VERTEX
  8
0
  6
CONTINUOUS
 10
4.695680
 20
2.240040
  0
VERTEX
  8
0
  6
CONTINUOUS
 10
4.699640
 20
2.981000
  0
VERTEX
  8
0
  6
CONTINUOUS
 10
4.764760
 20
2.951080
  0
VERTEX
  8
0
  6
CONTINUOUS
 10
4.760800
 20
2.210560
  0
VERTEX
  8
0
  6
CONTINUOUS
 10
4.695680
 20
2.240040
  0
SEQEND
  8
0
  0
SOLID
  8
0
 62
    15
 10
4.824600
 20
2.918960
 11
4.826800
 21
2.918080
 12
4.820200
 22
2.178440
 13
4.822840
 23
2.177120
  0
POLYLINE
  8
0
  6
CONTINUOUS
 66
     1
 40
0.000000
 41
0.000000
  0
VERTEX
  8
0
  6
CONTINUOUS
 10
4.824600
 20
2.918960
  0
VERTEX
  8
0
  6
CONTINUOUS
 10
4.826800
 20
2.918080
  0
VERTEX
  8
0
  6
CONTINUOUS
 10
4.822840
 20
2.177120
  0
VERTEX
  8
0
  6
CONTINUOUS
 10
4.820200
 20
2.178440
  0
VERTEX
  8
0
  6
CONTINUOUS
 10
4.824600
 20
2.918960
  0
SEQEND
  8
0
  0
SOLID
  8
0
 62
    15
 10
4.820200
 20
2.178440
 11
4.824160
 21
2.918960
 12
4.848360
 22
2.202200
 13
4.852320
 23
2.943160
  0
POLYLINE
  8
0
  6
CONTINUOUS
 66
     1
 40
0.000000
 41
0.000000
  0
VERTEX
  8
0
  6
CONTINUOUS
 10
4.820200
 20
2.178440
  0
VERTEX
  8
0
  6
CONTINUOUS
 10
4.824160
 20
2.918960
  0
VERTEX
  8
0
  6
CONTINUOUS
 10
4.852320
 20
2.943160
  0
VERTEX
  8
0
  6
CONTINUOUS
 10
4.848360
 20
2.202200
  0
VERTEX
  8
0
  6
CONTINUOUS
 10
4.820200
 20
2.178440
  0
SEQEND
  8
0
  0
SOLID
  8
0
 62
    15
 10
4.760800
 20
2.210560
 11
4.764760
 21
2.951080
 12
4.820200
 22
2.178440
 13
4.824600
 23
2.918960
  0
POLYLINE
  8
0
  6
CONTINUOUS
 66
     1
 40
0.000000
 41
0.000000
  0
VERTEX
  8
0
  6
CONTINUOUS
 10
4.760800
 20
2.210560
  0
VERTEX
  8
0
  6
CONTINUOUS
 10
4.764760
 20
2.951080
  0
VERTEX
  8
0
  6
CONTINUOUS
 10
4.824600
 20
2.918960
  0
VERTEX
  8
0
  6
CONTINUOUS
 10
4.820200
 20
2.178440
  0
VERTEX
  8
0
  6
CONTINUOUS
 10
4.760800
 20
2.210560
  0
SEQEND
  8
0
  0
SOLID
  8
0
 62
    15
 10
4.848360
 20
2.202200
 11
4.852320
 21
2.943160
 12
4.882240
 22
2.225520
 13
4.886640
 23
2.966040
  0
POLYLINE
  8
0
  6
CONTINUOUS
 66
     1
 40
0.000000
 41
0.000000
  0
VERTEX
  8
0
  6
CONTINUOUS
 10
4.848360
 20
2.202200
  0
VERTEX
  8
0
  6
CONTINUOUS
 10
4.852320
 20
2.943160
  0
VERTEX
  8
0
  6
CONTINUOUS
 10
4.886640
 20
2.966040
  0
VERTEX
  8
0
  6
CONTINUOUS
 10
4.882240
 20
2.225520
  0
VERTEX
  8
0
  6
CONTINUOUS
 10
4.848360
 20
2.202200
  0
SEQEND
  8
0
  0
SOLID
  8
0
 62
    15
 10
4.882240
 20
2.225520
 11
4.886640
 21
2.966040
 12
4.917880
 22
2.244440
 13
4.922280
 23
2.984960
  0
POLYLINE
  8
0
  6
CONTINUOUS
 66
     1
 40
0.000000
 41
0.000000
  0
VERTEX
  8
0
  6
CONTINUOUS
 10
4.882240
 20
2.225520
  0
VERTEX
  8
0
  6
CONTINUOUS
 10
4.886640
 20
2.966040
  0
VERTEX
  8
0
  6
CONTINUOUS
 10
4.922280
 20
2.984960
  0
VERTEX
  8
0
  6
CONTINUOUS
 10
4.917880
 20
2.244440
  0
VERTEX
  8
0
  6
CONTINUOUS
 10
4.882240
 20
2.225520
  0
SEQEND
  8
0
  0
SOLID
  8
0
 62
    15
 10
4.917880
 20
2.244440
 11
4.922280
 21
2.984960
 12
4.950000
 22
2.256320
 13
4.953960
 23
2.997280
  0
POLYLINE
  8
0
  6
CONTINUOUS
 66
     1
 40
0.000000
 41
0.000000
  0
VERTEX
  8
0
  6
CONTINUOUS
 10
4.917880
 20
2.244440
  0
VERTEX
  8
0
  6
CONTINUOUS
 10
4.922280
 20
2.984960
  0
VERTEX
  8
0
  6
CONTINUOUS
 10
4.953960
 20
2.997280
  0
VERTEX
  8
0
  6
CONTINUOUS
 10
4.950000
 20
2.256320
  0
VERTEX
  8
0
  6
CONTINUOUS
 10
4.917880
 20
2.244440
  0
SEQEND
  8
0
  0
SOLID
  8
0
 62
    15
 10
4.950000
 20
2.256320
 11
4.953960
 21
2.997280
 12
4.961880
 22
2.261160
 13
4.965840
 23
3.001680
  0
POLYLINE
  8
0
  6
CONTINUOUS
 66
     1
 40
0.000000
 41
0.000000
  0
VERTEX
  8
0
  6
CONTINUOUS
 10
4.950000
 20
2.256320
  0
VERTEX
  8
0
  6
CONTINUOUS
 10
4.953960
 20
2.997280
  0
VERTEX
  8
0
  6
CONTINUOUS
 10
4.965840
 20
3.001680
  0
VERTEX
  8
0
  6
CONTINUOUS
 10
4.961880
 20
2.261160
  0
VERTEX
  8
0
  6
CONTINUOUS
 10
4.950000
 20
2.256320
  0
SEQEND
  8
0
  0
SOLID
  8
0
 62
    15
 10
4.961880
 20
2.261160
 11
4.965840
 21
3.001680
 12
4.969800
 22
2.267320
 13
4.974200
 23
3.007840
  0
POLYLINE
  8
0
  6
CONTINUOUS
 66
     1
 40
0.000000
 41
0.000000
  0
VERTEX
  8
0
  6
CONTINUOUS
 10
4.961880
 20
2.261160
  0
VERTEX
  8
0
  6
CONTINUOUS
 10
4.965840
 20
3.001680
  0
VERTEX
  8
0
  6
CONTINUOUS
 10
4.974200
 20
3.007840
  0
VERTEX
  8
0
  6
CONTINUOUS
 10
4.969800
 20
2.267320
  0
VERTEX
  8
0
  6
CONTINUOUS
 10
4.961880
 20
2.261160
  0
SEQEND
  8
0
  0
SOLID
  8
0
 62
    15
 10
4.969800
 20
2.267320
 11
4.974200
 21
3.007840
 12
4.979480
 22
2.282280
 13
4.983880
 23
3.023240
  0
POLYLINE
  8
0
  6
CONTINUOUS
 66
     1
 40
0.000000
 41
0.000000
  0
VERTEX
  8
0
  6
CONTINUOUS
 10
4.969800
 20
2.267320
  0
VERTEX
  8
0
  6
CONTINUOUS
 10
4.974200
 20
3.007840
  0
VERTEX
  8
0
  6
CONTINUOUS
 10
4.983880
 20
3.023240
  0
VERTEX
  8
0
  6
CONTINUOUS
 10
4.979480
 20
2.282280
  0
VERTEX
  8
0
  6
CONTINUOUS
 10
4.969800
 20
2.267320
  0
SEQEND
  8
0
  0
SOLID
  8
0
 62
    15
 10
4.979480
 20
2.282280
 11
4.983880
 21
3.023240
 12
4.983440
 22
2.291080
 13
4.987400
 23
3.032040
  0
POLYLINE
  8
0
  6
CONTINUOUS
 66
     1
 40
0.000000
 41
0.000000
  0
VERTEX
  8
0
  6
CONTINUOUS
 10
4.979480
 20
2.282280
  0
VERTEX
  8
0
  6
CONTINUOUS
 10
4.983880
 20
3.023240
  0
VERTEX
  8
0
  6
CONTINUOUS
 10
4.987400
 20
3.032040
  0
VERTEX
  8
0
  6
CONTINUOUS
 10
4.983440
 20
2.291080
  0
VERTEX
  8
0
  6
CONTINUOUS
 10
4.979480
 20
2.282280
  0
SEQEND
  8
0
  0
SOLID
  8
0
 62
    15
 10
4.983440
 20
2.291080
 11
4.987400
 21
3.032040
 12
4.988280
 22
2.300320
 13
4.992240
 23
3.041280
  0
POLYLINE
  8
0
  6
CONTINUOUS
 66
     1
 40
0.000000
 41
0.000000
  0
VERTEX
  8
0
  6
CONTINUOUS
 10
4.983440
 20
2.291080
  0
VERTEX
  8
0
  6
CONTINUOUS
 10
4.987400
 20
3.032040
  0
VERTEX
  8
0
  6
CONTINUOUS
 10
4.992240
 20
3.041280
  0
VERTEX
  8
0
  6
CONTINUOUS
 10
4.988280
 20
2.300320
  0
VERTEX
  8
0
  6
CONTINUOUS
 10
4.983440
 20
2.291080
  0
SEQEND
  8
0
  0
SOLID
  8
0
 62
    15
 10
4.988280
 20
2.300320
 11
4.992240
 21
3.041280
 12
5.005880
 22
2.319240
 13
5.009840
 23
3.059760
  0
POLYLINE
  8
0
  6
CONTINUOUS
 66
     1
 40
0.000000
 41
0.000000
  0
VERTEX
  8
0
  6
CONTINUOUS
 10
4.988280
 20
2.300320
  0
VERTEX
  8
0
  6
CONTINUOUS
 10
4.992240
 20
3.041280
  0
VERTEX
  8
0
  6
CONTINUOUS
 10
5.009840
 20
3.059760
  0
VERTEX
  8
0
  6
CONTINUOUS
 10
5.005880
 20
2.319240
  0
VERTEX
  8
0
  6
CONTINUOUS
 10
4.988280
 20
2.300320
  0
SEQEND
  8
0
  0
SOLID
  8
0
 62
    15
 10
5.005880
 20
2.319240
 11
5.009840
 21
3.059760
 12
5.020840
 22
2.327600
 13
5.024800
 23
3.068560
  0
POLYLINE
  8
0
  6
CONTINUOUS
 66
     1
 40
0.000000
 41
0.000000
  0
VERTEX
  8
0
  6
CONTINUOUS
 10
5.005880
 20
2.319240
  0
VERTEX
  8
0
  6
CONTINUOUS
 10
5.009840
 20
3.059760
  0
VERTEX
  8
0
  6
CONTINUOUS
 10
5.024800
 20
3.068560
  0
VERTEX
  8
0
  6
CONTINUOUS
 10
5.020840
 20
2.327600
  0
VERTEX
  8
0
  6
CONTINUOUS
 10
5.005880
 20
2.319240
  0
SEQEND
  8
0
  0
SOLID
  8
0
 62
    15
 10
5.020840
 20
2.327600
 11
5.024800
 21
3.068560
 12
5.038880
 22
2.335520
 13
5.043280
 23
3.076480
  0
POLYLINE
  8
0
  6
CONTINUOUS
 66
     1
 40
0.000000
 41
0.000000
  0
VERTEX
  8
0
  6
CONTINUOUS
 10
5.020840
 20
2.327600
  0
VERTEX
  8
0
  6
CONTINUOUS
 10
5.024800
 20
3.068560
  0
VERTEX
  8
0
  6
CONTINUOUS
 10
5.043280
 20
3.076480
  0
VERTEX
  8
0
  6
CONTINUOUS
 10
5.038880
 20
2.335520
  0
VERTEX
  8
0
  6
CONTINUOUS
 10
5.020840
 20
2.327600
  0
SEQEND
  8
0
  0
SOLID
  8
0
 62
    15
 10
5.038880
 20
2.335520
 11
5.043280
 21
3.076480
 12
5.049000
 22
2.339480
 13
5.053400
 23
3.080440
  0
POLYLINE
  8
0
  6
CONTINUOUS
 66
     1
 40
0.000000
 41
0.000000
  0
VERTEX
  8
0
  6
CONTINUOUS
 10
5.038880
 20
2.335520
  0
VERTEX
  8
0
  6
CONTINUOUS
 10
5.043280
 20
3.076480
  0
VERTEX
  8
0
  6
CONTINUOUS
 10
5.053400
 20
3.080440
  0
VERTEX
  8
0
  6
CONTINUOUS
 10
5.049000
 20
2.339480
  0
VERTEX
  8
0
  6
CONTINUOUS
 10
5.038880
 20
2.335520
  0
SEQEND
  8
0
  0
SOLID
  8
0
 62
    15
 10
5.049000
 20
2.339480
 11
5.053400
 21
3.080440
 12
5.059560
 22
2.343880
 13
5.063520
 23
3.084840
  0
POLYLINE
  8
0
  6
CONTINUOUS
 66
     1
 40
0.000000
 41
0.000000
  0
VERTEX
  8
0
  6
CONTINUOUS
 10
5.049000
 20
2.339480
  0
VERTEX
  8
0
  6
CONTINUOUS
 10
5.053400
 20
3.080440
  0
VERTEX
  8
0
  6
CONTINUOUS
 10
5.063520
 20
3.084840
  0
VERTEX
  8
0
  6
CONTINUOUS
 10
5.059560
 20
2.343880
  0
VERTEX
  8
0
  6
CONTINUOUS
 10
5.049000
 20
2.339480
  0
SEQEND
  8
0
  0
SOLID
  8
0
 62
    15
 10
5.059560
 20
2.343880
 11
5.063520
 21
3.084840
 12
5.080680
 22
2.354440
 13
5.084640
 23
3.094960
  0
POLYLINE
  8
0
  6
CONTINUOUS
 66
     1
 40
0.000000
 41
0.000000
  0
VERTEX
  8
0
  6
CONTINUOUS
 10
5.059560
 20
2.343880
  0
VERTEX
  8
0
  6
CONTINUOUS
 10
5.063520
 20
3.084840
  0
VERTEX
  8
0
  6
CONTINUOUS
 10
5.084640
 20
3.094960
  0
VERTEX
  8
0
  6
CONTINUOUS
 10
5.080680
 20
2.354440
  0
VERTEX
  8
0
  6
CONTINUOUS
 10
5.059560
 20
2.343880
  0
SEQEND
  8
0
  0
SOLID
  8
0
 62
    15
 10
5.080680
 20
2.354440
 11
5.084640
 21
3.094960
 12
5.100480
 22
2.368080
 13
5.104880
 23
3.108600
  0
POLYLINE
  8
0
  6
CONTINUOUS
 66
     1
 40
0.000000
 41
0.000000
  0
VERTEX
  8
0
  6
CONTINUOUS
 10
5.080680
 20
2.354440
  0
VERTEX
  8
0
  6
CONTINUOUS
 10
5.084640
 20
3.094960
  0
VERTEX
  8
0
  6
CONTINUOUS
 10
5.104880
 20
3.108600
  0
VERTEX
  8
0
  6
CONTINUOUS
 10
5.100480
 20
2.368080
  0
VERTEX
  8
0
  6
CONTINUOUS
 10
5.080680
 20
2.354440
  0
SEQEND
  8
0
  0
SOLID
  8
0
 62
    15
 10
5.100480
 20
2.368080
 11
5.104880
 21
3.108600
 12
5.118080
 22
2.385680
 13
5.122480
 23
3.126640
  0
POLYLINE
  8
0
  6
CONTINUOUS
 66
     1
 40
0.000000
 41
0.000000
  0
VERTEX
  8
0
  6
CONTINUOUS
 10
5.100480
 20
2.368080
  0
VERTEX
  8
0
  6
CONTINUOUS
 10
5.104880
 20
3.108600
  0
VERTEX
  8
0
  6
CONTINUOUS
 10
5.122480
 20
3.126640
  0
VERTEX
  8
0
  6
CONTINUOUS
 10
5.118080
 20
2.385680
  0
VERTEX
  8
0
  6
CONTINUOUS
 10
5.100480
 20
2.368080
  0
SEQEND
  8
0
  0
SOLID
  8
0
 62
    15
 10
5.118080
 20
2.385680
 11
5.122480
 21
3.126640
 12
5.131720
 22
2.409440
 13
5.136120
 23
3.150400
  0
POLYLINE
  8
0
  6
CONTINUOUS
 66
     1
 40
0.000000
 41
0.000000
  0
VERTEX
  8
0
  6
CONTINUOUS
 10
5.118080
 20
2.385680
  0
VERTEX
  8
0
  6
CONTINUOUS
 10
5.122480
 20
3.126640
  0
VERTEX
  8
0
  6
CONTINUOUS
 10
5.136120
 20
3.150400
  0
VERTEX
  8
0
  6
CONTINUOUS
 10
5.131720
 20
2.409440
  0
VERTEX
  8
0
  6
CONTINUOUS
 10
5.118080
 20
2.385680
  0
SEQEND
  8
0
  0
SOLID
  8
0
 62
    15
 10
5.131720
 20
2.409440
 11
5.136120
 21
3.150400
 12
5.140080
 22
2.440240
 13
5.144040
 23
3.180760
  0
POLYLINE
  8
0
  6
CONTINUOUS
 66
     1
 40
0.000000
 41
0.000000
  0
VERTEX
  8
0
  6
CONTINUOUS
 10
5.131720
 20
2.409440
  0
VERTEX
  8
0
  6
CONTINUOUS
 10
5.136120
 20
3.150400
  0
VERTEX
  8
0
  6
CONTINUOUS
 10
5.144040
 20
3.180760
  0
VERTEX
  8
0
  6
CONTINUOUS
 10
5.140080
 20
2.440240
  0
VERTEX
  8
0
  6
CONTINUOUS
 10
5.131720
 20
2.409440
  0
SEQEND
  8
0
  0
SOLID
  8
0
 62
    15
 10
5.140080
 20
2.440240
 11
5.144040
 21
3.180760
 12
5.141840
 22
2.441560
 13
5.146240
 23
3.182520
  0
POLYLINE
  8
0
  6
CONTINUOUS
 66
     1
 40
0.000000
 41
0.000000
  0
VERTEX
  8
0
  6
CONTINUOUS
 10
5.140080
 20
2.440240
  0
VERTEX
  8
0
  6
CONTINUOUS
 10
5.144040
 20
3.180760
  0
VERTEX
  8
0
  6
CONTINUOUS
 10
5.146240
 20
3.182520
  0
VERTEX
  8
0
  6
CONTINUOUS
 10
5.141840
 20
2.441560
  0
VERTEX
  8
0
  6
CONTINUOUS
 10
5.140080
 20
2.440240
  0
SEQEND
  8
0
  0
SOLID
  8
0
 62
    15
 10
5.708560
 20
2.441560
 11
5.712960
 21
3.182520
 12
5.708560
 22
1.683880
 13
5.712960
 23
2.424840
  0
POLYLINE
  8
0
  6
CONTINUOUS
 66
     1
 40
0.000000
 41
0.000000
  0
VERTEX
  8
0
  6
CONTINUOUS
 10
5.708560
 20
2.441560
  0
VERTEX
  8
0
  6
CONTINUOUS
 10
5.712960
 20
3.182520
  0
VERTEX
  8
0
  6
CONTINUOUS
 10
5.712960
 20
2.424840
  0
VERTEX
  8
0
  6
CONTINUOUS
 10
5.708560
 20
1.683880
  0
VERTEX
  8
0
  6
CONTINUOUS
 10
5.708560
 20
2.441560
  0
SEQEND
  8
0
  0
SOLID
  8
0
 62
    15
 10
5.141840
 20
2.441560
 11
5.146240
 21
3.182520
 12
5.708560
 22
2.441560
 13
5.712960
 23
3.182520
  0
POLYLINE
  8
0
  6
CONTINUOUS
 66
     1
 40
0.000000
 41
0.000000
  0
VERTEX
  8
0
  6
CONTINUOUS
 10
5.141840
 20
2.441560
  0
VERTEX
  8
0
  6
CONTINUOUS
 10
5.146240
 20
3.182520
  0
VERTEX
  8
0
  6
CONTINUOUS
 10
5.712960
 20
3.182520
  0
VERTEX
  8
0
  6
CONTINUOUS
 10
5.708560
 20
2.441560
  0
VERTEX
  8
0
  6
CONTINUOUS
 10
5.141840
 20
2.441560
  0
SEQEND
  8
0
  0
SOLID
  8
0
 62
    15
 10
2.746480
 20
1.687840
 11
2.750880
 21
2.428360
 12
2.747800
 22
1.691800
 13
2.752200
 23
2.432760
  0
POLYLINE
  8
0
  6
CONTINUOUS
 66
     1
 40
0.000000
 41
0.000000
  0
VERTEX
  8
0
  6
CONTINUOUS
 10
2.746480
 20
1.687840
  0
VERTEX
  8
0
  6
CONTINUOUS
 10
2.750880
 20
2.428360
  0
VERTEX
  8
0
  6
CONTINUOUS
 10
2.752200
 20
2.432760
  0
VERTEX
  8
0
  6
CONTINUOUS
 10
2.747800
 20
1.691800
  0
VERTEX
  8
0
  6
CONTINUOUS
 10
2.746480
 20
1.687840
  0
SEQEND
  8
0
  0
POLYLINE
  8
0
  6
CONTINUOUS
 66
     1
 40
0.000000
 41
0.000000
  0
VERTEX
  8
0
  6
CONTINUOUS
 10
2.747800
 20
1.691800
  0
VERTEX
  8
0
  6
CONTINUOUS
 10
2.747800
 20
2.446400
  0
VERTEX
  8
0
  6
CONTINUOUS
 10
2.749120
 20
2.445080
  0
VERTEX
  8
0
  6
CONTINUOUS
 10
3.350600
 20
2.445080
  0
VERTEX
  8
0
  6
CONTINUOUS
 10
3.349280
 20
2.445520
  0
VERTEX
  8
0
  6
CONTINUOUS
 10
3.357640
 20
2.415160
  0
VERTEX
  8
0
  6
CONTINUOUS
 10
3.371280
 20
2.391400
  0
VERTEX
  8
0
  6
CONTINUOUS
 10
3.388880
 20
2.373360
  0
VERTEX
  8
0
  6
CONTINUOUS
 10
3.408680
 20
2.360160
  0
VERTEX
  8
0
  6
CONTINUOUS
 10
3.450040
 20
2.341240
  0
VERTEX
  8
0
  6
CONTINUOUS
 10
3.468520
 20
2.333320
  0
VERTEX
  8
0
  6
CONTINUOUS
 10
3.483480
 20
2.324960
  0
VERTEX
  8
0
  6
CONTINUOUS
 10
3.501080
 20
2.306040
  0
VERTEX
  8
0
  6
CONTINUOUS
 10
3.519120
 20
2.272600
  0
VERTEX
  8
0
  6
CONTINUOUS
 10
3.527480
 20
2.266880
  0
VERTEX
  8
0
  6
CONTINUOUS
 10
3.571480
 20
2.250160
  0
VERTEX
  8
0
  6
CONTINUOUS
 10
3.606680
 20
2.230800
  0
VERTEX
  8
0
  6
CONTINUOUS
 10
3.641000
 20
2.207920
  0
VERTEX
  8
0
  6
CONTINUOUS
 10
3.669160
 20
2.183720
  0
VERTEX
  8
0
  6
CONTINUOUS
 10
3.737360
 20
2.223320
  0
VERTEX
  8
0
  6
CONTINUOUS
 10
3.806440
 20
2.255440
  0
VERTEX
  8
0
  6
CONTINUOUS
 10
3.878160
 20
2.281840
  0
VERTEX
  8
0
  6
CONTINUOUS
 10
3.952080
 20
2.302520
  0
VERTEX
  8
0
  6
CONTINUOUS
 10
4.026880
 20
2.317920
  0
VERTEX
  8
0
  6
CONTINUOUS
 10
4.103000
 20
2.328040
  0
VERTEX
  8
0
  6
CONTINUOUS
 10
4.180000
 20
2.332880
  0
VERTEX
  8
0
  6
CONTINUOUS
 10
4.256560
 20
2.333320
  0
VERTEX
  8
0
  6
CONTINUOUS
 10
4.333120
 20
2.328480
  0
VERTEX
  8
0
  6
CONTINUOUS
 10
4.408800
 20
2.319240
  0
VERTEX
  8
0
  6
CONTINUOUS
 10
4.483600
 20
2.306040
  0
VERTEX
  8
0
  6
CONTINUOUS
 10
4.556200
 20
2.288000
  0
VERTEX
  8
0
  6
CONTINUOUS
 10
4.627040
 20
2.266000
  0
VERTEX
  8
0
  6
CONTINUOUS
 10
4.695680
 20
2.240040
  0
VERTEX
  8
0
  6
CONTINUOUS
 10
4.760800
 20
2.210560
  0
VERTEX
  8
0
  6
CONTINUOUS
 10
4.822840
 20
2.177120
  0
VERTEX
  8
0
  6
CONTINUOUS
 10
4.820200
 20
2.178440
  0
VERTEX
  8
0
  6
CONTINUOUS
 10
4.848360
 20
2.202200
  0
VERTEX
  8
0
  6
CONTINUOUS
 10
4.882240
 20
2.225520
  0
VERTEX
  8
0
  6
CONTINUOUS
 10
4.917880
 20
2.244440
  0
VERTEX
  8
0
  6
CONTINUOUS
 10
4.961880
 20
2.261160
  0
VERTEX
  8
0
  6
CONTINUOUS
 10
4.969800
 20
2.267320
  0
VERTEX
  8
0
  6
CONTINUOUS
 10
4.979480
 20
2.282280
  0
VERTEX
  8
0
  6
CONTINUOUS
 10
4.988280
 20
2.300320
  0
VERTEX
  8
0
  6
CONTINUOUS
 10
5.005880
 20
2.319240
  0
VERTEX
  8
0
  6
CONTINUOUS
 10
5.038880
 20
2.335520
  0
VERTEX
  8
0
  6
CONTINUOUS
 10
5.059560
 20
2.343880
  0
VERTEX
  8
0
  6
CONTINUOUS
 10
5.080680
 20
2.354440
  0
VERTEX
  8
0
  6
CONTINUOUS
 10
5.100480
 20
2.368080
  0
VERTEX
  8
0
  6
CONTINUOUS
 10
5.118080
 20
2.385680
  0
VERTEX
  8
0
  6
CONTINUOUS
 10
5.131720
 20
2.409440
  0
VERTEX
  8
0
  6
CONTINUOUS
 10
5.140080
 20
2.440240
  0
VERTEX
  8
0
  6
CONTINUOUS
 10
5.141840
 20
2.441560
  0
VERTEX
  8
0
  6
CONTINUOUS
 10
5.708560
 20
2.441560
  0
VERTEX
  8
0
  6
CONTINUOUS
 10
5.708560
 20
1.683880
  0
VERTEX
  8
0
  6
CONTINUOUS
 10
5.707240
 20
1.687400
  0
VERTEX
  8
0
  6
CONTINUOUS
 10
2.746480
 20
1.687840
  0
VERTEX
  8
0
  6
CONTINUOUS
 10
2.747800
 20
1.691800
  0
SEQEND
  8
0
  0
TEXT
  8
0
 10
3.979360
 20
1.413280
 40
0.138139
  1
BA  31
 41
1.000000
  7
SN0
 71
     0
 72
     5
 11
4.477375
 21
1.413280
  0
TEXT
  8
0
 10
3.920400
 20
1.221440
 40
0.138139
  1
3/4" x 3"
 41
1.000000
  7
SN0
 71
     0
 72
     5
 11
4.535586
 21
1.221440
  0
ENDSEC
  0
EOF
