  0
SECTION
  2
HEADER
  9
$ACADVER
  1
AC1006
  9
$EXTMIN
 10
1.822040
 20
1.537360
  9
$EXTMAX
 10
6.386160
 20
4.512640
  9
$LTSCALE
 40
0.044000
  9
$PDMODE
 70
    35
  9
$PDSIZE
 40
0.035200
  0
ENDSEC
  0
SECTION
  2
TABLES
  0
TABLE
  2
LTYPE
 70
     9
  0
LTYPE
  2
CONTINUOUS
 70
    64
  3
Solid line
 72
    65
 73
     0
 40
0.000000
  0
LTYPE
  2
DASHED
 70
    64
  3
__ __ __ __ __ __ __ __ __ __ __ __ __ __ __
 72
    65
 73
     2
 40
0.000330
 49
0.000220
 49
-0.000110
  0
LTYPE
  2
HIDDEN
 70
    64
  3
 _ _ _ _ _ _ _ _ _ _ _ _ _ _ _ _ _ _ _ _ _ _
 72
    65
 73
     2
 40
0.000165
 49
0.000110
 49
-0.000055
  0
LTYPE
  2
CENTER
 70
    64
  3
____ _ ____ _ ____ _ ____ _ ____ _ ____ _ ____
 72
    65
 73
     4
 40
0.000880
 49
0.000550
 49
-0.000110
 49
0.000110
 49
-0.000110
  0
LTYPE
  2
PHANTOM
 70
    64
  3
_____ _ _ _____ _ _ _____ _ _ _____ _ _ ____
 72
    65
 73
     6
 40
0.001100
 49
0.000550
 49
-0.000110
 49
0.000110
 49
-0.000110
 49
0.000110
 49
-0.000110
  0
LTYPE
  2
DOT
 70
    64
  3
...............................................
 72
    65
 73
     2
 40
0.000110
 49
0.000000
 49
-0.000110
  0
LTYPE
  2
DASHDOT
 70
    64
  3
__ . __ . __ . __ . __ . __ . __ . __ . __ . __
 72
    65
 73
     4
 40
0.000440
 49
0.000220
 49
-0.000110
 49
0.000000
 49
-0.000110
  0
LTYPE
  2
BORDER
 70
    64
  3
__ __ . __ __ . __ __ . __ __ . __ __ . __ __
 72
    65
 73
     6
 40
0.000770
 49
0.000220
 49
-0.000110
 49
0.000220
 49
-0.000110
 49
0.000000
 49
-0.000110
  0
LTYPE
  2
DIVIDE
 70
    64
  3
__ . . __ . . __ . . __ . . __ . . __ . . __
 72
    65
 73
     6
 40
0.000550
 49
0.000220
 49
-0.000110
 49
0.000000
 49
-0.000110
 49
0.000000
 49
-0.000110
  0
LTYPE
  2
DOTDOT
 70
    64
  3
 . .  . .  . .  . .  . .  . . 
 72
    65
 73
     5
 40
0.000242
 49
-0.000110
 49
0.000000
 49
-0.000110
 49
0.000000
 49
-0.000110
  0
ENDTAB
  0
TABLE
  2
STYLE
 70
     2
  0
STYLE
 70
     0
  2
SN0
 40
0.000000
 41
0.000440
 50
0.000000
 71
     0
 42
0.000000
  3
ROMAND
  0
STYLE
 70
    68
  2
SV0
 40
0.000000
 41
0.000440
 50
0.000000
 71
     0
 42
0.000000
  3
ROMAND
  0
ENDTAB
  0
TABLE
  2
LAYER
 70
     3
  0
LAYER
  2
FOREGROUND
 70
    64
 62
     7
  6
CONTINUOUS
  0
LAYER
  2
BACKGROUND
 70
    65
 62
    -7
  6
CONTINUOUS
  0
LAYER
  2
0
 70
    64
 62
     7
  6
CONTINUOUS
  0
ENDTAB
  0
ENDSEC
  0
SECTION
  2
ENTITIES
  0
POLYLINE
  8
FOREGROUND
  6
CONTINUOUS
 66
     1
 40
0.000000
 41
0.000000
  0
VERTEX
  8
FOREGROUND
  6
CONTINUOUS
 10
0.000000
 20
6.050000
  0
VERTEX
  8
FOREGROUND
  6
CONTINUOUS
 10
8.499920
 20
6.050000
  0
VERTEX
  8
FOREGROUND
  6
CONTINUOUS
 10
8.499920
 20
-4.950000
  0
VERTEX
  8
FOREGROUND
  6
CONTINUOUS
 10
0.000000
 20
-4.950000
  0
VERTEX
  8
FOREGROUND
  6
CONTINUOUS
 10
0.000000
 20
6.050000
  0
SEQEND
  8
0
  0
POLYLINE
  8
FOREGROUND
  6
CONTINUOUS
 66
     1
 40
0.000000
 41
0.000000
  0
VERTEX
  8
FOREGROUND
  6
CONTINUOUS
 10
0.000000
 20
6.050000
  0
VERTEX
  8
FOREGROUND
  6
CONTINUOUS
 10
8.499920
 20
6.050000
  0
VERTEX
  8
FOREGROUND
  6
CONTINUOUS
 10
8.499920
 20
-4.950000
  0
VERTEX
  8
FOREGROUND
  6
CONTINUOUS
 10
0.000000
 20
-4.950000
  0
VERTEX
  8
FOREGROUND
  6
CONTINUOUS
 10
0.000000
 20
6.050000
  0
SEQEND
  8
0
  0
POLYLINE
  8
0
  6
CONTINUOUS
 66
     1
 40
0.014080
 41
0.014080
  0
VERTEX
  8
0
  6
CONTINUOUS
 10
6.375160
 20
3.707880
  0
VERTEX
  8
0
  6
CONTINUOUS
 10
1.828200
 20
3.707880
  0
VERTEX
  8
0
  6
CONTINUOUS
 10
1.829520
 20
3.707880
  0
VERTEX
  8
0
  6
CONTINUOUS
 10
1.829520
 20
4.505160
  0
VERTEX
  8
0
  6
CONTINUOUS
 10
1.828200
 20
4.505160
  0
VERTEX
  8
0
  6
CONTINUOUS
 10
2.548480
 20
4.505160
  0
VERTEX
  8
0
  6
CONTINUOUS
 10
2.737680
 20
4.323880
  0
VERTEX
  8
0
  6
CONTINUOUS
 10
2.773320
 20
4.354680
  0
VERTEX
  8
0
  6
CONTINUOUS
 10
2.807200
 20
4.378000
  0
VERTEX
  8
0
  6
CONTINUOUS
 10
2.839320
 20
4.394280
  0
VERTEX
  8
0
  6
CONTINUOUS
 10
2.869680
 20
4.403960
  0
VERTEX
  8
0
  6
CONTINUOUS
 10
2.884640
 20
4.406600
  0
VERTEX
  8
0
  6
CONTINUOUS
 10
2.912800
 20
4.407040
  0
VERTEX
  8
0
  6
CONTINUOUS
 10
2.926880
 20
4.405720
  0
VERTEX
  8
0
  6
CONTINUOUS
 10
2.953280
 20
4.398680
  0
VERTEX
  8
0
  6
CONTINUOUS
 10
2.979240
 20
4.387680
  0
VERTEX
  8
0
  6
CONTINUOUS
 10
3.015760
 20
4.363920
  0
VERTEX
  8
0
  6
CONTINUOUS
 10
3.051400
 20
4.333120
  0
VERTEX
  8
0
  6
CONTINUOUS
 10
3.096280
 20
4.284720
  0
VERTEX
  8
0
  6
CONTINUOUS
 10
3.207160
 20
4.152280
  0
VERTEX
  8
0
  6
CONTINUOUS
 10
3.253360
 20
4.105640
  0
VERTEX
  8
0
  6
CONTINUOUS
 10
3.289440
 20
4.077480
  0
VERTEX
  8
0
  6
CONTINUOUS
 10
3.314520
 20
4.062960
  0
VERTEX
  8
0
  6
CONTINUOUS
 10
3.340480
 20
4.051960
  0
VERTEX
  8
0
  6
CONTINUOUS
 10
3.367320
 20
4.045360
  0
VERTEX
  8
0
  6
CONTINUOUS
 10
3.395920
 20
4.044040
  0
VERTEX
  8
0
  6
CONTINUOUS
 10
3.410440
 20
4.045360
  0
VERTEX
  8
0
  6
CONTINUOUS
 10
3.440800
 20
4.052400
  0
VERTEX
  8
0
  6
CONTINUOUS
 10
3.472480
 20
4.066040
  0
VERTEX
  8
0
  6
CONTINUOUS
 10
3.505920
 20
4.086280
  0
VERTEX
  8
0
  6
CONTINUOUS
 10
3.541120
 20
4.113560
  0
VERTEX
  8
0
  6
CONTINUOUS
 10
3.578520
 20
4.149200
  0
VERTEX
  8
0
  6
CONTINUOUS
 10
3.619000
 20
4.194520
  0
VERTEX
  8
0
  6
CONTINUOUS
 10
3.704360
 20
4.194520
  0
VERTEX
  8
0
  6
CONTINUOUS
 10
3.739560
 20
4.241160
  0
VERTEX
  8
0
  6
CONTINUOUS
 10
3.775640
 20
4.280320
  0
VERTEX
  8
0
  6
CONTINUOUS
 10
3.813480
 20
4.313760
  0
VERTEX
  8
0
  6
CONTINUOUS
 10
3.852640
 20
4.341040
  0
VERTEX
  8
0
  6
CONTINUOUS
 10
3.879480
 20
4.356440
  0
VERTEX
  8
0
  6
CONTINUOUS
 10
3.906760
 20
4.369200
  0
VERTEX
  8
0
  6
CONTINUOUS
 10
3.934480
 20
4.380200
  0
VERTEX
  8
0
  6
CONTINUOUS
 10
3.962200
 20
4.388560
  0
VERTEX
  8
0
  6
CONTINUOUS
 10
3.990360
 20
4.395160
  0
VERTEX
  8
0
  6
CONTINUOUS
 10
4.018520
 20
4.399560
  0
VERTEX
  8
0
  6
CONTINUOUS
 10
4.046680
 20
4.402200
  0
VERTEX
  8
0
  6
CONTINUOUS
 10
4.074840
 20
4.403080
  0
VERTEX
  8
0
  6
CONTINUOUS
 10
4.130720
 20
4.399120
  0
VERTEX
  8
0
  6
CONTINUOUS
 10
4.184840
 20
4.389000
  0
VERTEX
  8
0
  6
CONTINUOUS
 10
4.237200
 20
4.372720
  0
VERTEX
  8
0
  6
CONTINUOUS
 10
4.262280
 20
4.363040
  0
VERTEX
  8
0
  6
CONTINUOUS
 10
4.310240
 20
4.339280
  0
VERTEX
  8
0
  6
CONTINUOUS
 10
4.333120
 20
4.326080
  0
VERTEX
  8
0
  6
CONTINUOUS
 10
4.374920
 20
4.296160
  0
VERTEX
  8
0
  6
CONTINUOUS
 10
4.412320
 20
4.263600
  0
VERTEX
  8
0
  6
CONTINUOUS
 10
4.444000
 20
4.227960
  0
VERTEX
  8
0
  6
CONTINUOUS
 10
4.469520
 20
4.190560
  0
VERTEX
  8
0
  6
CONTINUOUS
 10
4.562800
 20
4.190560
  0
VERTEX
  8
0
  6
CONTINUOUS
 10
4.602840
 20
4.145240
  0
VERTEX
  8
0
  6
CONTINUOUS
 10
4.639800
 20
4.110480
  0
VERTEX
  8
0
  6
CONTINUOUS
 10
4.675000
 20
4.083640
  0
VERTEX
  8
0
  6
CONTINUOUS
 10
4.708440
 20
4.063840
  0
VERTEX
  8
0
  6
CONTINUOUS
 10
4.740560
 20
4.051080
  0
VERTEX
  8
0
  6
CONTINUOUS
 10
4.755960
 20
4.046680
  0
VERTEX
  8
0
  6
CONTINUOUS
 10
4.785880
 20
4.042720
  0
VERTEX
  8
0
  6
CONTINUOUS
 10
4.814480
 20
4.044480
  0
VERTEX
  8
0
  6
CONTINUOUS
 10
4.842200
 20
4.050640
  0
VERTEX
  8
0
  6
CONTINUOUS
 10
4.869040
 20
4.061200
  0
VERTEX
  8
0
  6
CONTINUOUS
 10
4.907320
 20
4.084080
  0
VERTEX
  8
0
  6
CONTINUOUS
 10
4.931960
 20
4.103440
  0
VERTEX
  8
0
  6
CONTINUOUS
 10
4.956160
 20
4.125000
  0
VERTEX
  8
0
  6
CONTINUOUS
 10
5.002360
 20
4.173840
  0
VERTEX
  8
0
  6
CONTINUOUS
 10
5.115880
 20
4.302760
  0
VERTEX
  8
0
  6
CONTINUOUS
 10
5.162520
 20
4.346320
  0
VERTEX
  8
0
  6
CONTINUOUS
 10
5.198600
 20
4.371840
  0
VERTEX
  8
0
  6
CONTINUOUS
 10
5.223240
 20
4.384600
  0
VERTEX
  8
0
  6
CONTINUOUS
 10
5.249200
 20
4.393400
  0
VERTEX
  8
0
  6
CONTINUOUS
 10
5.275600
 20
4.397800
  0
VERTEX
  8
0
  6
CONTINUOUS
 10
5.302880
 20
4.396920
  0
VERTEX
  8
0
  6
CONTINUOUS
 10
5.331480
 20
4.390320
  0
VERTEX
  8
0
  6
CONTINUOUS
 10
5.346000
 20
4.385040
  0
VERTEX
  8
0
  6
CONTINUOUS
 10
5.376360
 20
4.368760
  0
VERTEX
  8
0
  6
CONTINUOUS
 10
5.408480
 20
4.346320
  0
VERTEX
  8
0
  6
CONTINUOUS
 10
5.444120
 20
4.313320
  0
VERTEX
  8
0
  6
CONTINUOUS
 10
5.461720
 20
4.313320
  0
VERTEX
  8
0
  6
CONTINUOUS
 10
5.461720
 20
4.315960
  0
VERTEX
  8
0
  6
CONTINUOUS
 10
5.614840
 20
4.501200
  0
VERTEX
  8
0
  6
CONTINUOUS
 10
6.379120
 20
4.501200
  0
VERTEX
  8
0
  6
CONTINUOUS
 10
6.379120
 20
3.707880
  0
VERTEX
  8
0
  6
CONTINUOUS
 10
6.375160
 20
3.707880
  0
SEQEND
  8
0
  0
SOLID
  8
0
 62
    15
 10
4.126760
 20
2.713040
 11
4.126320
 21
3.462800
 12
4.181320
 22
2.702920
 13
4.180880
 23
3.452680
  0
POLYLINE
  8
0
  6
CONTINUOUS
 66
     1
 40
0.000000
 41
0.000000
  0
VERTEX
  8
0
  6
CONTINUOUS
 10
4.126760
 20
2.713040
  0
VERTEX
  8
0
  6
CONTINUOUS
 10
4.126320
 20
3.462800
  0
VERTEX
  8
0
  6
CONTINUOUS
 10
4.180880
 20
3.452680
  0
VERTEX
  8
0
  6
CONTINUOUS
 10
4.181320
 20
2.702920
  0
VERTEX
  8
0
  6
CONTINUOUS
 10
4.126760
 20
2.713040
  0
SEQEND
  8
0
  0
SOLID
  8
0
 62
    15
 10
1.826000
 20
2.021800
 11
1.825560
 21
2.771560
 12
1.826000
 22
2.819080
 13
1.825560
 23
3.568840
  0
POLYLINE
  8
0
  6
CONTINUOUS
 66
     1
 40
0.000000
 41
0.000000
  0
VERTEX
  8
0
  6
CONTINUOUS
 10
1.826000
 20
2.021800
  0
VERTEX
  8
0
  6
CONTINUOUS
 10
1.825560
 20
2.771560
  0
VERTEX
  8
0
  6
CONTINUOUS
 10
1.825560
 20
3.568840
  0
VERTEX
  8
0
  6
CONTINUOUS
 10
1.826000
 20
2.819080
  0
VERTEX
  8
0
  6
CONTINUOUS
 10
1.826000
 20
2.021800
  0
SEQEND
  8
0
  0
SOLID
  8
0
 62
    15
 10
2.544520
 20
2.819080
 11
2.544080
 21
3.568840
 12
2.732400
 22
2.637800
 13
2.732400
 23
3.387560
  0
POLYLINE
  8
0
  6
CONTINUOUS
 66
     1
 40
0.000000
 41
0.000000
  0
VERTEX
  8
0
  6
CONTINUOUS
 10
2.544520
 20
2.819080
  0
VERTEX
  8
0
  6
CONTINUOUS
 10
2.544080
 20
3.568840
  0
VERTEX
  8
0
  6
CONTINUOUS
 10
2.732400
 20
3.387560
  0
VERTEX
  8
0
  6
CONTINUOUS
 10
2.732400
 20
2.637800
  0
VERTEX
  8
0
  6
CONTINUOUS
 10
2.544520
 20
2.819080
  0
SEQEND
  8
0
  0
SOLID
  8
0
 62
    15
 10
2.732400
 20
2.637800
 11
2.732400
 21
3.387560
 12
2.733720
 22
2.637800
 13
2.733720
 23
3.387560
  0
POLYLINE
  8
0
  6
CONTINUOUS
 66
     1
 40
0.000000
 41
0.000000
  0
VERTEX
  8
0
  6
CONTINUOUS
 10
2.732400
 20
2.637800
  0
VERTEX
  8
0
  6
CONTINUOUS
 10
2.732400
 20
3.387560
  0
VERTEX
  8
0
  6
CONTINUOUS
 10
2.733720
 20
3.387560
  0
VERTEX
  8
0
  6
CONTINUOUS
 10
2.733720
 20
2.637800
  0
VERTEX
  8
0
  6
CONTINUOUS
 10
2.732400
 20
2.637800
  0
SEQEND
  8
0
  0
SOLID
  8
0
 62
    15
 10
2.733720
 20
2.637800
 11
2.733720
 21
3.387560
 12
2.769360
 22
2.668600
 13
2.768920
 23
3.418800
  0
POLYLINE
  8
0
  6
CONTINUOUS
 66
     1
 40
0.000000
 41
0.000000
  0
VERTEX
  8
0
  6
CONTINUOUS
 10
2.733720
 20
2.637800
  0
VERTEX
  8
0
  6
CONTINUOUS
 10
2.733720
 20
3.387560
  0
VERTEX
  8
0
  6
CONTINUOUS
 10
2.768920
 20
3.418800
  0
VERTEX
  8
0
  6
CONTINUOUS
 10
2.769360
 20
2.668600
  0
VERTEX
  8
0
  6
CONTINUOUS
 10
2.733720
 20
2.637800
  0
SEQEND
  8
0
  0
SOLID
  8
0
 62
    15
 10
2.769360
 20
2.668600
 11
2.768920
 21
3.418800
 12
2.803240
 22
2.691920
 13
2.802800
 23
3.441680
  0
POLYLINE
  8
0
  6
CONTINUOUS
 66
     1
 40
0.000000
 41
0.000000
  0
VERTEX
  8
0
  6
CONTINUOUS
 10
2.769360
 20
2.668600
  0
VERTEX
  8
0
  6
CONTINUOUS
 10
2.768920
 20
3.418800
  0
VERTEX
  8
0
  6
CONTINUOUS
 10
2.802800
 20
3.441680
  0
VERTEX
  8
0
  6
CONTINUOUS
 10
2.803240
 20
2.691920
  0
VERTEX
  8
0
  6
CONTINUOUS
 10
2.769360
 20
2.668600
  0
SEQEND
  8
0
  0
SOLID
  8
0
 62
    15
 10
2.803240
 20
2.691920
 11
2.802800
 21
3.441680
 12
2.835360
 22
2.708200
 13
2.834920
 23
3.457960
  0
POLYLINE
  8
0
  6
CONTINUOUS
 66
     1
 40
0.000000
 41
0.000000
  0
VERTEX
  8
0
  6
CONTINUOUS
 10
2.803240
 20
2.691920
  0
VERTEX
  8
0
  6
CONTINUOUS
 10
2.802800
 20
3.441680
  0
VERTEX
  8
0
  6
CONTINUOUS
 10
2.834920
 20
3.457960
  0
VERTEX
  8
0
  6
CONTINUOUS
 10
2.835360
 20
2.708200
  0
VERTEX
  8
0
  6
CONTINUOUS
 10
2.803240
 20
2.691920
  0
SEQEND
  8
0
  0
SOLID
  8
0
 62
    15
 10
2.835360
 20
2.708200
 11
2.834920
 21
3.457960
 12
2.865720
 22
2.717880
 13
2.865280
 23
3.467640
  0
POLYLINE
  8
0
  6
CONTINUOUS
 66
     1
 40
0.000000
 41
0.000000
  0
VERTEX
  8
0
  6
CONTINUOUS
 10
2.835360
 20
2.708200
  0
VERTEX
  8
0
  6
CONTINUOUS
 10
2.834920
 20
3.457960
  0
VERTEX
  8
0
  6
CONTINUOUS
 10
2.865280
 20
3.467640
  0
VERTEX
  8
0
  6
CONTINUOUS
 10
2.865720
 20
2.717880
  0
VERTEX
  8
0
  6
CONTINUOUS
 10
2.835360
 20
2.708200
  0
SEQEND
  8
0
  0
SOLID
  8
0
 62
    15
 10
2.865720
 20
2.717880
 11
2.865280
 21
3.467640
 12
2.894760
 22
2.721400
 13
2.894760
 23
3.471160
  0
POLYLINE
  8
0
  6
CONTINUOUS
 66
     1
 40
0.000000
 41
0.000000
  0
VERTEX
  8
0
  6
CONTINUOUS
 10
2.865720
 20
2.717880
  0
VERTEX
  8
0
  6
CONTINUOUS
 10
2.865280
 20
3.467640
  0
VERTEX
  8
0
  6
CONTINUOUS
 10
2.894760
 20
3.471160
  0
VERTEX
  8
0
  6
CONTINUOUS
 10
2.894760
 20
2.721400
  0
VERTEX
  8
0
  6
CONTINUOUS
 10
2.865720
 20
2.717880
  0
SEQEND
  8
0
  0
SOLID
  8
0
 62
    15
 10
2.894760
 20
2.721400
 11
2.894760
 21
3.471160
 12
2.922920
 22
2.719640
 13
2.922480
 23
3.469400
  0
POLYLINE
  8
0
  6
CONTINUOUS
 66
     1
 40
0.000000
 41
0.000000
  0
VERTEX
  8
0
  6
CONTINUOUS
 10
2.894760
 20
2.721400
  0
VERTEX
  8
0
  6
CONTINUOUS
 10
2.894760
 20
3.471160
  0
VERTEX
  8
0
  6
CONTINUOUS
 10
2.922480
 20
3.469400
  0
VERTEX
  8
0
  6
CONTINUOUS
 10
2.922920
 20
2.719640
  0
VERTEX
  8
0
  6
CONTINUOUS
 10
2.894760
 20
2.721400
  0
SEQEND
  8
0
  0
SOLID
  8
0
 62
    15
 10
2.922920
 20
2.719640
 11
2.922480
 21
3.469400
 12
2.949320
 22
2.712600
 13
2.949320
 23
3.462800
  0
POLYLINE
  8
0
  6
CONTINUOUS
 66
     1
 40
0.000000
 41
0.000000
  0
VERTEX
  8
0
  6
CONTINUOUS
 10
2.922920
 20
2.719640
  0
VERTEX
  8
0
  6
CONTINUOUS
 10
2.922480
 20
3.469400
  0
VERTEX
  8
0
  6
CONTINUOUS
 10
2.949320
 20
3.462800
  0
VERTEX
  8
0
  6
CONTINUOUS
 10
2.949320
 20
2.712600
  0
VERTEX
  8
0
  6
CONTINUOUS
 10
2.922920
 20
2.719640
  0
SEQEND
  8
0
  0
SOLID
  8
0
 62
    15
 10
2.949320
 20
2.712600
 11
2.949320
 21
3.462800
 12
2.975280
 22
2.701600
 13
2.974840
 23
3.451800
  0
POLYLINE
  8
0
  6
CONTINUOUS
 66
     1
 40
0.000000
 41
0.000000
  0
VERTEX
  8
0
  6
CONTINUOUS
 10
2.949320
 20
2.712600
  0
VERTEX
  8
0
  6
CONTINUOUS
 10
2.949320
 20
3.462800
  0
VERTEX
  8
0
  6
CONTINUOUS
 10
2.974840
 20
3.451800
  0
VERTEX
  8
0
  6
CONTINUOUS
 10
2.975280
 20
2.701600
  0
VERTEX
  8
0
  6
CONTINUOUS
 10
2.949320
 20
2.712600
  0
SEQEND
  8
0
  0
SOLID
  8
0
 62
    15
 10
2.975280
 20
2.701600
 11
2.974840
 21
3.451800
 12
3.023680
 22
2.668160
 13
3.023680
 23
3.418360
  0
POLYLINE
  8
0
  6
CONTINUOUS
 66
     1
 40
0.000000
 41
0.000000
  0
VERTEX
  8
0
  6
CONTINUOUS
 10
2.975280
 20
2.701600
  0
VERTEX
  8
0
  6
CONTINUOUS
 10
2.974840
 20
3.451800
  0
VERTEX
  8
0
  6
CONTINUOUS
 10
3.023680
 20
3.418360
  0
VERTEX
  8
0
  6
CONTINUOUS
 10
3.023680
 20
2.668160
  0
VERTEX
  8
0
  6
CONTINUOUS
 10
2.975280
 20
2.701600
  0
SEQEND
  8
0
  0
SOLID
  8
0
 62
    15
 10
3.023680
 20
2.668160
 11
3.023680
 21
3.418360
 12
3.069880
 22
2.623720
 13
3.069880
 23
3.373920
  0
POLYLINE
  8
0
  6
CONTINUOUS
 66
     1
 40
0.000000
 41
0.000000
  0
VERTEX
  8
0
  6
CONTINUOUS
 10
3.023680
 20
2.668160
  0
VERTEX
  8
0
  6
CONTINUOUS
 10
3.023680
 20
3.418360
  0
VERTEX
  8
0
  6
CONTINUOUS
 10
3.069880
 20
3.373920
  0
VERTEX
  8
0
  6
CONTINUOUS
 10
3.069880
 20
2.623720
  0
VERTEX
  8
0
  6
CONTINUOUS
 10
3.023680
 20
2.668160
  0
SEQEND
  8
0
  0
SOLID
  8
0
 62
    15
 10
3.069880
 20
2.623720
 11
3.069880
 21
3.373920
 12
3.158760
 22
2.518120
 13
3.158320
 23
3.268320
  0
POLYLINE
  8
0
  6
CONTINUOUS
 66
     1
 40
0.000000
 41
0.000000
  0
VERTEX
  8
0
  6
CONTINUOUS
 10
3.069880
 20
2.623720
  0
VERTEX
  8
0
  6
CONTINUOUS
 10
3.069880
 20
3.373920
  0
VERTEX
  8
0
  6
CONTINUOUS
 10
3.158320
 20
3.268320
  0
VERTEX
  8
0
  6
CONTINUOUS
 10
3.158760
 20
2.518120
  0
VERTEX
  8
0
  6
CONTINUOUS
 10
3.069880
 20
2.623720
  0
SEQEND
  8
0
  0
SOLID
  8
0
 62
    15
 10
3.158760
 20
2.518120
 11
3.158320
 21
3.268320
 12
3.203200
 22
2.466200
 13
3.203200
 23
3.215960
  0
POLYLINE
  8
0
  6
CONTINUOUS
 66
     1
 40
0.000000
 41
0.000000
  0
VERTEX
  8
0
  6
CONTINUOUS
 10
3.158760
 20
2.518120
  0
VERTEX
  8
0
  6
CONTINUOUS
 10
3.158320
 20
3.268320
  0
VERTEX
  8
0
  6
CONTINUOUS
 10
3.203200
 20
3.215960
  0
VERTEX
  8
0
  6
CONTINUOUS
 10
3.203200
 20
2.466200
  0
VERTEX
  8
0
  6
CONTINUOUS
 10
3.158760
 20
2.518120
  0
SEQEND
  8
0
  0
SOLID
  8
0
 62
    15
 10
3.203200
 20
2.466200
 11
3.203200
 21
3.215960
 12
3.249400
 22
2.419560
 13
3.248960
 23
3.169760
  0
POLYLINE
  8
0
  6
CONTINUOUS
 66
     1
 40
0.000000
 41
0.000000
  0
VERTEX
  8
0
  6
CONTINUOUS
 10
3.203200
 20
2.466200
  0
VERTEX
  8
0
  6
CONTINUOUS
 10
3.203200
 20
3.215960
  0
VERTEX
  8
0
  6
CONTINUOUS
 10
3.248960
 20
3.169760
  0
VERTEX
  8
0
  6
CONTINUOUS
 10
3.249400
 20
2.419560
  0
VERTEX
  8
0
  6
CONTINUOUS
 10
3.203200
 20
2.466200
  0
SEQEND
  8
0
  0
SOLID
  8
0
 62
    15
 10
3.249400
 20
2.419560
 11
3.248960
 21
3.169760
 12
3.297800
 22
2.383480
 13
3.297360
 23
3.133680
  0
POLYLINE
  8
0
  6
CONTINUOUS
 66
     1
 40
0.000000
 41
0.000000
  0
VERTEX
  8
0
  6
CONTINUOUS
 10
3.249400
 20
2.419560
  0
VERTEX
  8
0
  6
CONTINUOUS
 10
3.248960
 20
3.169760
  0
VERTEX
  8
0
  6
CONTINUOUS
 10
3.297360
 20
3.133680
  0
VERTEX
  8
0
  6
CONTINUOUS
 10
3.297800
 20
2.383480
  0
VERTEX
  8
0
  6
CONTINUOUS
 10
3.249400
 20
2.419560
  0
SEQEND
  8
0
  0
SOLID
  8
0
 62
    15
 10
3.297800
 20
2.383480
 11
3.297360
 21
3.133680
 12
3.323320
 22
2.370720
 13
3.322880
 23
3.120920
  0
POLYLINE
  8
0
  6
CONTINUOUS
 66
     1
 40
0.000000
 41
0.000000
  0
VERTEX
  8
0
  6
CONTINUOUS
 10
3.297800
 20
2.383480
  0
VERTEX
  8
0
  6
CONTINUOUS
 10
3.297360
 20
3.133680
  0
VERTEX
  8
0
  6
CONTINUOUS
 10
3.322880
 20
3.120920
  0
VERTEX
  8
0
  6
CONTINUOUS
 10
3.323320
 20
2.370720
  0
VERTEX
  8
0
  6
CONTINUOUS
 10
3.297800
 20
2.383480
  0
SEQEND
  8
0
  0
SOLID
  8
0
 62
    15
 10
3.323320
 20
2.370720
 11
3.322880
 21
3.120920
 12
3.349720
 22
2.361920
 13
3.349720
 23
3.112120
  0
POLYLINE
  8
0
  6
CONTINUOUS
 66
     1
 40
0.000000
 41
0.000000
  0
VERTEX
  8
0
  6
CONTINUOUS
 10
3.323320
 20
2.370720
  0
VERTEX
  8
0
  6
CONTINUOUS
 10
3.322880
 20
3.120920
  0
VERTEX
  8
0
  6
CONTINUOUS
 10
3.349720
 20
3.112120
  0
VERTEX
  8
0
  6
CONTINUOUS
 10
3.349720
 20
2.361920
  0
VERTEX
  8
0
  6
CONTINUOUS
 10
3.323320
 20
2.370720
  0
SEQEND
  8
0
  0
SOLID
  8
0
 62
    15
 10
3.349720
 20
2.361920
 11
3.349720
 21
3.112120
 12
3.377440
 22
2.357960
 13
3.377440
 23
3.108160
  0
POLYLINE
  8
0
  6
CONTINUOUS
 66
     1
 40
0.000000
 41
0.000000
  0
VERTEX
  8
0
  6
CONTINUOUS
 10
3.349720
 20
2.361920
  0
VERTEX
  8
0
  6
CONTINUOUS
 10
3.349720
 20
3.112120
  0
VERTEX
  8
0
  6
CONTINUOUS
 10
3.377440
 20
3.108160
  0
VERTEX
  8
0
  6
CONTINUOUS
 10
3.377440
 20
2.357960
  0
VERTEX
  8
0
  6
CONTINUOUS
 10
3.349720
 20
2.361920
  0
SEQEND
  8
0
  0
SOLID
  8
0
 62
    15
 10
3.377440
 20
2.357960
 11
3.377440
 21
3.108160
 12
3.406480
 22
2.359280
 13
3.406040
 23
3.109480
  0
POLYLINE
  8
0
  6
CONTINUOUS
 66
     1
 40
0.000000
 41
0.000000
  0
VERTEX
  8
0
  6
CONTINUOUS
 10
3.377440
 20
2.357960
  0
VERTEX
  8
0
  6
CONTINUOUS
 10
3.377440
 20
3.108160
  0
VERTEX
  8
0
  6
CONTINUOUS
 10
3.406040
 20
3.109480
  0
VERTEX
  8
0
  6
CONTINUOUS
 10
3.406480
 20
2.359280
  0
VERTEX
  8
0
  6
CONTINUOUS
 10
3.377440
 20
2.357960
  0
SEQEND
  8
0
  0
SOLID
  8
0
 62
    15
 10
3.406480
 20
2.359280
 11
3.406040
 21
3.109480
 12
3.436840
 22
2.366320
 13
3.436400
 23
3.116520
  0
POLYLINE
  8
0
  6
CONTINUOUS
 66
     1
 40
0.000000
 41
0.000000
  0
VERTEX
  8
0
  6
CONTINUOUS
 10
3.406480
 20
2.359280
  0
VERTEX
  8
0
  6
CONTINUOUS
 10
3.406040
 20
3.109480
  0
VERTEX
  8
0
  6
CONTINUOUS
 10
3.436400
 20
3.116520
  0
VERTEX
  8
0
  6
CONTINUOUS
 10
3.436840
 20
2.366320
  0
VERTEX
  8
0
  6
CONTINUOUS
 10
3.406480
 20
2.359280
  0
SEQEND
  8
0
  0
SOLID
  8
0
 62
    15
 10
3.436840
 20
2.366320
 11
3.436400
 21
3.116520
 12
3.468520
 22
2.379520
 13
3.468520
 23
3.129720
  0
POLYLINE
  8
0
  6
CONTINUOUS
 66
     1
 40
0.000000
 41
0.000000
  0
VERTEX
  8
0
  6
CONTINUOUS
 10
3.436840
 20
2.366320
  0
VERTEX
  8
0
  6
CONTINUOUS
 10
3.436400
 20
3.116520
  0
VERTEX
  8
0
  6
CONTINUOUS
 10
3.468520
 20
3.129720
  0
VERTEX
  8
0
  6
CONTINUOUS
 10
3.468520
 20
2.379520
  0
VERTEX
  8
0
  6
CONTINUOUS
 10
3.436840
 20
2.366320
  0
SEQEND
  8
0
  0
SOLID
  8
0
 62
    15
 10
3.468520
 20
2.379520
 11
3.468520
 21
3.129720
 12
3.501960
 22
2.400200
 13
3.501960
 23
3.149960
  0
POLYLINE
  8
0
  6
CONTINUOUS
 66
     1
 40
0.000000
 41
0.000000
  0
VERTEX
  8
0
  6
CONTINUOUS
 10
3.468520
 20
2.379520
  0
VERTEX
  8
0
  6
CONTINUOUS
 10
3.468520
 20
3.129720
  0
VERTEX
  8
0
  6
CONTINUOUS
 10
3.501960
 20
3.149960
  0
VERTEX
  8
0
  6
CONTINUOUS
 10
3.501960
 20
2.400200
  0
VERTEX
  8
0
  6
CONTINUOUS
 10
3.468520
 20
2.379520
  0
SEQEND
  8
0
  0
SOLID
  8
0
 62
    15
 10
3.501960
 20
2.400200
 11
3.501960
 21
3.149960
 12
3.537600
 22
2.427480
 13
3.537160
 23
3.177680
  0
POLYLINE
  8
0
  6
CONTINUOUS
 66
     1
 40
0.000000
 41
0.000000
  0
VERTEX
  8
0
  6
CONTINUOUS
 10
3.501960
 20
2.400200
  0
VERTEX
  8
0
  6
CONTINUOUS
 10
3.501960
 20
3.149960
  0
VERTEX
  8
0
  6
CONTINUOUS
 10
3.537160
 20
3.177680
  0
VERTEX
  8
0
  6
CONTINUOUS
 10
3.537600
 20
2.427480
  0
VERTEX
  8
0
  6
CONTINUOUS
 10
3.501960
 20
2.400200
  0
SEQEND
  8
0
  0
SOLID
  8
0
 62
    15
 10
3.537600
 20
2.427480
 11
3.537160
 21
3.177680
 12
3.574560
 22
2.463120
 13
3.574120
 23
3.212880
  0
POLYLINE
  8
0
  6
CONTINUOUS
 66
     1
 40
0.000000
 41
0.000000
  0
VERTEX
  8
0
  6
CONTINUOUS
 10
3.537600
 20
2.427480
  0
VERTEX
  8
0
  6
CONTINUOUS
 10
3.537160
 20
3.177680
  0
VERTEX
  8
0
  6
CONTINUOUS
 10
3.574120
 20
3.212880
  0
VERTEX
  8
0
  6
CONTINUOUS
 10
3.574560
 20
2.463120
  0
VERTEX
  8
0
  6
CONTINUOUS
 10
3.537600
 20
2.427480
  0
SEQEND
  8
0
  0
SOLID
  8
0
 62
    15
 10
3.574560
 20
2.463120
 11
3.574120
 21
3.212880
 12
3.613720
 22
2.507120
 13
3.613720
 23
3.256880
  0
POLYLINE
  8
0
  6
CONTINUOUS
 66
     1
 40
0.000000
 41
0.000000
  0
VERTEX
  8
0
  6
CONTINUOUS
 10
3.574560
 20
2.463120
  0
VERTEX
  8
0
  6
CONTINUOUS
 10
3.574120
 20
3.212880
  0
VERTEX
  8
0
  6
CONTINUOUS
 10
3.613720
 20
3.256880
  0
VERTEX
  8
0
  6
CONTINUOUS
 10
3.613720
 20
2.507120
  0
VERTEX
  8
0
  6
CONTINUOUS
 10
3.574560
 20
2.463120
  0
SEQEND
  8
0
  0
SOLID
  8
0
 62
    15
 10
3.613720
 20
2.507120
 11
3.613720
 21
3.256880
 12
3.615040
 22
2.508440
 13
3.615040
 23
3.258200
  0
POLYLINE
  8
0
  6
CONTINUOUS
 66
     1
 40
0.000000
 41
0.000000
  0
VERTEX
  8
0
  6
CONTINUOUS
 10
3.613720
 20
2.507120
  0
VERTEX
  8
0
  6
CONTINUOUS
 10
3.613720
 20
3.256880
  0
VERTEX
  8
0
  6
CONTINUOUS
 10
3.615040
 20
3.258200
  0
VERTEX
  8
0
  6
CONTINUOUS
 10
3.615040
 20
2.508440
  0
VERTEX
  8
0
  6
CONTINUOUS
 10
3.613720
 20
2.507120
  0
SEQEND
  8
0
  0
SOLID
  8
0
 62
    15
 10
3.615040
 20
2.508440
 11
3.615040
 21
3.258200
 12
3.700400
 22
2.508440
 13
3.700400
 23
3.258200
  0
POLYLINE
  8
0
  6
CONTINUOUS
 66
     1
 40
0.000000
 41
0.000000
  0
VERTEX
  8
0
  6
CONTINUOUS
 10
3.615040
 20
2.508440
  0
VERTEX
  8
0
  6
CONTINUOUS
 10
3.615040
 20
3.258200
  0
VERTEX
  8
0
  6
CONTINUOUS
 10
3.700400
 20
3.258200
  0
VERTEX
  8
0
  6
CONTINUOUS
 10
3.700400
 20
2.508440
  0
VERTEX
  8
0
  6
CONTINUOUS
 10
3.615040
 20
2.508440
  0
SEQEND
  8
0
  0
SOLID
  8
0
 62
    15
 10
3.700400
 20
2.508440
 11
3.700400
 21
3.258200
 12
3.701720
 22
2.509760
 13
3.701720
 23
3.259520
  0
POLYLINE
  8
0
  6
CONTINUOUS
 66
     1
 40
0.000000
 41
0.000000
  0
VERTEX
  8
0
  6
CONTINUOUS
 10
3.700400
 20
2.508440
  0
VERTEX
  8
0
  6
CONTINUOUS
 10
3.700400
 20
3.258200
  0
VERTEX
  8
0
  6
CONTINUOUS
 10
3.701720
 20
3.259520
  0
VERTEX
  8
0
  6
CONTINUOUS
 10
3.701720
 20
2.509760
  0
VERTEX
  8
0
  6
CONTINUOUS
 10
3.700400
 20
2.508440
  0
SEQEND
  8
0
  0
SOLID
  8
0
 62
    15
 10
3.701720
 20
2.509760
 11
3.701720
 21
3.259520
 12
3.747480
 22
2.568720
 13
3.747040
 23
3.318920
  0
POLYLINE
  8
0
  6
CONTINUOUS
 66
     1
 40
0.000000
 41
0.000000
  0
VERTEX
  8
0
  6
CONTINUOUS
 10
3.701720
 20
2.509760
  0
VERTEX
  8
0
  6
CONTINUOUS
 10
3.701720
 20
3.259520
  0
VERTEX
  8
0
  6
CONTINUOUS
 10
3.747040
 20
3.318920
  0
VERTEX
  8
0
  6
CONTINUOUS
 10
3.747480
 20
2.568720
  0
VERTEX
  8
0
  6
CONTINUOUS
 10
3.701720
 20
2.509760
  0
SEQEND
  8
0
  0
SOLID
  8
0
 62
    15
 10
3.747480
 20
2.568720
 11
3.747040
 21
3.318920
 12
3.796760
 22
2.616680
 13
3.796320
 23
3.366880
  0
POLYLINE
  8
0
  6
CONTINUOUS
 66
     1
 40
0.000000
 41
0.000000
  0
VERTEX
  8
0
  6
CONTINUOUS
 10
3.747480
 20
2.568720
  0
VERTEX
  8
0
  6
CONTINUOUS
 10
3.747040
 20
3.318920
  0
VERTEX
  8
0
  6
CONTINUOUS
 10
3.796320
 20
3.366880
  0
VERTEX
  8
0
  6
CONTINUOUS
 10
3.796760
 20
2.616680
  0
VERTEX
  8
0
  6
CONTINUOUS
 10
3.747480
 20
2.568720
  0
SEQEND
  8
0
  0
SOLID
  8
0
 62
    15
 10
3.796760
 20
2.616680
 11
3.796320
 21
3.366880
 12
3.848680
 22
2.654960
 13
3.848680
 23
3.404720
  0
POLYLINE
  8
0
  6
CONTINUOUS
 66
     1
 40
0.000000
 41
0.000000
  0
VERTEX
  8
0
  6
CONTINUOUS
 10
3.796760
 20
2.616680
  0
VERTEX
  8
0
  6
CONTINUOUS
 10
3.796320
 20
3.366880
  0
VERTEX
  8
0
  6
CONTINUOUS
 10
3.848680
 20
3.404720
  0
VERTEX
  8
0
  6
CONTINUOUS
 10
3.848680
 20
2.654960
  0
VERTEX
  8
0
  6
CONTINUOUS
 10
3.796760
 20
2.616680
  0
SEQEND
  8
0
  0
SOLID
  8
0
 62
    15
 10
3.848680
 20
2.654960
 11
3.848680
 21
3.404720
 12
3.902800
 22
2.683120
 13
3.902800
 23
3.433320
  0
POLYLINE
  8
0
  6
CONTINUOUS
 66
     1
 40
0.000000
 41
0.000000
  0
VERTEX
  8
0
  6
CONTINUOUS
 10
3.848680
 20
2.654960
  0
VERTEX
  8
0
  6
CONTINUOUS
 10
3.848680
 20
3.404720
  0
VERTEX
  8
0
  6
CONTINUOUS
 10
3.902800
 20
3.433320
  0
VERTEX
  8
0
  6
CONTINUOUS
 10
3.902800
 20
2.683120
  0
VERTEX
  8
0
  6
CONTINUOUS
 10
3.848680
 20
2.654960
  0
SEQEND
  8
0
  0
SOLID
  8
0
 62
    15
 10
3.902800
 20
2.683120
 11
3.902800
 21
3.433320
 12
3.958680
 22
2.702480
 13
3.958240
 23
3.452680
  0
POLYLINE
  8
0
  6
CONTINUOUS
 66
     1
 40
0.000000
 41
0.000000
  0
VERTEX
  8
0
  6
CONTINUOUS
 10
3.902800
 20
2.683120
  0
VERTEX
  8
0
  6
CONTINUOUS
 10
3.902800
 20
3.433320
  0
VERTEX
  8
0
  6
CONTINUOUS
 10
3.958240
 20
3.452680
  0
VERTEX
  8
0
  6
CONTINUOUS
 10
3.958680
 20
2.702480
  0
VERTEX
  8
0
  6
CONTINUOUS
 10
3.902800
 20
2.683120
  0
SEQEND
  8
0
  0
SOLID
  8
0
 62
    15
 10
3.958680
 20
2.702480
 11
3.958240
 21
3.452680
 12
4.014560
 22
2.713480
 13
4.014560
 23
3.463680
  0
POLYLINE
  8
0
  6
CONTINUOUS
 66
     1
 40
0.000000
 41
0.000000
  0
VERTEX
  8
0
  6
CONTINUOUS
 10
3.958680
 20
2.702480
  0
VERTEX
  8
0
  6
CONTINUOUS
 10
3.958240
 20
3.452680
  0
VERTEX
  8
0
  6
CONTINUOUS
 10
4.014560
 20
3.463680
  0
VERTEX
  8
0
  6
CONTINUOUS
 10
4.014560
 20
2.713480
  0
VERTEX
  8
0
  6
CONTINUOUS
 10
3.958680
 20
2.702480
  0
SEQEND
  8
0
  0
SOLID
  8
0
 62
    15
 10
4.014560
 20
2.713480
 11
4.014560
 21
3.463680
 12
4.071320
 22
2.716560
 13
4.070880
 23
3.466760
  0
POLYLINE
  8
0
  6
CONTINUOUS
 66
     1
 40
0.000000
 41
0.000000
  0
VERTEX
  8
0
  6
CONTINUOUS
 10
4.014560
 20
2.713480
  0
VERTEX
  8
0
  6
CONTINUOUS
 10
4.014560
 20
3.463680
  0
VERTEX
  8
0
  6
CONTINUOUS
 10
4.070880
 20
3.466760
  0
VERTEX
  8
0
  6
CONTINUOUS
 10
4.071320
 20
2.716560
  0
VERTEX
  8
0
  6
CONTINUOUS
 10
4.014560
 20
2.713480
  0
SEQEND
  8
0
  0
SOLID
  8
0
 62
    15
 10
4.071320
 20
2.716560
 11
4.070880
 21
3.466760
 12
4.126760
 22
2.713040
 13
4.126320
 23
3.462800
  0
POLYLINE
  8
0
  6
CONTINUOUS
 66
     1
 40
0.000000
 41
0.000000
  0
VERTEX
  8
0
  6
CONTINUOUS
 10
4.071320
 20
2.716560
  0
VERTEX
  8
0
  6
CONTINUOUS
 10
4.070880
 20
3.466760
  0
VERTEX
  8
0
  6
CONTINUOUS
 10
4.126320
 20
3.462800
  0
VERTEX
  8
0
  6
CONTINUOUS
 10
4.126760
 20
2.713040
  0
VERTEX
  8
0
  6
CONTINUOUS
 10
4.071320
 20
2.716560
  0
SEQEND
  8
0
  0
SOLID
  8
0
 62
    15
 10
1.826000
 20
2.819080
 11
1.825560
 21
3.568840
 12
2.544520
 22
2.819080
 13
2.544080
 23
3.568840
  0
POLYLINE
  8
0
  6
CONTINUOUS
 66
     1
 40
0.000000
 41
0.000000
  0
VERTEX
  8
0
  6
CONTINUOUS
 10
1.826000
 20
2.819080
  0
VERTEX
  8
0
  6
CONTINUOUS
 10
1.825560
 20
3.568840
  0
VERTEX
  8
0
  6
CONTINUOUS
 10
2.544080
 20
3.568840
  0
VERTEX
  8
0
  6
CONTINUOUS
 10
2.544520
 20
2.819080
  0
VERTEX
  8
0
  6
CONTINUOUS
 10
1.826000
 20
2.819080
  0
SEQEND
  8
0
  0
SOLID
  8
0
 62
    15
 10
4.181320
 20
2.702920
 11
4.180880
 21
3.452680
 12
4.233240
 22
2.686640
 13
4.233240
 23
3.436840
  0
POLYLINE
  8
0
  6
CONTINUOUS
 66
     1
 40
0.000000
 41
0.000000
  0
VERTEX
  8
0
  6
CONTINUOUS
 10
4.181320
 20
2.702920
  0
VERTEX
  8
0
  6
CONTINUOUS
 10
4.180880
 20
3.452680
  0
VERTEX
  8
0
  6
CONTINUOUS
 10
4.233240
 20
3.436840
  0
VERTEX
  8
0
  6
CONTINUOUS
 10
4.233240
 20
2.686640
  0
VERTEX
  8
0
  6
CONTINUOUS
 10
4.181320
 20
2.702920
  0
SEQEND
  8
0
  0
SOLID
  8
0
 62
    15
 10
4.233240
 20
2.686640
 11
4.233240
 21
3.436840
 12
4.282960
 22
2.665520
 13
4.282520
 23
3.415280
  0
POLYLINE
  8
0
  6
CONTINUOUS
 66
     1
 40
0.000000
 41
0.000000
  0
VERTEX
  8
0
  6
CONTINUOUS
 10
4.233240
 20
2.686640
  0
VERTEX
  8
0
  6
CONTINUOUS
 10
4.233240
 20
3.436840
  0
VERTEX
  8
0
  6
CONTINUOUS
 10
4.282520
 20
3.415280
  0
VERTEX
  8
0
  6
CONTINUOUS
 10
4.282960
 20
2.665520
  0
VERTEX
  8
0
  6
CONTINUOUS
 10
4.233240
 20
2.686640
  0
SEQEND
  8
0
  0
SOLID
  8
0
 62
    15
 10
4.282960
 20
2.665520
 11
4.282520
 21
3.415280
 12
4.329160
 22
2.639560
 13
4.328720
 23
3.389760
  0
POLYLINE
  8
0
  6
CONTINUOUS
 66
     1
 40
0.000000
 41
0.000000
  0
VERTEX
  8
0
  6
CONTINUOUS
 10
4.282960
 20
2.665520
  0
VERTEX
  8
0
  6
CONTINUOUS
 10
4.282520
 20
3.415280
  0
VERTEX
  8
0
  6
CONTINUOUS
 10
4.328720
 20
3.389760
  0
VERTEX
  8
0
  6
CONTINUOUS
 10
4.329160
 20
2.639560
  0
VERTEX
  8
0
  6
CONTINUOUS
 10
4.282960
 20
2.665520
  0
SEQEND
  8
0
  0
SOLID
  8
0
 62
    15
 10
4.329160
 20
2.639560
 11
4.328720
 21
3.389760
 12
4.371400
 22
2.610080
 13
4.370960
 23
3.360280
  0
POLYLINE
  8
0
  6
CONTINUOUS
 66
     1
 40
0.000000
 41
0.000000
  0
VERTEX
  8
0
  6
CONTINUOUS
 10
4.329160
 20
2.639560
  0
VERTEX
  8
0
  6
CONTINUOUS
 10
4.328720
 20
3.389760
  0
VERTEX
  8
0
  6
CONTINUOUS
 10
4.370960
 20
3.360280
  0
VERTEX
  8
0
  6
CONTINUOUS
 10
4.371400
 20
2.610080
  0
VERTEX
  8
0
  6
CONTINUOUS
 10
4.329160
 20
2.639560
  0
SEQEND
  8
0
  0
SOLID
  8
0
 62
    15
 10
4.371400
 20
2.610080
 11
4.370960
 21
3.360280
 12
4.408360
 22
2.577080
 13
4.408360
 23
3.327280
  0
POLYLINE
  8
0
  6
CONTINUOUS
 66
     1
 40
0.000000
 41
0.000000
  0
VERTEX
  8
0
  6
CONTINUOUS
 10
4.371400
 20
2.610080
  0
VERTEX
  8
0
  6
CONTINUOUS
 10
4.370960
 20
3.360280
  0
VERTEX
  8
0
  6
CONTINUOUS
 10
4.408360
 20
3.327280
  0
VERTEX
  8
0
  6
CONTINUOUS
 10
4.408360
 20
2.577080
  0
VERTEX
  8
0
  6
CONTINUOUS
 10
4.371400
 20
2.610080
  0
SEQEND
  8
0
  0
SOLID
  8
0
 62
    15
 10
4.408360
 20
2.577080
 11
4.408360
 21
3.327280
 12
4.440040
 22
2.541880
 13
4.440040
 23
3.291640
  0
POLYLINE
  8
0
  6
CONTINUOUS
 66
     1
 40
0.000000
 41
0.000000
  0
VERTEX
  8
0
  6
CONTINUOUS
 10
4.408360
 20
2.577080
  0
VERTEX
  8
0
  6
CONTINUOUS
 10
4.408360
 20
3.327280
  0
VERTEX
  8
0
  6
CONTINUOUS
 10
4.440040
 20
3.291640
  0
VERTEX
  8
0
  6
CONTINUOUS
 10
4.440040
 20
2.541880
  0
VERTEX
  8
0
  6
CONTINUOUS
 10
4.408360
 20
2.577080
  0
SEQEND
  8
0
  0
SOLID
  8
0
 62
    15
 10
4.440040
 20
2.541880
 11
4.440040
 21
3.291640
 12
4.466000
 22
2.504480
 13
4.465560
 23
3.254240
  0
POLYLINE
  8
0
  6
CONTINUOUS
 66
     1
 40
0.000000
 41
0.000000
  0
VERTEX
  8
0
  6
CONTINUOUS
 10
4.440040
 20
2.541880
  0
VERTEX
  8
0
  6
CONTINUOUS
 10
4.440040
 20
3.291640
  0
VERTEX
  8
0
  6
CONTINUOUS
 10
4.465560
 20
3.254240
  0
VERTEX
  8
0
  6
CONTINUOUS
 10
4.466000
 20
2.504480
  0
VERTEX
  8
0
  6
CONTINUOUS
 10
4.440040
 20
2.541880
  0
SEQEND
  8
0
  0
SOLID
  8
0
 62
    15
 10
4.466000
 20
2.504480
 11
4.465560
 21
3.254240
 12
4.559280
 22
2.504040
 13
4.558840
 23
3.254240
  0
POLYLINE
  8
0
  6
CONTINUOUS
 66
     1
 40
0.000000
 41
0.000000
  0
VERTEX
  8
0
  6
CONTINUOUS
 10
4.466000
 20
2.504480
  0
VERTEX
  8
0
  6
CONTINUOUS
 10
4.465560
 20
3.254240
  0
VERTEX
  8
0
  6
CONTINUOUS
 10
4.558840
 20
3.254240
  0
VERTEX
  8
0
  6
CONTINUOUS
 10
4.559280
 20
2.504040
  0
VERTEX
  8
0
  6
CONTINUOUS
 10
4.466000
 20
2.504480
  0
SEQEND
  8
0
  0
SOLID
  8
0
 62
    15
 10
4.559280
 20
2.504040
 11
4.558840
 21
3.254240
 12
4.560600
 22
2.501840
 13
4.560160
 23
3.251600
  0
POLYLINE
  8
0
  6
CONTINUOUS
 66
     1
 40
0.000000
 41
0.000000
  0
VERTEX
  8
0
  6
CONTINUOUS
 10
4.559280
 20
2.504040
  0
VERTEX
  8
0
  6
CONTINUOUS
 10
4.558840
 20
3.254240
  0
VERTEX
  8
0
  6
CONTINUOUS
 10
4.560160
 20
3.251600
  0
VERTEX
  8
0
  6
CONTINUOUS
 10
4.560600
 20
2.501840
  0
VERTEX
  8
0
  6
CONTINUOUS
 10
4.559280
 20
2.504040
  0
SEQEND
  8
0
  0
SOLID
  8
0
 62
    15
 10
4.560600
 20
2.501840
 11
4.560160
 21
3.251600
 12
4.598880
 22
2.458720
 13
4.598880
 23
3.208920
  0
POLYLINE
  8
0
  6
CONTINUOUS
 66
     1
 40
0.000000
 41
0.000000
  0
VERTEX
  8
0
  6
CONTINUOUS
 10
4.560600
 20
2.501840
  0
VERTEX
  8
0
  6
CONTINUOUS
 10
4.560160
 20
3.251600
  0
VERTEX
  8
0
  6
CONTINUOUS
 10
4.598880
 20
3.208920
  0
VERTEX
  8
0
  6
CONTINUOUS
 10
4.598880
 20
2.458720
  0
VERTEX
  8
0
  6
CONTINUOUS
 10
4.560600
 20
2.501840
  0
SEQEND
  8
0
  0
SOLID
  8
0
 62
    15
 10
4.598880
 20
2.458720
 11
4.598880
 21
3.208920
 12
4.635840
 22
2.424400
 13
4.635840
 23
3.174160
  0
POLYLINE
  8
0
  6
CONTINUOUS
 66
     1
 40
0.000000
 41
0.000000
  0
VERTEX
  8
0
  6
CONTINUOUS
 10
4.598880
 20
2.458720
  0
VERTEX
  8
0
  6
CONTINUOUS
 10
4.598880
 20
3.208920
  0
VERTEX
  8
0
  6
CONTINUOUS
 10
4.635840
 20
3.174160
  0
VERTEX
  8
0
  6
CONTINUOUS
 10
4.635840
 20
2.424400
  0
VERTEX
  8
0
  6
CONTINUOUS
 10
4.598880
 20
2.458720
  0
SEQEND
  8
0
  0
SOLID
  8
0
 62
    15
 10
4.635840
 20
2.424400
 11
4.635840
 21
3.174160
 12
4.671040
 22
2.397560
 13
4.670600
 23
3.147320
  0
POLYLINE
  8
0
  6
CONTINUOUS
 66
     1
 40
0.000000
 41
0.000000
  0
VERTEX
  8
0
  6
CONTINUOUS
 10
4.635840
 20
2.424400
  0
VERTEX
  8
0
  6
CONTINUOUS
 10
4.635840
 20
3.174160
  0
VERTEX
  8
0
  6
CONTINUOUS
 10
4.670600
 20
3.147320
  0
VERTEX
  8
0
  6
CONTINUOUS
 10
4.671040
 20
2.397560
  0
VERTEX
  8
0
  6
CONTINUOUS
 10
4.635840
 20
2.424400
  0
SEQEND
  8
0
  0
SOLID
  8
0
 62
    15
 10
4.671040
 20
2.397560
 11
4.670600
 21
3.147320
 12
4.704480
 22
2.377760
 13
4.704480
 23
3.127960
  0
POLYLINE
  8
0
  6
CONTINUOUS
 66
     1
 40
0.000000
 41
0.000000
  0
VERTEX
  8
0
  6
CONTINUOUS
 10
4.671040
 20
2.397560
  0
VERTEX
  8
0
  6
CONTINUOUS
 10
4.670600
 20
3.147320
  0
VERTEX
  8
0
  6
CONTINUOUS
 10
4.704480
 20
3.127960
  0
VERTEX
  8
0
  6
CONTINUOUS
 10
4.704480
 20
2.377760
  0
VERTEX
  8
0
  6
CONTINUOUS
 10
4.671040
 20
2.397560
  0
SEQEND
  8
0
  0
SOLID
  8
0
 62
    15
 10
4.704480
 20
2.377760
 11
4.704480
 21
3.127960
 12
4.736600
 22
2.365000
 13
4.736160
 23
3.114760
  0
POLYLINE
  8
0
  6
CONTINUOUS
 66
     1
 40
0.000000
 41
0.000000
  0
VERTEX
  8
0
  6
CONTINUOUS
 10
4.704480
 20
2.377760
  0
VERTEX
  8
0
  6
CONTINUOUS
 10
4.704480
 20
3.127960
  0
VERTEX
  8
0
  6
CONTINUOUS
 10
4.736160
 20
3.114760
  0
VERTEX
  8
0
  6
CONTINUOUS
 10
4.736600
 20
2.365000
  0
VERTEX
  8
0
  6
CONTINUOUS
 10
4.704480
 20
2.377760
  0
SEQEND
  8
0
  0
SOLID
  8
0
 62
    15
 10
4.736600
 20
2.365000
 11
4.736160
 21
3.114760
 12
4.767400
 22
2.357960
 13
4.766960
 23
3.108160
  0
POLYLINE
  8
0
  6
CONTINUOUS
 66
     1
 40
0.000000
 41
0.000000
  0
VERTEX
  8
0
  6
CONTINUOUS
 10
4.736600
 20
2.365000
  0
VERTEX
  8
0
  6
CONTINUOUS
 10
4.736160
 20
3.114760
  0
VERTEX
  8
0
  6
CONTINUOUS
 10
4.766960
 20
3.108160
  0
VERTEX
  8
0
  6
CONTINUOUS
 10
4.767400
 20
2.357960
  0
VERTEX
  8
0
  6
CONTINUOUS
 10
4.736600
 20
2.365000
  0
SEQEND
  8
0
  0
SOLID
  8
0
 62
    15
 10
4.767400
 20
2.357960
 11
4.766960
 21
3.108160
 12
4.796440
 22
2.357080
 13
4.796440
 23
3.106840
  0
POLYLINE
  8
0
  6
CONTINUOUS
 66
     1
 40
0.000000
 41
0.000000
  0
VERTEX
  8
0
  6
CONTINUOUS
 10
4.767400
 20
2.357960
  0
VERTEX
  8
0
  6
CONTINUOUS
 10
4.766960
 20
3.108160
  0
VERTEX
  8
0
  6
CONTINUOUS
 10
4.796440
 20
3.106840
  0
VERTEX
  8
0
  6
CONTINUOUS
 10
4.796440
 20
2.357080
  0
VERTEX
  8
0
  6
CONTINUOUS
 10
4.767400
 20
2.357960
  0
SEQEND
  8
0
  0
SOLID
  8
0
 62
    15
 10
4.796440
 20
2.357080
 11
4.796440
 21
3.106840
 12
4.824600
 22
2.360600
 13
4.824600
 23
3.110800
  0
POLYLINE
  8
0
  6
CONTINUOUS
 66
     1
 40
0.000000
 41
0.000000
  0
VERTEX
  8
0
  6
CONTINUOUS
 10
4.796440
 20
2.357080
  0
VERTEX
  8
0
  6
CONTINUOUS
 10
4.796440
 20
3.106840
  0
VERTEX
  8
0
  6
CONTINUOUS
 10
4.824600
 20
3.110800
  0
VERTEX
  8
0
  6
CONTINUOUS
 10
4.824600
 20
2.360600
  0
VERTEX
  8
0
  6
CONTINUOUS
 10
4.796440
 20
2.357080
  0
SEQEND
  8
0
  0
SOLID
  8
0
 62
    15
 10
4.824600
 20
2.360600
 11
4.824600
 21
3.110800
 12
4.851880
 22
2.369400
 13
4.851440
 23
3.119600
  0
POLYLINE
  8
0
  6
CONTINUOUS
 66
     1
 40
0.000000
 41
0.000000
  0
VERTEX
  8
0
  6
CONTINUOUS
 10
4.824600
 20
2.360600
  0
VERTEX
  8
0
  6
CONTINUOUS
 10
4.824600
 20
3.110800
  0
VERTEX
  8
0
  6
CONTINUOUS
 10
4.851440
 20
3.119600
  0
VERTEX
  8
0
  6
CONTINUOUS
 10
4.851880
 20
2.369400
  0
VERTEX
  8
0
  6
CONTINUOUS
 10
4.824600
 20
2.360600
  0
SEQEND
  8
0
  0
SOLID
  8
0
 62
    15
 10
4.851880
 20
2.369400
 11
4.851440
 21
3.119600
 12
4.878280
 22
2.382160
 13
4.877840
 23
3.131920
  0
POLYLINE
  8
0
  6
CONTINUOUS
 66
     1
 40
0.000000
 41
0.000000
  0
VERTEX
  8
0
  6
CONTINUOUS
 10
4.851880
 20
2.369400
  0
VERTEX
  8
0
  6
CONTINUOUS
 10
4.851440
 20
3.119600
  0
VERTEX
  8
0
  6
CONTINUOUS
 10
4.877840
 20
3.131920
  0
VERTEX
  8
0
  6
CONTINUOUS
 10
4.878280
 20
2.382160
  0
VERTEX
  8
0
  6
CONTINUOUS
 10
4.851880
 20
2.369400
  0
SEQEND
  8
0
  0
SOLID
  8
0
 62
    15
 10
4.878280
 20
2.382160
 11
4.877840
 21
3.131920
 12
4.928000
 22
2.417360
 13
4.928000
 23
3.167120
  0
POLYLINE
  8
0
  6
CONTINUOUS
 66
     1
 40
0.000000
 41
0.000000
  0
VERTEX
  8
0
  6
CONTINUOUS
 10
4.878280
 20
2.382160
  0
VERTEX
  8
0
  6
CONTINUOUS
 10
4.877840
 20
3.131920
  0
VERTEX
  8
0
  6
CONTINUOUS
 10
4.928000
 20
3.167120
  0
VERTEX
  8
0
  6
CONTINUOUS
 10
4.928000
 20
2.417360
  0
VERTEX
  8
0
  6
CONTINUOUS
 10
4.878280
 20
2.382160
  0
SEQEND
  8
0
  0
SOLID
  8
0
 62
    15
 10
4.928000
 20
2.417360
 11
4.928000
 21
3.167120
 12
4.975520
 22
2.462680
 13
4.975520
 23
3.212440
  0
POLYLINE
  8
0
  6
CONTINUOUS
 66
     1
 40
0.000000
 41
0.000000
  0
VERTEX
  8
0
  6
CONTINUOUS
 10
4.928000
 20
2.417360
  0
VERTEX
  8
0
  6
CONTINUOUS
 10
4.928000
 20
3.167120
  0
VERTEX
  8
0
  6
CONTINUOUS
 10
4.975520
 20
3.212440
  0
VERTEX
  8
0
  6
CONTINUOUS
 10
4.975520
 20
2.462680
  0
VERTEX
  8
0
  6
CONTINUOUS
 10
4.928000
 20
2.417360
  0
SEQEND
  8
0
  0
SOLID
  8
0
 62
    15
 10
4.975520
 20
2.462680
 11
4.975520
 21
3.212440
 12
5.021720
 22
2.513720
 13
5.021280
 23
3.263480
  0
POLYLINE
  8
0
  6
CONTINUOUS
 66
     1
 40
0.000000
 41
0.000000
  0
VERTEX
  8
0
  6
CONTINUOUS
 10
4.975520
 20
2.462680
  0
VERTEX
  8
0
  6
CONTINUOUS
 10
4.975520
 20
3.212440
  0
VERTEX
  8
0
  6
CONTINUOUS
 10
5.021280
 20
3.263480
  0
VERTEX
  8
0
  6
CONTINUOUS
 10
5.021720
 20
2.513720
  0
VERTEX
  8
0
  6
CONTINUOUS
 10
4.975520
 20
2.462680
  0
SEQEND
  8
0
  0
SOLID
  8
0
 62
    15
 10
5.021720
 20
2.513720
 11
5.021280
 21
3.263480
 12
5.112360
 22
2.616680
 13
5.111920
 23
3.366440
  0
POLYLINE
  8
0
  6
CONTINUOUS
 66
     1
 40
0.000000
 41
0.000000
  0
VERTEX
  8
0
  6
CONTINUOUS
 10
5.021720
 20
2.513720
  0
VERTEX
  8
0
  6
CONTINUOUS
 10
5.021280
 20
3.263480
  0
VERTEX
  8
0
  6
CONTINUOUS
 10
5.111920
 20
3.366440
  0
VERTEX
  8
0
  6
CONTINUOUS
 10
5.112360
 20
2.616680
  0
VERTEX
  8
0
  6
CONTINUOUS
 10
5.021720
 20
2.513720
  0
SEQEND
  8
0
  0
SOLID
  8
0
 62
    15
 10
5.112360
 20
2.616680
 11
5.111920
 21
3.366440
 12
5.158560
 22
2.660240
 13
5.158560
 23
3.410000
  0
POLYLINE
  8
0
  6
CONTINUOUS
 66
     1
 40
0.000000
 41
0.000000
  0
VERTEX
  8
0
  6
CONTINUOUS
 10
5.112360
 20
2.616680
  0
VERTEX
  8
0
  6
CONTINUOUS
 10
5.111920
 20
3.366440
  0
VERTEX
  8
0
  6
CONTINUOUS
 10
5.158560
 20
3.410000
  0
VERTEX
  8
0
  6
CONTINUOUS
 10
5.158560
 20
2.660240
  0
VERTEX
  8
0
  6
CONTINUOUS
 10
5.112360
 20
2.616680
  0
SEQEND
  8
0
  0
SOLID
  8
0
 62
    15
 10
5.158560
 20
2.660240
 11
5.158560
 21
3.410000
 12
5.206960
 22
2.692360
 13
5.206960
 23
3.442560
  0
POLYLINE
  8
0
  6
CONTINUOUS
 66
     1
 40
0.000000
 41
0.000000
  0
VERTEX
  8
0
  6
CONTINUOUS
 10
5.158560
 20
2.660240
  0
VERTEX
  8
0
  6
CONTINUOUS
 10
5.158560
 20
3.410000
  0
VERTEX
  8
0
  6
CONTINUOUS
 10
5.206960
 20
3.442560
  0
VERTEX
  8
0
  6
CONTINUOUS
 10
5.206960
 20
2.692360
  0
VERTEX
  8
0
  6
CONTINUOUS
 10
5.158560
 20
2.660240
  0
SEQEND
  8
0
  0
SOLID
  8
0
 62
    15
 10
5.206960
 20
2.692360
 11
5.206960
 21
3.442560
 12
5.232040
 22
2.703360
 13
5.232040
 23
3.453560
  0
POLYLINE
  8
0
  6
CONTINUOUS
 66
     1
 40
0.000000
 41
0.000000
  0
VERTEX
  8
0
  6
CONTINUOUS
 10
5.206960
 20
2.692360
  0
VERTEX
  8
0
  6
CONTINUOUS
 10
5.206960
 20
3.442560
  0
VERTEX
  8
0
  6
CONTINUOUS
 10
5.232040
 20
3.453560
  0
VERTEX
  8
0
  6
CONTINUOUS
 10
5.232040
 20
2.703360
  0
VERTEX
  8
0
  6
CONTINUOUS
 10
5.206960
 20
2.692360
  0
SEQEND
  8
0
  0
SOLID
  8
0
 62
    15
 10
5.232040
 20
2.703360
 11
5.232040
 21
3.453560
 12
5.258440
 22
2.709960
 13
5.258000
 23
3.460160
  0
POLYLINE
  8
0
  6
CONTINUOUS
 66
     1
 40
0.000000
 41
0.000000
  0
VERTEX
  8
0
  6
CONTINUOUS
 10
5.232040
 20
2.703360
  0
VERTEX
  8
0
  6
CONTINUOUS
 10
5.232040
 20
3.453560
  0
VERTEX
  8
0
  6
CONTINUOUS
 10
5.258000
 20
3.460160
  0
VERTEX
  8
0
  6
CONTINUOUS
 10
5.258440
 20
2.709960
  0
VERTEX
  8
0
  6
CONTINUOUS
 10
5.232040
 20
2.703360
  0
SEQEND
  8
0
  0
SOLID
  8
0
 62
    15
 10
5.258440
 20
2.709960
 11
5.258000
 21
3.460160
 12
5.285280
 22
2.711720
 13
5.284840
 23
3.461920
  0
POLYLINE
  8
0
  6
CONTINUOUS
 66
     1
 40
0.000000
 41
0.000000
  0
VERTEX
  8
0
  6
CONTINUOUS
 10
5.258440
 20
2.709960
  0
VERTEX
  8
0
  6
CONTINUOUS
 10
5.258000
 20
3.460160
  0
VERTEX
  8
0
  6
CONTINUOUS
 10
5.284840
 20
3.461920
  0
VERTEX
  8
0
  6
CONTINUOUS
 10
5.285280
 20
2.711720
  0
VERTEX
  8
0
  6
CONTINUOUS
 10
5.258440
 20
2.709960
  0
SEQEND
  8
0
  0
SOLID
  8
0
 62
    15
 10
5.285280
 20
2.711720
 11
5.284840
 21
3.461920
 12
5.313440
 22
2.708200
 13
5.313000
 23
3.457960
  0
POLYLINE
  8
0
  6
CONTINUOUS
 66
     1
 40
0.000000
 41
0.000000
  0
VERTEX
  8
0
  6
CONTINUOUS
 10
5.285280
 20
2.711720
  0
VERTEX
  8
0
  6
CONTINUOUS
 10
5.284840
 20
3.461920
  0
VERTEX
  8
0
  6
CONTINUOUS
 10
5.313000
 20
3.457960
  0
VERTEX
  8
0
  6
CONTINUOUS
 10
5.313440
 20
2.708200
  0
VERTEX
  8
0
  6
CONTINUOUS
 10
5.285280
 20
2.711720
  0
SEQEND
  8
0
  0
SOLID
  8
0
 62
    15
 10
5.313440
 20
2.708200
 11
5.313000
 21
3.457960
 12
5.342480
 22
2.698520
 13
5.342040
 23
3.448720
  0
POLYLINE
  8
0
  6
CONTINUOUS
 66
     1
 40
0.000000
 41
0.000000
  0
VERTEX
  8
0
  6
CONTINUOUS
 10
5.313440
 20
2.708200
  0
VERTEX
  8
0
  6
CONTINUOUS
 10
5.313000
 20
3.457960
  0
VERTEX
  8
0
  6
CONTINUOUS
 10
5.342040
 20
3.448720
  0
VERTEX
  8
0
  6
CONTINUOUS
 10
5.342480
 20
2.698520
  0
VERTEX
  8
0
  6
CONTINUOUS
 10
5.313440
 20
2.708200
  0
SEQEND
  8
0
  0
SOLID
  8
0
 62
    15
 10
5.342480
 20
2.698520
 11
5.342040
 21
3.448720
 12
5.372840
 22
2.682680
 13
5.372400
 23
3.432880
  0
POLYLINE
  8
0
  6
CONTINUOUS
 66
     1
 40
0.000000
 41
0.000000
  0
VERTEX
  8
0
  6
CONTINUOUS
 10
5.342480
 20
2.698520
  0
VERTEX
  8
0
  6
CONTINUOUS
 10
5.342040
 20
3.448720
  0
VERTEX
  8
0
  6
CONTINUOUS
 10
5.372400
 20
3.432880
  0
VERTEX
  8
0
  6
CONTINUOUS
 10
5.372840
 20
2.682680
  0
VERTEX
  8
0
  6
CONTINUOUS
 10
5.342480
 20
2.698520
  0
SEQEND
  8
0
  0
SOLID
  8
0
 62
    15
 10
5.372840
 20
2.682680
 11
5.372400
 21
3.432880
 12
5.404520
 22
2.659800
 13
5.404080
 23
3.410000
  0
POLYLINE
  8
0
  6
CONTINUOUS
 66
     1
 40
0.000000
 41
0.000000
  0
VERTEX
  8
0
  6
CONTINUOUS
 10
5.372840
 20
2.682680
  0
VERTEX
  8
0
  6
CONTINUOUS
 10
5.372400
 20
3.432880
  0
VERTEX
  8
0
  6
CONTINUOUS
 10
5.404080
 20
3.410000
  0
VERTEX
  8
0
  6
CONTINUOUS
 10
5.404520
 20
2.659800
  0
VERTEX
  8
0
  6
CONTINUOUS
 10
5.372840
 20
2.682680
  0
SEQEND
  8
0
  0
SOLID
  8
0
 62
    15
 10
5.404520
 20
2.659800
 11
5.404080
 21
3.410000
 12
5.437960
 22
2.629440
 13
5.437520
 23
3.379640
  0
POLYLINE
  8
0
  6
CONTINUOUS
 66
     1
 40
0.000000
 41
0.000000
  0
VERTEX
  8
0
  6
CONTINUOUS
 10
5.404520
 20
2.659800
  0
VERTEX
  8
0
  6
CONTINUOUS
 10
5.404080
 20
3.410000
  0
VERTEX
  8
0
  6
CONTINUOUS
 10
5.437520
 20
3.379640
  0
VERTEX
  8
0
  6
CONTINUOUS
 10
5.437960
 20
2.629440
  0
VERTEX
  8
0
  6
CONTINUOUS
 10
5.404520
 20
2.659800
  0
SEQEND
  8
0
  0
SOLID
  8
0
 62
    15
 10
5.437960
 20
2.629440
 11
5.437520
 21
3.379640
 12
5.440600
 22
2.626800
 13
5.440160
 23
3.377000
  0
POLYLINE
  8
0
  6
CONTINUOUS
 66
     1
 40
0.000000
 41
0.000000
  0
VERTEX
  8
0
  6
CONTINUOUS
 10
5.437960
 20
2.629440
  0
VERTEX
  8
0
  6
CONTINUOUS
 10
5.437520
 20
3.379640
  0
VERTEX
  8
0
  6
CONTINUOUS
 10
5.440160
 20
3.377000
  0
VERTEX
  8
0
  6
CONTINUOUS
 10
5.440600
 20
2.626800
  0
VERTEX
  8
0
  6
CONTINUOUS
 10
5.437960
 20
2.629440
  0
SEQEND
  8
0
  0
SOLID
  8
0
 62
    15
 10
5.440600
 20
2.626800
 11
5.440160
 21
3.377000
 12
5.457760
 22
2.626800
 13
5.457320
 23
3.377000
  0
POLYLINE
  8
0
  6
CONTINUOUS
 66
     1
 40
0.000000
 41
0.000000
  0
VERTEX
  8
0
  6
CONTINUOUS
 10
5.440600
 20
2.626800
  0
VERTEX
  8
0
  6
CONTINUOUS
 10
5.440160
 20
3.377000
  0
VERTEX
  8
0
  6
CONTINUOUS
 10
5.457320
 20
3.377000
  0
VERTEX
  8
0
  6
CONTINUOUS
 10
5.457760
 20
2.626800
  0
VERTEX
  8
0
  6
CONTINUOUS
 10
5.440600
 20
2.626800
  0
SEQEND
  8
0
  0
SOLID
  8
0
 62
    15
 10
5.457760
 20
2.626800
 11
5.457320
 21
3.377000
 12
5.457760
 22
2.629440
 13
5.457760
 23
3.379640
  0
POLYLINE
  8
0
  6
CONTINUOUS
 66
     1
 40
0.000000
 41
0.000000
  0
VERTEX
  8
0
  6
CONTINUOUS
 10
5.457760
 20
2.626800
  0
VERTEX
  8
0
  6
CONTINUOUS
 10
5.457320
 20
3.377000
  0
VERTEX
  8
0
  6
CONTINUOUS
 10
5.457760
 20
3.379640
  0
VERTEX
  8
0
  6
CONTINUOUS
 10
5.457760
 20
2.629440
  0
VERTEX
  8
0
  6
CONTINUOUS
 10
5.457760
 20
2.626800
  0
SEQEND
  8
0
  0
SOLID
  8
0
 62
    15
 10
5.457760
 20
2.629440
 11
5.457760
 21
3.379640
 12
5.608680
 22
2.812040
 13
5.608240
 23
3.562240
  0
POLYLINE
  8
0
  6
CONTINUOUS
 66
     1
 40
0.000000
 41
0.000000
  0
VERTEX
  8
0
  6
CONTINUOUS
 10
5.457760
 20
2.629440
  0
VERTEX
  8
0
  6
CONTINUOUS
 10
5.457760
 20
3.379640
  0
VERTEX
  8
0
  6
CONTINUOUS
 10
5.608240
 20
3.562240
  0
VERTEX
  8
0
  6
CONTINUOUS
 10
5.608680
 20
2.812040
  0
VERTEX
  8
0
  6
CONTINUOUS
 10
5.457760
 20
2.629440
  0
SEQEND
  8
0
  0
SOLID
  8
0
 62
    15
 10
5.608680
 20
2.812040
 11
5.608240
 21
3.562240
 12
5.611320
 22
2.815120
 13
5.610880
 23
3.564880
  0
POLYLINE
  8
0
  6
CONTINUOUS
 66
     1
 40
0.000000
 41
0.000000
  0
VERTEX
  8
0
  6
CONTINUOUS
 10
5.608680
 20
2.812040
  0
VERTEX
  8
0
  6
CONTINUOUS
 10
5.608240
 20
3.562240
  0
VERTEX
  8
0
  6
CONTINUOUS
 10
5.610880
 20
3.564880
  0
VERTEX
  8
0
  6
CONTINUOUS
 10
5.611320
 20
2.815120
  0
VERTEX
  8
0
  6
CONTINUOUS
 10
5.608680
 20
2.812040
  0
SEQEND
  8
0
  0
SOLID
  8
0
 62
    15
 10
5.611320
 20
2.815120
 11
5.610880
 21
3.564880
 12
6.375160
 22
2.815120
 13
6.374720
 23
3.564880
  0
POLYLINE
  8
0
  6
CONTINUOUS
 66
     1
 40
0.000000
 41
0.000000
  0
VERTEX
  8
0
  6
CONTINUOUS
 10
5.611320
 20
2.815120
  0
VERTEX
  8
0
  6
CONTINUOUS
 10
5.610880
 20
3.564880
  0
VERTEX
  8
0
  6
CONTINUOUS
 10
6.374720
 20
3.564880
  0
VERTEX
  8
0
  6
CONTINUOUS
 10
6.375160
 20
2.815120
  0
VERTEX
  8
0
  6
CONTINUOUS
 10
5.611320
 20
2.815120
  0
SEQEND
  8
0
  0
POLYLINE
  8
0
  6
CONTINUOUS
 66
     1
 40
0.000000
 41
0.000000
  0
VERTEX
  8
0
  6
CONTINUOUS
 10
6.371200
 20
2.021800
  0
VERTEX
  8
0
  6
CONTINUOUS
 10
1.826000
 20
2.021800
  0
VERTEX
  8
0
  6
CONTINUOUS
 10
1.826000
 20
2.819080
  0
VERTEX
  8
0
  6
CONTINUOUS
 10
2.544520
 20
2.819080
  0
VERTEX
  8
0
  6
CONTINUOUS
 10
2.733720
 20
2.637800
  0
VERTEX
  8
0
  6
CONTINUOUS
 10
2.769360
 20
2.668600
  0
VERTEX
  8
0
  6
CONTINUOUS
 10
2.803240
 20
2.691920
  0
VERTEX
  8
0
  6
CONTINUOUS
 10
2.835360
 20
2.708200
  0
VERTEX
  8
0
  6
CONTINUOUS
 10
2.865720
 20
2.717880
  0
VERTEX
  8
0
  6
CONTINUOUS
 10
2.894760
 20
2.721400
  0
VERTEX
  8
0
  6
CONTINUOUS
 10
2.922920
 20
2.719640
  0
VERTEX
  8
0
  6
CONTINUOUS
 10
2.949320
 20
2.712600
  0
VERTEX
  8
0
  6
CONTINUOUS
 10
2.975280
 20
2.701600
  0
VERTEX
  8
0
  6
CONTINUOUS
 10
3.023680
 20
2.668160
  0
VERTEX
  8
0
  6
CONTINUOUS
 10
3.069880
 20
2.623720
  0
VERTEX
  8
0
  6
CONTINUOUS
 10
3.203200
 20
2.466200
  0
VERTEX
  8
0
  6
CONTINUOUS
 10
3.249400
 20
2.419560
  0
VERTEX
  8
0
  6
CONTINUOUS
 10
3.297800
 20
2.383480
  0
VERTEX
  8
0
  6
CONTINUOUS
 10
3.323320
 20
2.370720
  0
VERTEX
  8
0
  6
CONTINUOUS
 10
3.349720
 20
2.361920
  0
VERTEX
  8
0
  6
CONTINUOUS
 10
3.377440
 20
2.357960
  0
VERTEX
  8
0
  6
CONTINUOUS
 10
3.406480
 20
2.359280
  0
VERTEX
  8
0
  6
CONTINUOUS
 10
3.436840
 20
2.366320
  0
VERTEX
  8
0
  6
CONTINUOUS
 10
3.468520
 20
2.379520
  0
VERTEX
  8
0
  6
CONTINUOUS
 10
3.501960
 20
2.400200
  0
VERTEX
  8
0
  6
CONTINUOUS
 10
3.537600
 20
2.427480
  0
VERTEX
  8
0
  6
CONTINUOUS
 10
3.574560
 20
2.463120
  0
VERTEX
  8
0
  6
CONTINUOUS
 10
3.615040
 20
2.508440
  0
VERTEX
  8
0
  6
CONTINUOUS
 10
3.700400
 20
2.508440
  0
VERTEX
  8
0
  6
CONTINUOUS
 10
3.747480
 20
2.568720
  0
VERTEX
  8
0
  6
CONTINUOUS
 10
3.796760
 20
2.616680
  0
VERTEX
  8
0
  6
CONTINUOUS
 10
3.848680
 20
2.654960
  0
VERTEX
  8
0
  6
CONTINUOUS
 10
3.902800
 20
2.683120
  0
VERTEX
  8
0
  6
CONTINUOUS
 10
3.958680
 20
2.702480
  0
VERTEX
  8
0
  6
CONTINUOUS
 10
4.014560
 20
2.713480
  0
VERTEX
  8
0
  6
CONTINUOUS
 10
4.071320
 20
2.716560
  0
VERTEX
  8
0
  6
CONTINUOUS
 10
4.126760
 20
2.713040
  0
VERTEX
  8
0
  6
CONTINUOUS
 10
4.181320
 20
2.702920
  0
VERTEX
  8
0
  6
CONTINUOUS
 10
4.233240
 20
2.686640
  0
VERTEX
  8
0
  6
CONTINUOUS
 10
4.282960
 20
2.665520
  0
VERTEX
  8
0
  6
CONTINUOUS
 10
4.329160
 20
2.639560
  0
VERTEX
  8
0
  6
CONTINUOUS
 10
4.371400
 20
2.610080
  0
VERTEX
  8
0
  6
CONTINUOUS
 10
4.408360
 20
2.577080
  0
VERTEX
  8
0
  6
CONTINUOUS
 10
4.440040
 20
2.541880
  0
VERTEX
  8
0
  6
CONTINUOUS
 10
4.466000
 20
2.504480
  0
VERTEX
  8
0
  6
CONTINUOUS
 10
4.559280
 20
2.504040
  0
VERTEX
  8
0
  6
CONTINUOUS
 10
4.598880
 20
2.458720
  0
VERTEX
  8
0
  6
CONTINUOUS
 10
4.635840
 20
2.424400
  0
VERTEX
  8
0
  6
CONTINUOUS
 10
4.671040
 20
2.397560
  0
VERTEX
  8
0
  6
CONTINUOUS
 10
4.704480
 20
2.377760
  0
VERTEX
  8
0
  6
CONTINUOUS
 10
4.736600
 20
2.365000
  0
VERTEX
  8
0
  6
CONTINUOUS
 10
4.767400
 20
2.357960
  0
VERTEX
  8
0
  6
CONTINUOUS
 10
4.796440
 20
2.357080
  0
VERTEX
  8
0
  6
CONTINUOUS
 10
4.824600
 20
2.360600
  0
VERTEX
  8
0
  6
CONTINUOUS
 10
4.851880
 20
2.369400
  0
VERTEX
  8
0
  6
CONTINUOUS
 10
4.878280
 20
2.382160
  0
VERTEX
  8
0
  6
CONTINUOUS
 10
4.928000
 20
2.417360
  0
VERTEX
  8
0
  6
CONTINUOUS
 10
4.975520
 20
2.462680
  0
VERTEX
  8
0
  6
CONTINUOUS
 10
5.112360
 20
2.616680
  0
VERTEX
  8
0
  6
CONTINUOUS
 10
5.158560
 20
2.660240
  0
VERTEX
  8
0
  6
CONTINUOUS
 10
5.206960
 20
2.692360
  0
VERTEX
  8
0
  6
CONTINUOUS
 10
5.232040
 20
2.703360
  0
VERTEX
  8
0
  6
CONTINUOUS
 10
5.258440
 20
2.709960
  0
VERTEX
  8
0
  6
CONTINUOUS
 10
5.285280
 20
2.711720
  0
VERTEX
  8
0
  6
CONTINUOUS
 10
5.313440
 20
2.708200
  0
VERTEX
  8
0
  6
CONTINUOUS
 10
5.342480
 20
2.698520
  0
VERTEX
  8
0
  6
CONTINUOUS
 10
5.372840
 20
2.682680
  0
VERTEX
  8
0
  6
CONTINUOUS
 10
5.404520
 20
2.659800
  0
VERTEX
  8
0
  6
CONTINUOUS
 10
5.440600
 20
2.626800
  0
VERTEX
  8
0
  6
CONTINUOUS
 10
5.457760
 20
2.626800
  0
VERTEX
  8
0
  6
CONTINUOUS
 10
5.457760
 20
2.629440
  0
VERTEX
  8
0
  6
CONTINUOUS
 10
5.611320
 20
2.815120
  0
VERTEX
  8
0
  6
CONTINUOUS
 10
6.375160
 20
2.815120
  0
VERTEX
  8
0
  6
CONTINUOUS
 10
6.375160
 20
2.021800
  0
VERTEX
  8
0
  6
CONTINUOUS
 10
6.371200
 20
2.021800
  0
SEQEND
  8
0
  0
TEXT
  8
0
 10
3.850440
 20
1.773200
 40
0.138070
  1
BA  28
 41
1.000000
  7
SN0
 71
     0
 72
     5
 11
4.348614
 21
1.773200
  0
TEXT
  8
0
 10
3.602280
 20
1.581800
 40
0.138070
  1
3/4" x 4-9/16"
 41
1.000000
  7
SN0
 71
     0
 72
     5
 11
4.596117
 21
1.581800
  0
ENDSEC
  0
EOF
