  0
SECTION
  2
HEADER
  9
$ACADVER
  1
AC1006
  9
$EXTMIN
 10
1.176560
 20
0.260920
  9
$EXTMAX
 10
8.070040
 20
3.527920
  9
$LTSCALE
 40
0.044000
  9
$PDMODE
 70
    35
  9
$PDSIZE
 40
0.035200
  0
ENDSEC
  0
SECTION
  2
TABLES
  0
TABLE
  2
LTYPE
 70
     9
  0
LTYPE
  2
CONTINUOUS
 70
    64
  3
Solid line
 72
    65
 73
     0
 40
0.000000
  0
LTYPE
  2
DASHED
 70
    64
  3
__ __ __ __ __ __ __ __ __ __ __ __ __ __ __
 72
    65
 73
     2
 40
0.000330
 49
0.000220
 49
-0.000110
  0
LTYPE
  2
HIDDEN
 70
    64
  3
 _ _ _ _ _ _ _ _ _ _ _ _ _ _ _ _ _ _ _ _ _ _
 72
    65
 73
     2
 40
0.000165
 49
0.000110
 49
-0.000055
  0
LTYPE
  2
CENTER
 70
    64
  3
____ _ ____ _ ____ _ ____ _ ____ _ ____ _ ____
 72
    65
 73
     4
 40
0.000880
 49
0.000550
 49
-0.000110
 49
0.000110
 49
-0.000110
  0
LTYPE
  2
PHANTOM
 70
    64
  3
_____ _ _ _____ _ _ _____ _ _ _____ _ _ ____
 72
    65
 73
     6
 40
0.001100
 49
0.000550
 49
-0.000110
 49
0.000110
 49
-0.000110
 49
0.000110
 49
-0.000110
  0
LTYPE
  2
DOT
 70
    64
  3
...............................................
 72
    65
 73
     2
 40
0.000110
 49
0.000000
 49
-0.000110
  0
LTYPE
  2
DASHDOT
 70
    64
  3
__ . __ . __ . __ . __ . __ . __ . __ . __ . __
 72
    65
 73
     4
 40
0.000440
 49
0.000220
 49
-0.000110
 49
0.000000
 49
-0.000110
  0
LTYPE
  2
BORDER
 70
    64
  3
__ __ . __ __ . __ __ . __ __ . __ __ . __ __
 72
    65
 73
     6
 40
0.000770
 49
0.000220
 49
-0.000110
 49
0.000220
 49
-0.000110
 49
0.000000
 49
-0.000110
  0
LTYPE
  2
DIVIDE
 70
    64
  3
__ . . __ . . __ . . __ . . __ . . __ . . __
 72
    65
 73
     6
 40
0.000550
 49
0.000220
 49
-0.000110
 49
0.000000
 49
-0.000110
 49
0.000000
 49
-0.000110
  0
LTYPE
  2
DOTDOT
 70
    64
  3
 . .  . .  . .  . .  . .  . . 
 72
    65
 73
     5
 40
0.000242
 49
-0.000110
 49
0.000000
 49
-0.000110
 49
0.000000
 49
-0.000110
  0
ENDTAB
  0
TABLE
  2
STYLE
 70
     2
  0
STYLE
 70
     0
  2
SN0
 40
0.000000
 41
0.000440
 50
0.000000
 71
     0
 42
0.000000
  3
ROMAND
  0
STYLE
 70
    68
  2
SV0
 40
0.000000
 41
0.000440
 50
0.000000
 71
     0
 42
0.000000
  3
ROMAND
  0
ENDTAB
  0
TABLE
  2
LAYER
 70
     3
  0
LAYER
  2
FOREGROUND
 70
    64
 62
     7
  6
CONTINUOUS
  0
LAYER
  2
BACKGROUND
 70
    65
 62
    -7
  6
CONTINUOUS
  0
LAYER
  2
0
 70
    64
 62
     7
  6
CONTINUOUS
  0
ENDTAB
  0
ENDSEC
  0
SECTION
  2
ENTITIES
  0
POLYLINE
  8
FOREGROUND
  6
CONTINUOUS
 66
     1
 40
0.000000
 41
0.000000
  0
VERTEX
  8
FOREGROUND
  6
CONTINUOUS
 10
0.000000
 20
3.788840
  0
VERTEX
  8
FOREGROUND
  6
CONTINUOUS
 10
8.499920
 20
3.788840
  0
VERTEX
  8
FOREGROUND
  6
CONTINUOUS
 10
8.499920
 20
-7.211160
  0
VERTEX
  8
FOREGROUND
  6
CONTINUOUS
 10
0.000000
 20
-7.211160
  0
VERTEX
  8
FOREGROUND
  6
CONTINUOUS
 10
0.000000
 20
3.788840
  0
SEQEND
  8
0
  0
POLYLINE
  8
FOREGROUND
  6
CONTINUOUS
 66
     1
 40
0.000000
 41
0.000000
  0
VERTEX
  8
FOREGROUND
  6
CONTINUOUS
 10
0.000000
 20
3.788840
  0
VERTEX
  8
FOREGROUND
  6
CONTINUOUS
 10
8.499920
 20
3.788840
  0
VERTEX
  8
FOREGROUND
  6
CONTINUOUS
 10
8.499920
 20
-7.211160
  0
VERTEX
  8
FOREGROUND
  6
CONTINUOUS
 10
0.000000
 20
-7.211160
  0
VERTEX
  8
FOREGROUND
  6
CONTINUOUS
 10
0.000000
 20
3.788840
  0
SEQEND
  8
0
  0
TEXT
  8
0
 10
1.334520
 20
0.303160
 40
0.160825
  1
27
 41
1.000000
  7
SN0
 71
     0
 72
     5
 11
1.549941
 21
0.303160
  0
POLYLINE
  8
0
  6
CONTINUOUS
 66
     1
 40
0.013200
 41
0.013200
  0
VERTEX
  8
0
  6
CONTINUOUS
 10
6.114680
 20
1.079320
  0
VERTEX
  8
0
  6
CONTINUOUS
 10
5.381200
 20
1.079320
  0
VERTEX
  8
0
  6
CONTINUOUS
 10
5.373280
 20
1.078000
  0
VERTEX
  8
0
  6
CONTINUOUS
 10
5.335880
 20
1.030480
  0
VERTEX
  8
0
  6
CONTINUOUS
 10
5.296720
 20
0.992200
  0
VERTEX
  8
0
  6
CONTINUOUS
 10
5.256240
 20
0.961840
  0
VERTEX
  8
0
  6
CONTINUOUS
 10
5.228520
 20
0.945560
  0
VERTEX
  8
0
  6
CONTINUOUS
 10
5.186280
 20
0.927080
  0
VERTEX
  8
0
  6
CONTINUOUS
 10
5.157680
 20
0.917840
  0
VERTEX
  8
0
  6
CONTINUOUS
 10
5.128640
 20
0.910800
  0
VERTEX
  8
0
  6
CONTINUOUS
 10
5.099600
 20
0.905960
  0
VERTEX
  8
0
  6
CONTINUOUS
 10
5.040200
 20
0.901120
  0
VERTEX
  8
0
  6
CONTINUOUS
 10
5.010720
 20
0.900680
  0
VERTEX
  8
0
  6
CONTINUOUS
 10
4.821520
 20
0.909480
  0
VERTEX
  8
0
  6
CONTINUOUS
 10
4.752440
 20
0.907720
  0
VERTEX
  8
0
  6
CONTINUOUS
 10
4.699640
 20
0.900240
  0
VERTEX
  8
0
  6
CONTINUOUS
 10
4.661800
 20
0.889240
  0
VERTEX
  8
0
  6
CONTINUOUS
 10
4.625720
 20
0.872960
  0
VERTEX
  8
0
  6
CONTINUOUS
 10
4.591840
 20
0.850520
  0
VERTEX
  8
0
  6
CONTINUOUS
 10
4.570280
 20
0.831600
  0
VERTEX
  8
0
  6
CONTINUOUS
 10
4.540360
 20
0.796840
  0
VERTEX
  8
0
  6
CONTINUOUS
 10
4.521440
 20
0.768680
  0
VERTEX
  8
0
  6
CONTINUOUS
 10
4.512200
 20
0.772640
  0
VERTEX
  8
0
  6
CONTINUOUS
 10
4.462480
 20
0.807400
  0
VERTEX
  8
0
  6
CONTINUOUS
 10
4.411440
 20
0.839520
  0
VERTEX
  8
0
  6
CONTINUOUS
 10
4.333120
 20
0.881320
  0
VERTEX
  8
0
  6
CONTINUOUS
 10
4.279880
 20
0.905960
  0
VERTEX
  8
0
  6
CONTINUOUS
 10
4.199360
 20
0.937200
  0
VERTEX
  8
0
  6
CONTINUOUS
 10
4.117080
 20
0.962280
  0
VERTEX
  8
0
  6
CONTINUOUS
 10
4.034360
 20
0.981640
  0
VERTEX
  8
0
  6
CONTINUOUS
 10
3.978920
 20
0.991760
  0
VERTEX
  8
0
  6
CONTINUOUS
 10
3.923480
 20
0.999240
  0
VERTEX
  8
0
  6
CONTINUOUS
 10
3.868040
 20
1.004520
  0
VERTEX
  8
0
  6
CONTINUOUS
 10
3.813040
 20
1.007600
  0
VERTEX
  8
0
  6
CONTINUOUS
 10
3.758040
 20
1.008480
  0
VERTEX
  8
0
  6
CONTINUOUS
 10
3.703480
 20
1.007160
  0
VERTEX
  8
0
  6
CONTINUOUS
 10
3.649360
 20
1.004080
  0
VERTEX
  8
0
  6
CONTINUOUS
 10
3.595680
 20
0.999240
  0
VERTEX
  8
0
  6
CONTINUOUS
 10
3.490960
 20
0.984720
  0
VERTEX
  8
0
  6
CONTINUOUS
 10
3.389760
 20
0.963160
  0
VERTEX
  8
0
  6
CONTINUOUS
 10
3.340480
 20
0.950400
  0
VERTEX
  8
0
  6
CONTINUOUS
 10
3.246760
 20
0.920920
  0
VERTEX
  8
0
  6
CONTINUOUS
 10
3.158320
 20
0.886600
  0
VERTEX
  8
0
  6
CONTINUOUS
 10
3.076920
 20
0.848320
  0
VERTEX
  8
0
  6
CONTINUOUS
 10
3.003000
 20
0.806520
  0
VERTEX
  8
0
  6
CONTINUOUS
 10
2.937440
 20
0.762080
  0
VERTEX
  8
0
  6
CONTINUOUS
 10
2.933480
 20
0.762080
  0
VERTEX
  8
0
  6
CONTINUOUS
 10
2.916320
 20
0.791560
  0
VERTEX
  8
0
  6
CONTINUOUS
 10
2.887720
 20
0.828520
  0
VERTEX
  8
0
  6
CONTINUOUS
 10
2.857360
 20
0.857120
  0
VERTEX
  8
0
  6
CONTINUOUS
 10
2.824360
 20
0.878240
  0
VERTEX
  8
0
  6
CONTINUOUS
 10
2.789160
 20
0.893200
  0
VERTEX
  8
0
  6
CONTINUOUS
 10
2.764960
 20
0.899800
  0
VERTEX
  8
0
  6
CONTINUOUS
 10
2.739880
 20
0.904640
  0
VERTEX
  8
0
  6
CONTINUOUS
 10
2.687960
 20
0.908600
  0
VERTEX
  8
0
  6
CONTINUOUS
 10
2.634280
 20
0.906840
  0
VERTEX
  8
0
  6
CONTINUOUS
 10
2.464440
 20
0.893640
  0
VERTEX
  8
0
  6
CONTINUOUS
 10
2.407240
 20
0.893200
  0
VERTEX
  8
0
  6
CONTINUOUS
 10
2.350920
 20
0.898920
  0
VERTEX
  8
0
  6
CONTINUOUS
 10
2.322760
 20
0.904640
  0
VERTEX
  8
0
  6
CONTINUOUS
 10
2.281400
 20
0.917400
  0
VERTEX
  8
0
  6
CONTINUOUS
 10
2.240920
 20
0.936320
  0
VERTEX
  8
0
  6
CONTINUOUS
 10
2.214520
 20
0.952600
  0
VERTEX
  8
0
  6
CONTINUOUS
 10
2.176240
 20
0.983840
  0
VERTEX
  8
0
  6
CONTINUOUS
 10
2.139720
 20
1.023440
  0
VERTEX
  8
0
  6
CONTINUOUS
 10
2.112000
 20
1.059080
  0
VERTEX
  8
0
  6
CONTINUOUS
 10
1.177440
 20
1.059080
  0
VERTEX
  8
0
  6
CONTINUOUS
 10
1.177440
 20
0.271040
  0
VERTEX
  8
0
  6
CONTINUOUS
 10
6.778640
 20
0.271040
  0
VERTEX
  8
0
  6
CONTINUOUS
 10
6.777320
 20
0.272360
  0
VERTEX
  8
0
  6
CONTINUOUS
 10
6.777760
 20
0.800800
  0
VERTEX
  8
0
  6
CONTINUOUS
 10
6.775560
 20
0.830720
  0
VERTEX
  8
0
  6
CONTINUOUS
 10
6.767640
 20
0.872520
  0
VERTEX
  8
0
  6
CONTINUOUS
 10
6.754440
 20
0.910800
  0
VERTEX
  8
0
  6
CONTINUOUS
 10
6.743000
 20
0.934560
  0
VERTEX
  8
0
  6
CONTINUOUS
 10
6.729800
 20
0.957000
  0
VERTEX
  8
0
  6
CONTINUOUS
 10
6.714840
 20
0.977240
  0
VERTEX
  8
0
  6
CONTINUOUS
 10
6.698120
 20
0.996160
  0
VERTEX
  8
0
  6
CONTINUOUS
 10
6.661160
 20
1.028280
  0
VERTEX
  8
0
  6
CONTINUOUS
 10
6.640920
 20
1.041480
  0
VERTEX
  8
0
  6
CONTINUOUS
 10
6.619360
 20
1.052920
  0
VERTEX
  8
0
  6
CONTINUOUS
 10
6.597360
 20
1.062160
  0
VERTEX
  8
0
  6
CONTINUOUS
 10
6.574920
 20
1.069640
  0
VERTEX
  8
0
  6
CONTINUOUS
 10
6.552040
 20
1.074480
  0
VERTEX
  8
0
  6
CONTINUOUS
 10
6.528720
 20
1.077560
  0
VERTEX
  8
0
  6
CONTINUOUS
 10
6.505400
 20
1.078440
  0
VERTEX
  8
0
  6
CONTINUOUS
 10
6.481640
 20
1.077120
  0
VERTEX
  8
0
  6
CONTINUOUS
 10
6.458760
 20
1.073160
  0
VERTEX
  8
0
  6
CONTINUOUS
 10
6.424440
 20
1.063040
  0
VERTEX
  8
0
  6
CONTINUOUS
 10
6.391880
 20
1.047200
  0
VERTEX
  8
0
  6
CONTINUOUS
 10
6.361080
 20
1.025640
  0
VERTEX
  8
0
  6
CONTINUOUS
 10
6.332920
 20
0.997920
  0
VERTEX
  8
0
  6
CONTINUOUS
 10
6.315320
 20
0.976360
  0
VERTEX
  8
0
  6
CONTINUOUS
 10
6.292440
 20
0.938520
  0
VERTEX
  8
0
  6
CONTINUOUS
 10
6.273080
 20
0.894080
  0
VERTEX
  8
0
  6
CONTINUOUS
 10
6.258560
 20
0.843040
  0
VERTEX
  8
0
  6
CONTINUOUS
 10
6.254600
 20
0.824560
  0
VERTEX
  8
0
  6
CONTINUOUS
 10
6.126560
 20
0.824560
  0
VERTEX
  8
0
  6
CONTINUOUS
 10
6.126560
 20
1.079320
  0
VERTEX
  8
0
  6
CONTINUOUS
 10
6.114680
 20
1.079320
  0
SEQEND
  8
0
  0
SOLID
  8
0
 62
    15
 10
3.003000
 20
2.312640
 11
2.995960
 21
3.045240
 12
3.006960
 22
2.312640
 13
3.000360
 23
3.045240
  0
POLYLINE
  8
0
  6
CONTINUOUS
 66
     1
 40
0.000000
 41
0.000000
  0
VERTEX
  8
0
  6
CONTINUOUS
 10
3.003000
 20
2.312640
  0
VERTEX
  8
0
  6
CONTINUOUS
 10
2.995960
 20
3.045240
  0
VERTEX
  8
0
  6
CONTINUOUS
 10
3.000360
 20
3.045240
  0
VERTEX
  8
0
  6
CONTINUOUS
 10
3.006960
 20
2.312640
  0
VERTEX
  8
0
  6
CONTINUOUS
 10
3.003000
 20
2.312640
  0
SEQEND
  8
0
  0
SOLID
  8
0
 62
    15
 10
6.324120
 20
2.375120
 11
6.317520
 21
3.107720
 12
6.343040
 22
2.444640
 13
6.336000
 23
3.177240
  0
POLYLINE
  8
0
  6
CONTINUOUS
 66
     1
 40
0.000000
 41
0.000000
  0
VERTEX
  8
0
  6
CONTINUOUS
 10
6.324120
 20
2.375120
  0
VERTEX
  8
0
  6
CONTINUOUS
 10
6.317520
 20
3.107720
  0
VERTEX
  8
0
  6
CONTINUOUS
 10
6.336000
 20
3.177240
  0
VERTEX
  8
0
  6
CONTINUOUS
 10
6.343040
 20
2.444640
  0
VERTEX
  8
0
  6
CONTINUOUS
 10
6.324120
 20
2.375120
  0
SEQEND
  8
0
  0
SOLID
  8
0
 62
    15
 10
6.343040
 20
2.444640
 11
6.336000
 21
3.177240
 12
6.369440
 22
2.502280
 13
6.362400
 23
3.234880
  0
POLYLINE
  8
0
  6
CONTINUOUS
 66
     1
 40
0.000000
 41
0.000000
  0
VERTEX
  8
0
  6
CONTINUOUS
 10
6.343040
 20
2.444640
  0
VERTEX
  8
0
  6
CONTINUOUS
 10
6.336000
 20
3.177240
  0
VERTEX
  8
0
  6
CONTINUOUS
 10
6.362400
 20
3.234880
  0
VERTEX
  8
0
  6
CONTINUOUS
 10
6.369440
 20
2.502280
  0
VERTEX
  8
0
  6
CONTINUOUS
 10
6.343040
 20
2.444640
  0
SEQEND
  8
0
  0
SOLID
  8
0
 62
    15
 10
6.369440
 20
2.502280
 11
6.362400
 21
3.234880
 12
6.402440
 22
2.548920
 13
6.395400
 23
3.281080
  0
POLYLINE
  8
0
  6
CONTINUOUS
 66
     1
 40
0.000000
 41
0.000000
  0
VERTEX
  8
0
  6
CONTINUOUS
 10
6.369440
 20
2.502280
  0
VERTEX
  8
0
  6
CONTINUOUS
 10
6.362400
 20
3.234880
  0
VERTEX
  8
0
  6
CONTINUOUS
 10
6.395400
 20
3.281080
  0
VERTEX
  8
0
  6
CONTINUOUS
 10
6.402440
 20
2.548920
  0
VERTEX
  8
0
  6
CONTINUOUS
 10
6.369440
 20
2.502280
  0
SEQEND
  8
0
  0
SOLID
  8
0
 62
    15
 10
6.402440
 20
2.548920
 11
6.395400
 21
3.281080
 12
6.440720
 22
2.584120
 13
6.434120
 23
3.316720
  0
POLYLINE
  8
0
  6
CONTINUOUS
 66
     1
 40
0.000000
 41
0.000000
  0
VERTEX
  8
0
  6
CONTINUOUS
 10
6.402440
 20
2.548920
  0
VERTEX
  8
0
  6
CONTINUOUS
 10
6.395400
 20
3.281080
  0
VERTEX
  8
0
  6
CONTINUOUS
 10
6.434120
 20
3.316720
  0
VERTEX
  8
0
  6
CONTINUOUS
 10
6.440720
 20
2.584120
  0
VERTEX
  8
0
  6
CONTINUOUS
 10
6.402440
 20
2.548920
  0
SEQEND
  8
0
  0
SOLID
  8
0
 62
    15
 10
6.440720
 20
2.584120
 11
6.434120
 21
3.316720
 12
6.482960
 22
2.609200
 13
6.476360
 23
3.341360
  0
POLYLINE
  8
0
  6
CONTINUOUS
 66
     1
 40
0.000000
 41
0.000000
  0
VERTEX
  8
0
  6
CONTINUOUS
 10
6.440720
 20
2.584120
  0
VERTEX
  8
0
  6
CONTINUOUS
 10
6.434120
 20
3.316720
  0
VERTEX
  8
0
  6
CONTINUOUS
 10
6.476360
 20
3.341360
  0
VERTEX
  8
0
  6
CONTINUOUS
 10
6.482960
 20
2.609200
  0
VERTEX
  8
0
  6
CONTINUOUS
 10
6.440720
 20
2.584120
  0
SEQEND
  8
0
  0
SOLID
  8
0
 62
    15
 10
6.482960
 20
2.609200
 11
6.476360
 21
3.341360
 12
6.528280
 22
2.623720
 13
6.521240
 23
3.356320
  0
POLYLINE
  8
0
  6
CONTINUOUS
 66
     1
 40
0.000000
 41
0.000000
  0
VERTEX
  8
0
  6
CONTINUOUS
 10
6.482960
 20
2.609200
  0
VERTEX
  8
0
  6
CONTINUOUS
 10
6.476360
 20
3.341360
  0
VERTEX
  8
0
  6
CONTINUOUS
 10
6.521240
 20
3.356320
  0
VERTEX
  8
0
  6
CONTINUOUS
 10
6.528280
 20
2.623720
  0
VERTEX
  8
0
  6
CONTINUOUS
 10
6.482960
 20
2.609200
  0
SEQEND
  8
0
  0
SOLID
  8
0
 62
    15
 10
6.528280
 20
2.623720
 11
6.521240
 21
3.356320
 12
6.574920
 22
2.629440
 13
6.567880
 23
3.361600
  0
POLYLINE
  8
0
  6
CONTINUOUS
 66
     1
 40
0.000000
 41
0.000000
  0
VERTEX
  8
0
  6
CONTINUOUS
 10
6.528280
 20
2.623720
  0
VERTEX
  8
0
  6
CONTINUOUS
 10
6.521240
 20
3.356320
  0
VERTEX
  8
0
  6
CONTINUOUS
 10
6.567880
 20
3.361600
  0
VERTEX
  8
0
  6
CONTINUOUS
 10
6.574920
 20
2.629440
  0
VERTEX
  8
0
  6
CONTINUOUS
 10
6.528280
 20
2.623720
  0
SEQEND
  8
0
  0
SOLID
  8
0
 62
    15
 10
6.574920
 20
2.629440
 11
6.567880
 21
3.361600
 12
6.621560
 22
2.625480
 13
6.614960
 23
3.357640
  0
POLYLINE
  8
0
  6
CONTINUOUS
 66
     1
 40
0.000000
 41
0.000000
  0
VERTEX
  8
0
  6
CONTINUOUS
 10
6.574920
 20
2.629440
  0
VERTEX
  8
0
  6
CONTINUOUS
 10
6.567880
 20
3.361600
  0
VERTEX
  8
0
  6
CONTINUOUS
 10
6.614960
 20
3.357640
  0
VERTEX
  8
0
  6
CONTINUOUS
 10
6.621560
 20
2.625480
  0
VERTEX
  8
0
  6
CONTINUOUS
 10
6.574920
 20
2.629440
  0
SEQEND
  8
0
  0
SOLID
  8
0
 62
    15
 10
6.621560
 20
2.625480
 11
6.614960
 21
3.357640
 12
6.667320
 22
2.613160
 13
6.660280
 23
3.345320
  0
POLYLINE
  8
0
  6
CONTINUOUS
 66
     1
 40
0.000000
 41
0.000000
  0
VERTEX
  8
0
  6
CONTINUOUS
 10
6.621560
 20
2.625480
  0
VERTEX
  8
0
  6
CONTINUOUS
 10
6.614960
 20
3.357640
  0
VERTEX
  8
0
  6
CONTINUOUS
 10
6.660280
 20
3.345320
  0
VERTEX
  8
0
  6
CONTINUOUS
 10
6.667320
 20
2.613160
  0
VERTEX
  8
0
  6
CONTINUOUS
 10
6.621560
 20
2.625480
  0
SEQEND
  8
0
  0
SOLID
  8
0
 62
    15
 10
6.667320
 20
2.613160
 11
6.660280
 21
3.345320
 12
6.710440
 22
2.592480
 13
6.703400
 23
3.324640
  0
POLYLINE
  8
0
  6
CONTINUOUS
 66
     1
 40
0.000000
 41
0.000000
  0
VERTEX
  8
0
  6
CONTINUOUS
 10
6.667320
 20
2.613160
  0
VERTEX
  8
0
  6
CONTINUOUS
 10
6.660280
 20
3.345320
  0
VERTEX
  8
0
  6
CONTINUOUS
 10
6.703400
 20
3.324640
  0
VERTEX
  8
0
  6
CONTINUOUS
 10
6.710440
 20
2.592480
  0
VERTEX
  8
0
  6
CONTINUOUS
 10
6.667320
 20
2.613160
  0
SEQEND
  8
0
  0
SOLID
  8
0
 62
    15
 10
6.710440
 20
2.592480
 11
6.703400
 21
3.324640
 12
6.750040
 22
2.563880
 13
6.743000
 23
3.296480
  0
POLYLINE
  8
0
  6
CONTINUOUS
 66
     1
 40
0.000000
 41
0.000000
  0
VERTEX
  8
0
  6
CONTINUOUS
 10
6.710440
 20
2.592480
  0
VERTEX
  8
0
  6
CONTINUOUS
 10
6.703400
 20
3.324640
  0
VERTEX
  8
0
  6
CONTINUOUS
 10
6.743000
 20
3.296480
  0
VERTEX
  8
0
  6
CONTINUOUS
 10
6.750040
 20
2.563880
  0
VERTEX
  8
0
  6
CONTINUOUS
 10
6.710440
 20
2.592480
  0
SEQEND
  8
0
  0
SOLID
  8
0
 62
    15
 10
6.784360
 20
2.528240
 11
6.777320
 21
3.260400
 12
6.812520
 22
2.485560
 13
6.805920
 23
3.217720
  0
POLYLINE
  8
0
  6
CONTINUOUS
 66
     1
 40
0.000000
 41
0.000000
  0
VERTEX
  8
0
  6
CONTINUOUS
 10
6.784360
 20
2.528240
  0
VERTEX
  8
0
  6
CONTINUOUS
 10
6.777320
 20
3.260400
  0
VERTEX
  8
0
  6
CONTINUOUS
 10
6.805920
 20
3.217720
  0
VERTEX
  8
0
  6
CONTINUOUS
 10
6.812520
 20
2.485560
  0
VERTEX
  8
0
  6
CONTINUOUS
 10
6.784360
 20
2.528240
  0
SEQEND
  8
0
  0
SOLID
  8
0
 62
    15
 10
6.750040
 20
2.563880
 11
6.743000
 21
3.296480
 12
6.784360
 22
2.528240
 13
6.777320
 23
3.260400
  0
POLYLINE
  8
0
  6
CONTINUOUS
 66
     1
 40
0.000000
 41
0.000000
  0
VERTEX
  8
0
  6
CONTINUOUS
 10
6.750040
 20
2.563880
  0
VERTEX
  8
0
  6
CONTINUOUS
 10
6.743000
 20
3.296480
  0
VERTEX
  8
0
  6
CONTINUOUS
 10
6.777320
 20
3.260400
  0
VERTEX
  8
0
  6
CONTINUOUS
 10
6.784360
 20
2.528240
  0
VERTEX
  8
0
  6
CONTINUOUS
 10
6.750040
 20
2.563880
  0
SEQEND
  8
0
  0
SOLID
  8
0
 62
    15
 10
6.812520
 20
2.485560
 11
6.805920
 21
3.217720
 12
6.833200
 22
2.436280
 13
6.826600
 23
3.168880
  0
POLYLINE
  8
0
  6
CONTINUOUS
 66
     1
 40
0.000000
 41
0.000000
  0
VERTEX
  8
0
  6
CONTINUOUS
 10
6.812520
 20
2.485560
  0
VERTEX
  8
0
  6
CONTINUOUS
 10
6.805920
 20
3.217720
  0
VERTEX
  8
0
  6
CONTINUOUS
 10
6.826600
 20
3.168880
  0
VERTEX
  8
0
  6
CONTINUOUS
 10
6.833200
 20
2.436280
  0
VERTEX
  8
0
  6
CONTINUOUS
 10
6.812520
 20
2.485560
  0
SEQEND
  8
0
  0
SOLID
  8
0
 62
    15
 10
6.833200
 20
2.436280
 11
6.826600
 21
3.168880
 12
6.845080
 22
2.381280
 13
6.838480
 23
3.113880
  0
POLYLINE
  8
0
  6
CONTINUOUS
 66
     1
 40
0.000000
 41
0.000000
  0
VERTEX
  8
0
  6
CONTINUOUS
 10
6.833200
 20
2.436280
  0
VERTEX
  8
0
  6
CONTINUOUS
 10
6.826600
 20
3.168880
  0
VERTEX
  8
0
  6
CONTINUOUS
 10
6.838480
 20
3.113880
  0
VERTEX
  8
0
  6
CONTINUOUS
 10
6.845080
 20
2.381280
  0
VERTEX
  8
0
  6
CONTINUOUS
 10
6.833200
 20
2.436280
  0
SEQEND
  8
0
  0
SOLID
  8
0
 62
    15
 10
6.845080
 20
2.381280
 11
6.838480
 21
3.113880
 12
6.846840
 22
2.320560
 13
6.840240
 23
3.053160
  0
POLYLINE
  8
0
  6
CONTINUOUS
 66
     1
 40
0.000000
 41
0.000000
  0
VERTEX
  8
0
  6
CONTINUOUS
 10
6.845080
 20
2.381280
  0
VERTEX
  8
0
  6
CONTINUOUS
 10
6.838480
 20
3.113880
  0
VERTEX
  8
0
  6
CONTINUOUS
 10
6.840240
 20
3.053160
  0
VERTEX
  8
0
  6
CONTINUOUS
 10
6.846840
 20
2.320560
  0
VERTEX
  8
0
  6
CONTINUOUS
 10
6.845080
 20
2.381280
  0
SEQEND
  8
0
  0
SOLID
  8
0
 62
    15
 10
6.846840
 20
1.823360
 11
6.840240
 21
2.555520
 12
6.848160
 22
1.822040
 13
6.841560
 23
2.554200
  0
POLYLINE
  8
0
  6
CONTINUOUS
 66
     1
 40
0.000000
 41
0.000000
  0
VERTEX
  8
0
  6
CONTINUOUS
 10
6.846840
 20
1.823360
  0
VERTEX
  8
0
  6
CONTINUOUS
 10
6.840240
 20
2.555520
  0
VERTEX
  8
0
  6
CONTINUOUS
 10
6.841560
 20
2.554200
  0
VERTEX
  8
0
  6
CONTINUOUS
 10
6.848160
 20
1.822040
  0
VERTEX
  8
0
  6
CONTINUOUS
 10
6.846840
 20
1.823360
  0
SEQEND
  8
0
  0
SOLID
  8
0
 62
    15
 10
1.246960
 20
1.822040
 11
1.240360
 21
2.554200
 12
1.246960
 22
2.610080
 13
1.239920
 23
3.342240
  0
POLYLINE
  8
0
  6
CONTINUOUS
 66
     1
 40
0.000000
 41
0.000000
  0
VERTEX
  8
0
  6
CONTINUOUS
 10
1.246960
 20
1.822040
  0
VERTEX
  8
0
  6
CONTINUOUS
 10
1.240360
 20
2.554200
  0
VERTEX
  8
0
  6
CONTINUOUS
 10
1.239920
 20
3.342240
  0
VERTEX
  8
0
  6
CONTINUOUS
 10
1.246960
 20
2.610080
  0
VERTEX
  8
0
  6
CONTINUOUS
 10
1.246960
 20
1.822040
  0
SEQEND
  8
0
  0
SOLID
  8
0
 62
    15
 10
1.246960
 20
2.610080
 11
1.239920
 21
3.342240
 12
2.181520
 22
2.610080
 13
2.174920
 23
3.342240
  0
POLYLINE
  8
0
  6
CONTINUOUS
 66
     1
 40
0.000000
 41
0.000000
  0
VERTEX
  8
0
  6
CONTINUOUS
 10
1.246960
 20
2.610080
  0
VERTEX
  8
0
  6
CONTINUOUS
 10
1.239920
 20
3.342240
  0
VERTEX
  8
0
  6
CONTINUOUS
 10
2.174920
 20
3.342240
  0
VERTEX
  8
0
  6
CONTINUOUS
 10
2.181520
 20
2.610080
  0
VERTEX
  8
0
  6
CONTINUOUS
 10
1.246960
 20
2.610080
  0
SEQEND
  8
0
  0
SOLID
  8
0
 62
    15
 10
2.181520
 20
2.610080
 11
2.174920
 21
3.342240
 12
2.185480
 22
2.605680
 13
2.178880
 23
3.338280
  0
POLYLINE
  8
0
  6
CONTINUOUS
 66
     1
 40
0.000000
 41
0.000000
  0
VERTEX
  8
0
  6
CONTINUOUS
 10
2.181520
 20
2.610080
  0
VERTEX
  8
0
  6
CONTINUOUS
 10
2.174920
 20
3.342240
  0
VERTEX
  8
0
  6
CONTINUOUS
 10
2.178880
 20
3.338280
  0
VERTEX
  8
0
  6
CONTINUOUS
 10
2.185480
 20
2.605680
  0
VERTEX
  8
0
  6
CONTINUOUS
 10
2.181520
 20
2.610080
  0
SEQEND
  8
0
  0
SOLID
  8
0
 62
    15
 10
2.185480
 20
2.605680
 11
2.178880
 21
3.338280
 12
2.209240
 22
2.574440
 13
2.202200
 23
3.306600
  0
POLYLINE
  8
0
  6
CONTINUOUS
 66
     1
 40
0.000000
 41
0.000000
  0
VERTEX
  8
0
  6
CONTINUOUS
 10
2.185480
 20
2.605680
  0
VERTEX
  8
0
  6
CONTINUOUS
 10
2.178880
 20
3.338280
  0
VERTEX
  8
0
  6
CONTINUOUS
 10
2.202200
 20
3.306600
  0
VERTEX
  8
0
  6
CONTINUOUS
 10
2.209240
 20
2.574440
  0
VERTEX
  8
0
  6
CONTINUOUS
 10
2.185480
 20
2.605680
  0
SEQEND
  8
0
  0
SOLID
  8
0
 62
    15
 10
2.209240
 20
2.574440
 11
2.202200
 21
3.306600
 12
2.233440
 22
2.546720
 13
2.226400
 23
3.279320
  0
POLYLINE
  8
0
  6
CONTINUOUS
 66
     1
 40
0.000000
 41
0.000000
  0
VERTEX
  8
0
  6
CONTINUOUS
 10
2.209240
 20
2.574440
  0
VERTEX
  8
0
  6
CONTINUOUS
 10
2.202200
 20
3.306600
  0
VERTEX
  8
0
  6
CONTINUOUS
 10
2.226400
 20
3.279320
  0
VERTEX
  8
0
  6
CONTINUOUS
 10
2.233440
 20
2.546720
  0
VERTEX
  8
0
  6
CONTINUOUS
 10
2.209240
 20
2.574440
  0
SEQEND
  8
0
  0
SOLID
  8
0
 62
    15
 10
2.233440
 20
2.546720
 11
2.226400
 21
3.279320
 12
2.284040
 22
2.503600
 13
2.277440
 23
3.235760
  0
POLYLINE
  8
0
  6
CONTINUOUS
 66
     1
 40
0.000000
 41
0.000000
  0
VERTEX
  8
0
  6
CONTINUOUS
 10
2.233440
 20
2.546720
  0
VERTEX
  8
0
  6
CONTINUOUS
 10
2.226400
 20
3.279320
  0
VERTEX
  8
0
  6
CONTINUOUS
 10
2.277440
 20
3.235760
  0
VERTEX
  8
0
  6
CONTINUOUS
 10
2.284040
 20
2.503600
  0
VERTEX
  8
0
  6
CONTINUOUS
 10
2.233440
 20
2.546720
  0
SEQEND
  8
0
  0
SOLID
  8
0
 62
    15
 10
2.284040
 20
2.503600
 11
2.277440
 21
3.235760
 12
2.337280
 22
2.473680
 13
2.330240
 23
3.206280
  0
POLYLINE
  8
0
  6
CONTINUOUS
 66
     1
 40
0.000000
 41
0.000000
  0
VERTEX
  8
0
  6
CONTINUOUS
 10
2.284040
 20
2.503600
  0
VERTEX
  8
0
  6
CONTINUOUS
 10
2.277440
 20
3.235760
  0
VERTEX
  8
0
  6
CONTINUOUS
 10
2.330240
 20
3.206280
  0
VERTEX
  8
0
  6
CONTINUOUS
 10
2.337280
 20
2.473680
  0
VERTEX
  8
0
  6
CONTINUOUS
 10
2.284040
 20
2.503600
  0
SEQEND
  8
0
  0
SOLID
  8
0
 62
    15
 10
2.337280
 20
2.473680
 11
2.330240
 21
3.206280
 12
2.392280
 22
2.455200
 13
2.385240
 23
3.187800
  0
POLYLINE
  8
0
  6
CONTINUOUS
 66
     1
 40
0.000000
 41
0.000000
  0
VERTEX
  8
0
  6
CONTINUOUS
 10
2.337280
 20
2.473680
  0
VERTEX
  8
0
  6
CONTINUOUS
 10
2.330240
 20
3.206280
  0
VERTEX
  8
0
  6
CONTINUOUS
 10
2.385240
 20
3.187800
  0
VERTEX
  8
0
  6
CONTINUOUS
 10
2.392280
 20
2.455200
  0
VERTEX
  8
0
  6
CONTINUOUS
 10
2.337280
 20
2.473680
  0
SEQEND
  8
0
  0
SOLID
  8
0
 62
    15
 10
2.392280
 20
2.455200
 11
2.385240
 21
3.187800
 12
2.448600
 22
2.445960
 13
2.441560
 23
3.178560
  0
POLYLINE
  8
0
  6
CONTINUOUS
 66
     1
 40
0.000000
 41
0.000000
  0
VERTEX
  8
0
  6
CONTINUOUS
 10
2.392280
 20
2.455200
  0
VERTEX
  8
0
  6
CONTINUOUS
 10
2.385240
 20
3.187800
  0
VERTEX
  8
0
  6
CONTINUOUS
 10
2.441560
 20
3.178560
  0
VERTEX
  8
0
  6
CONTINUOUS
 10
2.448600
 20
2.445960
  0
VERTEX
  8
0
  6
CONTINUOUS
 10
2.392280
 20
2.455200
  0
SEQEND
  8
0
  0
SOLID
  8
0
 62
    15
 10
2.448600
 20
2.445960
 11
2.441560
 21
3.178560
 12
2.505360
 22
2.443760
 13
2.498760
 23
3.175920
  0
POLYLINE
  8
0
  6
CONTINUOUS
 66
     1
 40
0.000000
 41
0.000000
  0
VERTEX
  8
0
  6
CONTINUOUS
 10
2.448600
 20
2.445960
  0
VERTEX
  8
0
  6
CONTINUOUS
 10
2.441560
 20
3.178560
  0
VERTEX
  8
0
  6
CONTINUOUS
 10
2.498760
 20
3.175920
  0
VERTEX
  8
0
  6
CONTINUOUS
 10
2.505360
 20
2.443760
  0
VERTEX
  8
0
  6
CONTINUOUS
 10
2.448600
 20
2.445960
  0
SEQEND
  8
0
  0
SOLID
  8
0
 62
    15
 10
2.505360
 20
2.443760
 11
2.498760
 21
3.175920
 12
2.619760
 22
2.450800
 13
2.612720
 23
3.183400
  0
POLYLINE
  8
0
  6
CONTINUOUS
 66
     1
 40
0.000000
 41
0.000000
  0
VERTEX
  8
0
  6
CONTINUOUS
 10
2.505360
 20
2.443760
  0
VERTEX
  8
0
  6
CONTINUOUS
 10
2.498760
 20
3.175920
  0
VERTEX
  8
0
  6
CONTINUOUS
 10
2.612720
 20
3.183400
  0
VERTEX
  8
0
  6
CONTINUOUS
 10
2.619760
 20
2.450800
  0
VERTEX
  8
0
  6
CONTINUOUS
 10
2.505360
 20
2.443760
  0
SEQEND
  8
0
  0
SOLID
  8
0
 62
    15
 10
2.619760
 20
2.450800
 11
2.612720
 21
3.183400
 12
2.731080
 22
2.459160
 13
2.724040
 23
3.191320
  0
POLYLINE
  8
0
  6
CONTINUOUS
 66
     1
 40
0.000000
 41
0.000000
  0
VERTEX
  8
0
  6
CONTINUOUS
 10
2.619760
 20
2.450800
  0
VERTEX
  8
0
  6
CONTINUOUS
 10
2.612720
 20
3.183400
  0
VERTEX
  8
0
  6
CONTINUOUS
 10
2.724040
 20
3.191320
  0
VERTEX
  8
0
  6
CONTINUOUS
 10
2.731080
 20
2.459160
  0
VERTEX
  8
0
  6
CONTINUOUS
 10
2.619760
 20
2.450800
  0
SEQEND
  8
0
  0
SOLID
  8
0
 62
    15
 10
2.731080
 20
2.459160
 11
2.724040
 21
3.191320
 12
2.783880
 22
2.457840
 13
2.776840
 23
3.190440
  0
POLYLINE
  8
0
  6
CONTINUOUS
 66
     1
 40
0.000000
 41
0.000000
  0
VERTEX
  8
0
  6
CONTINUOUS
 10
2.731080
 20
2.459160
  0
VERTEX
  8
0
  6
CONTINUOUS
 10
2.724040
 20
3.191320
  0
VERTEX
  8
0
  6
CONTINUOUS
 10
2.776840
 20
3.190440
  0
VERTEX
  8
0
  6
CONTINUOUS
 10
2.783880
 20
2.457840
  0
VERTEX
  8
0
  6
CONTINUOUS
 10
2.731080
 20
2.459160
  0
SEQEND
  8
0
  0
SOLID
  8
0
 62
    15
 10
2.783880
 20
2.457840
 11
2.776840
 21
3.190440
 12
2.834480
 22
2.450360
 13
2.827880
 23
3.182960
  0
POLYLINE
  8
0
  6
CONTINUOUS
 66
     1
 40
0.000000
 41
0.000000
  0
VERTEX
  8
0
  6
CONTINUOUS
 10
2.783880
 20
2.457840
  0
VERTEX
  8
0
  6
CONTINUOUS
 10
2.776840
 20
3.190440
  0
VERTEX
  8
0
  6
CONTINUOUS
 10
2.827880
 20
3.182960
  0
VERTEX
  8
0
  6
CONTINUOUS
 10
2.834480
 20
2.450360
  0
VERTEX
  8
0
  6
CONTINUOUS
 10
2.783880
 20
2.457840
  0
SEQEND
  8
0
  0
SOLID
  8
0
 62
    15
 10
2.834480
 20
2.450360
 11
2.827880
 21
3.182960
 12
2.882440
 22
2.434520
 13
2.875400
 23
3.167120
  0
POLYLINE
  8
0
  6
CONTINUOUS
 66
     1
 40
0.000000
 41
0.000000
  0
VERTEX
  8
0
  6
CONTINUOUS
 10
2.834480
 20
2.450360
  0
VERTEX
  8
0
  6
CONTINUOUS
 10
2.827880
 20
3.182960
  0
VERTEX
  8
0
  6
CONTINUOUS
 10
2.875400
 20
3.167120
  0
VERTEX
  8
0
  6
CONTINUOUS
 10
2.882440
 20
2.434520
  0
VERTEX
  8
0
  6
CONTINUOUS
 10
2.834480
 20
2.450360
  0
SEQEND
  8
0
  0
SOLID
  8
0
 62
    15
 10
2.882440
 20
2.434520
 11
2.875400
 21
3.167120
 12
2.926440
 22
2.407680
 13
2.919840
 23
3.140280
  0
POLYLINE
  8
0
  6
CONTINUOUS
 66
     1
 40
0.000000
 41
0.000000
  0
VERTEX
  8
0
  6
CONTINUOUS
 10
2.882440
 20
2.434520
  0
VERTEX
  8
0
  6
CONTINUOUS
 10
2.875400
 20
3.167120
  0
VERTEX
  8
0
  6
CONTINUOUS
 10
2.919840
 20
3.140280
  0
VERTEX
  8
0
  6
CONTINUOUS
 10
2.926440
 20
2.407680
  0
VERTEX
  8
0
  6
CONTINUOUS
 10
2.882440
 20
2.434520
  0
SEQEND
  8
0
  0
SOLID
  8
0
 62
    15
 10
2.926440
 20
2.407680
 11
2.919840
 21
3.140280
 12
2.966920
 22
2.367640
 13
2.960320
 23
3.100240
  0
POLYLINE
  8
0
  6
CONTINUOUS
 66
     1
 40
0.000000
 41
0.000000
  0
VERTEX
  8
0
  6
CONTINUOUS
 10
2.926440
 20
2.407680
  0
VERTEX
  8
0
  6
CONTINUOUS
 10
2.919840
 20
3.140280
  0
VERTEX
  8
0
  6
CONTINUOUS
 10
2.960320
 20
3.100240
  0
VERTEX
  8
0
  6
CONTINUOUS
 10
2.966920
 20
2.367640
  0
VERTEX
  8
0
  6
CONTINUOUS
 10
2.926440
 20
2.407680
  0
SEQEND
  8
0
  0
SOLID
  8
0
 62
    15
 10
2.966920
 20
2.367640
 11
2.960320
 21
3.100240
 12
2.985400
 22
2.342120
 13
2.978800
 23
3.074720
  0
POLYLINE
  8
0
  6
CONTINUOUS
 66
     1
 40
0.000000
 41
0.000000
  0
VERTEX
  8
0
  6
CONTINUOUS
 10
2.966920
 20
2.367640
  0
VERTEX
  8
0
  6
CONTINUOUS
 10
2.960320
 20
3.100240
  0
VERTEX
  8
0
  6
CONTINUOUS
 10
2.978800
 20
3.074720
  0
VERTEX
  8
0
  6
CONTINUOUS
 10
2.985400
 20
2.342120
  0
VERTEX
  8
0
  6
CONTINUOUS
 10
2.966920
 20
2.367640
  0
SEQEND
  8
0
  0
SOLID
  8
0
 62
    15
 10
2.985400
 20
2.342120
 11
2.978800
 21
3.074720
 12
3.003000
 22
2.312640
 13
2.995960
 23
3.045240
  0
POLYLINE
  8
0
  6
CONTINUOUS
 66
     1
 40
0.000000
 41
0.000000
  0
VERTEX
  8
0
  6
CONTINUOUS
 10
2.985400
 20
2.342120
  0
VERTEX
  8
0
  6
CONTINUOUS
 10
2.978800
 20
3.074720
  0
VERTEX
  8
0
  6
CONTINUOUS
 10
2.995960
 20
3.045240
  0
VERTEX
  8
0
  6
CONTINUOUS
 10
3.003000
 20
2.312640
  0
VERTEX
  8
0
  6
CONTINUOUS
 10
2.985400
 20
2.342120
  0
SEQEND
  8
0
  0
SOLID
  8
0
 62
    15
 10
6.196520
 20
2.375120
 11
6.189480
 21
3.107720
 12
6.324120
 22
2.375120
 13
6.317520
 23
3.107720
  0
POLYLINE
  8
0
  6
CONTINUOUS
 66
     1
 40
0.000000
 41
0.000000
  0
VERTEX
  8
0
  6
CONTINUOUS
 10
6.196520
 20
2.375120
  0
VERTEX
  8
0
  6
CONTINUOUS
 10
6.189480
 20
3.107720
  0
VERTEX
  8
0
  6
CONTINUOUS
 10
6.317520
 20
3.107720
  0
VERTEX
  8
0
  6
CONTINUOUS
 10
6.324120
 20
2.375120
  0
VERTEX
  8
0
  6
CONTINUOUS
 10
6.196520
 20
2.375120
  0
SEQEND
  8
0
  0
SOLID
  8
0
 62
    15
 10
3.006960
 20
2.312640
 11
3.000360
 21
3.045240
 12
3.072520
 22
2.357080
 13
3.065480
 23
3.089240
  0
POLYLINE
  8
0
  6
CONTINUOUS
 66
     1
 40
0.000000
 41
0.000000
  0
VERTEX
  8
0
  6
CONTINUOUS
 10
3.006960
 20
2.312640
  0
VERTEX
  8
0
  6
CONTINUOUS
 10
3.000360
 20
3.045240
  0
VERTEX
  8
0
  6
CONTINUOUS
 10
3.065480
 20
3.089240
  0
VERTEX
  8
0
  6
CONTINUOUS
 10
3.072520
 20
2.357080
  0
VERTEX
  8
0
  6
CONTINUOUS
 10
3.006960
 20
2.312640
  0
SEQEND
  8
0
  0
SOLID
  8
0
 62
    15
 10
3.072520
 20
2.357080
 11
3.065480
 21
3.089240
 12
3.146440
 22
2.398880
 13
3.139400
 23
3.131040
  0
POLYLINE
  8
0
  6
CONTINUOUS
 66
     1
 40
0.000000
 41
0.000000
  0
VERTEX
  8
0
  6
CONTINUOUS
 10
3.072520
 20
2.357080
  0
VERTEX
  8
0
  6
CONTINUOUS
 10
3.065480
 20
3.089240
  0
VERTEX
  8
0
  6
CONTINUOUS
 10
3.139400
 20
3.131040
  0
VERTEX
  8
0
  6
CONTINUOUS
 10
3.146440
 20
2.398880
  0
VERTEX
  8
0
  6
CONTINUOUS
 10
3.072520
 20
2.357080
  0
SEQEND
  8
0
  0
SOLID
  8
0
 62
    15
 10
3.146440
 20
2.398880
 11
3.139400
 21
3.131040
 12
3.227840
 22
2.437160
 13
3.221240
 23
3.169320
  0
POLYLINE
  8
0
  6
CONTINUOUS
 66
     1
 40
0.000000
 41
0.000000
  0
VERTEX
  8
0
  6
CONTINUOUS
 10
3.146440
 20
2.398880
  0
VERTEX
  8
0
  6
CONTINUOUS
 10
3.139400
 20
3.131040
  0
VERTEX
  8
0
  6
CONTINUOUS
 10
3.221240
 20
3.169320
  0
VERTEX
  8
0
  6
CONTINUOUS
 10
3.227840
 20
2.437160
  0
VERTEX
  8
0
  6
CONTINUOUS
 10
3.146440
 20
2.398880
  0
SEQEND
  8
0
  0
SOLID
  8
0
 62
    15
 10
3.227840
 20
2.437160
 11
3.221240
 21
3.169320
 12
3.316280
 22
2.471480
 13
3.309240
 23
3.203640
  0
POLYLINE
  8
0
  6
CONTINUOUS
 66
     1
 40
0.000000
 41
0.000000
  0
VERTEX
  8
0
  6
CONTINUOUS
 10
3.227840
 20
2.437160
  0
VERTEX
  8
0
  6
CONTINUOUS
 10
3.221240
 20
3.169320
  0
VERTEX
  8
0
  6
CONTINUOUS
 10
3.309240
 20
3.203640
  0
VERTEX
  8
0
  6
CONTINUOUS
 10
3.316280
 20
2.471480
  0
VERTEX
  8
0
  6
CONTINUOUS
 10
3.227840
 20
2.437160
  0
SEQEND
  8
0
  0
SOLID
  8
0
 62
    15
 10
3.316280
 20
2.471480
 11
3.309240
 21
3.203640
 12
3.410440
 22
2.500960
 13
3.403400
 23
3.233560
  0
POLYLINE
  8
0
  6
CONTINUOUS
 66
     1
 40
0.000000
 41
0.000000
  0
VERTEX
  8
0
  6
CONTINUOUS
 10
3.316280
 20
2.471480
  0
VERTEX
  8
0
  6
CONTINUOUS
 10
3.309240
 20
3.203640
  0
VERTEX
  8
0
  6
CONTINUOUS
 10
3.403400
 20
3.233560
  0
VERTEX
  8
0
  6
CONTINUOUS
 10
3.410440
 20
2.500960
  0
VERTEX
  8
0
  6
CONTINUOUS
 10
3.316280
 20
2.471480
  0
SEQEND
  8
0
  0
SOLID
  8
0
 62
    15
 10
3.410440
 20
2.500960
 11
3.403400
 21
3.233560
 12
3.509440
 22
2.525160
 13
3.502400
 23
3.257760
  0
POLYLINE
  8
0
  6
CONTINUOUS
 66
     1
 40
0.000000
 41
0.000000
  0
VERTEX
  8
0
  6
CONTINUOUS
 10
3.410440
 20
2.500960
  0
VERTEX
  8
0
  6
CONTINUOUS
 10
3.403400
 20
3.233560
  0
VERTEX
  8
0
  6
CONTINUOUS
 10
3.502400
 20
3.257760
  0
VERTEX
  8
0
  6
CONTINUOUS
 10
3.509440
 20
2.525160
  0
VERTEX
  8
0
  6
CONTINUOUS
 10
3.410440
 20
2.500960
  0
SEQEND
  8
0
  0
SOLID
  8
0
 62
    15
 10
3.509440
 20
2.525160
 11
3.502400
 21
3.257760
 12
3.612400
 22
2.543640
 13
3.605800
 23
3.275800
  0
POLYLINE
  8
0
  6
CONTINUOUS
 66
     1
 40
0.000000
 41
0.000000
  0
VERTEX
  8
0
  6
CONTINUOUS
 10
3.509440
 20
2.525160
  0
VERTEX
  8
0
  6
CONTINUOUS
 10
3.502400
 20
3.257760
  0
VERTEX
  8
0
  6
CONTINUOUS
 10
3.605800
 20
3.275800
  0
VERTEX
  8
0
  6
CONTINUOUS
 10
3.612400
 20
2.543640
  0
VERTEX
  8
0
  6
CONTINUOUS
 10
3.509440
 20
2.525160
  0
SEQEND
  8
0
  0
SOLID
  8
0
 62
    15
 10
3.612400
 20
2.543640
 11
3.605800
 21
3.275800
 12
3.718880
 22
2.555080
 13
3.711840
 23
3.287240
  0
POLYLINE
  8
0
  6
CONTINUOUS
 66
     1
 40
0.000000
 41
0.000000
  0
VERTEX
  8
0
  6
CONTINUOUS
 10
3.612400
 20
2.543640
  0
VERTEX
  8
0
  6
CONTINUOUS
 10
3.605800
 20
3.275800
  0
VERTEX
  8
0
  6
CONTINUOUS
 10
3.711840
 20
3.287240
  0
VERTEX
  8
0
  6
CONTINUOUS
 10
3.718880
 20
2.555080
  0
VERTEX
  8
0
  6
CONTINUOUS
 10
3.612400
 20
2.543640
  0
SEQEND
  8
0
  0
SOLID
  8
0
 62
    15
 10
3.718880
 20
2.555080
 11
3.711840
 21
3.287240
 12
3.827560
 22
2.559040
 13
3.820520
 23
3.291200
  0
POLYLINE
  8
0
  6
CONTINUOUS
 66
     1
 40
0.000000
 41
0.000000
  0
VERTEX
  8
0
  6
CONTINUOUS
 10
3.718880
 20
2.555080
  0
VERTEX
  8
0
  6
CONTINUOUS
 10
3.711840
 20
3.287240
  0
VERTEX
  8
0
  6
CONTINUOUS
 10
3.820520
 20
3.291200
  0
VERTEX
  8
0
  6
CONTINUOUS
 10
3.827560
 20
2.559040
  0
VERTEX
  8
0
  6
CONTINUOUS
 10
3.718880
 20
2.555080
  0
SEQEND
  8
0
  0
SOLID
  8
0
 62
    15
 10
3.827560
 20
2.559040
 11
3.820520
 21
3.291200
 12
3.938000
 22
2.555080
 13
3.930960
 23
3.287240
  0
POLYLINE
  8
0
  6
CONTINUOUS
 66
     1
 40
0.000000
 41
0.000000
  0
VERTEX
  8
0
  6
CONTINUOUS
 10
3.827560
 20
2.559040
  0
VERTEX
  8
0
  6
CONTINUOUS
 10
3.820520
 20
3.291200
  0
VERTEX
  8
0
  6
CONTINUOUS
 10
3.930960
 20
3.287240
  0
VERTEX
  8
0
  6
CONTINUOUS
 10
3.938000
 20
2.555080
  0
VERTEX
  8
0
  6
CONTINUOUS
 10
3.827560
 20
2.559040
  0
SEQEND
  8
0
  0
SOLID
  8
0
 62
    15
 10
3.938000
 20
2.555080
 11
3.930960
 21
3.287240
 12
4.048440
 22
2.542320
 13
4.041840
 23
3.274480
  0
POLYLINE
  8
0
  6
CONTINUOUS
 66
     1
 40
0.000000
 41
0.000000
  0
VERTEX
  8
0
  6
CONTINUOUS
 10
3.938000
 20
2.555080
  0
VERTEX
  8
0
  6
CONTINUOUS
 10
3.930960
 20
3.287240
  0
VERTEX
  8
0
  6
CONTINUOUS
 10
4.041840
 20
3.274480
  0
VERTEX
  8
0
  6
CONTINUOUS
 10
4.048440
 20
2.542320
  0
VERTEX
  8
0
  6
CONTINUOUS
 10
3.938000
 20
2.555080
  0
SEQEND
  8
0
  0
SOLID
  8
0
 62
    15
 10
4.048440
 20
2.542320
 11
4.041840
 21
3.274480
 12
4.159320
 22
2.519880
 13
4.152280
 23
3.252480
  0
POLYLINE
  8
0
  6
CONTINUOUS
 66
     1
 40
0.000000
 41
0.000000
  0
VERTEX
  8
0
  6
CONTINUOUS
 10
4.048440
 20
2.542320
  0
VERTEX
  8
0
  6
CONTINUOUS
 10
4.041840
 20
3.274480
  0
VERTEX
  8
0
  6
CONTINUOUS
 10
4.152280
 20
3.252480
  0
VERTEX
  8
0
  6
CONTINUOUS
 10
4.159320
 20
2.519880
  0
VERTEX
  8
0
  6
CONTINUOUS
 10
4.048440
 20
2.542320
  0
SEQEND
  8
0
  0
SOLID
  8
0
 62
    15
 10
4.159320
 20
2.519880
 11
4.152280
 21
3.252480
 12
4.268880
 22
2.487760
 13
4.261840
 23
3.219920
  0
POLYLINE
  8
0
  6
CONTINUOUS
 66
     1
 40
0.000000
 41
0.000000
  0
VERTEX
  8
0
  6
CONTINUOUS
 10
4.159320
 20
2.519880
  0
VERTEX
  8
0
  6
CONTINUOUS
 10
4.152280
 20
3.252480
  0
VERTEX
  8
0
  6
CONTINUOUS
 10
4.261840
 20
3.219920
  0
VERTEX
  8
0
  6
CONTINUOUS
 10
4.268880
 20
2.487760
  0
VERTEX
  8
0
  6
CONTINUOUS
 10
4.159320
 20
2.519880
  0
SEQEND
  8
0
  0
SOLID
  8
0
 62
    15
 10
4.268880
 20
2.487760
 11
4.261840
 21
3.219920
 12
4.376240
 22
2.444640
 13
4.369200
 23
3.176800
  0
POLYLINE
  8
0
  6
CONTINUOUS
 66
     1
 40
0.000000
 41
0.000000
  0
VERTEX
  8
0
  6
CONTINUOUS
 10
4.268880
 20
2.487760
  0
VERTEX
  8
0
  6
CONTINUOUS
 10
4.261840
 20
3.219920
  0
VERTEX
  8
0
  6
CONTINUOUS
 10
4.369200
 20
3.176800
  0
VERTEX
  8
0
  6
CONTINUOUS
 10
4.376240
 20
2.444640
  0
VERTEX
  8
0
  6
CONTINUOUS
 10
4.268880
 20
2.487760
  0
SEQEND
  8
0
  0
SOLID
  8
0
 62
    15
 10
4.376240
 20
2.444640
 11
4.369200
 21
3.176800
 12
4.480960
 22
2.390080
 13
4.473920
 23
3.122240
  0
POLYLINE
  8
0
  6
CONTINUOUS
 66
     1
 40
0.000000
 41
0.000000
  0
VERTEX
  8
0
  6
CONTINUOUS
 10
4.376240
 20
2.444640
  0
VERTEX
  8
0
  6
CONTINUOUS
 10
4.369200
 20
3.176800
  0
VERTEX
  8
0
  6
CONTINUOUS
 10
4.473920
 20
3.122240
  0
VERTEX
  8
0
  6
CONTINUOUS
 10
4.480960
 20
2.390080
  0
VERTEX
  8
0
  6
CONTINUOUS
 10
4.376240
 20
2.444640
  0
SEQEND
  8
0
  0
SOLID
  8
0
 62
    15
 10
4.480960
 20
2.390080
 11
4.473920
 21
3.122240
 12
4.581720
 22
2.323200
 13
4.574680
 23
3.055800
  0
POLYLINE
  8
0
  6
CONTINUOUS
 66
     1
 40
0.000000
 41
0.000000
  0
VERTEX
  8
0
  6
CONTINUOUS
 10
4.480960
 20
2.390080
  0
VERTEX
  8
0
  6
CONTINUOUS
 10
4.473920
 20
3.122240
  0
VERTEX
  8
0
  6
CONTINUOUS
 10
4.574680
 20
3.055800
  0
VERTEX
  8
0
  6
CONTINUOUS
 10
4.581720
 20
2.323200
  0
VERTEX
  8
0
  6
CONTINUOUS
 10
4.480960
 20
2.390080
  0
SEQEND
  8
0
  0
SOLID
  8
0
 62
    15
 10
4.581720
 20
2.323200
 11
4.574680
 21
3.055800
 12
4.590960
 22
2.319240
 13
4.583920
 23
3.051840
  0
POLYLINE
  8
0
  6
CONTINUOUS
 66
     1
 40
0.000000
 41
0.000000
  0
VERTEX
  8
0
  6
CONTINUOUS
 10
4.581720
 20
2.323200
  0
VERTEX
  8
0
  6
CONTINUOUS
 10
4.574680
 20
3.055800
  0
VERTEX
  8
0
  6
CONTINUOUS
 10
4.583920
 20
3.051840
  0
VERTEX
  8
0
  6
CONTINUOUS
 10
4.590960
 20
2.319240
  0
VERTEX
  8
0
  6
CONTINUOUS
 10
4.581720
 20
2.323200
  0
SEQEND
  8
0
  0
SOLID
  8
0
 62
    15
 10
4.590960
 20
2.319240
 11
4.583920
 21
3.051840
 12
4.609880
 22
2.347400
 13
4.602840
 23
3.080000
  0
POLYLINE
  8
0
  6
CONTINUOUS
 66
     1
 40
0.000000
 41
0.000000
  0
VERTEX
  8
0
  6
CONTINUOUS
 10
4.590960
 20
2.319240
  0
VERTEX
  8
0
  6
CONTINUOUS
 10
4.583920
 20
3.051840
  0
VERTEX
  8
0
  6
CONTINUOUS
 10
4.602840
 20
3.080000
  0
VERTEX
  8
0
  6
CONTINUOUS
 10
4.609880
 20
2.347400
  0
VERTEX
  8
0
  6
CONTINUOUS
 10
4.590960
 20
2.319240
  0
SEQEND
  8
0
  0
SOLID
  8
0
 62
    15
 10
4.609880
 20
2.347400
 11
4.602840
 21
3.080000
 12
4.629680
 22
2.371600
 13
4.622640
 23
3.104200
  0
POLYLINE
  8
0
  6
CONTINUOUS
 66
     1
 40
0.000000
 41
0.000000
  0
VERTEX
  8
0
  6
CONTINUOUS
 10
4.609880
 20
2.347400
  0
VERTEX
  8
0
  6
CONTINUOUS
 10
4.602840
 20
3.080000
  0
VERTEX
  8
0
  6
CONTINUOUS
 10
4.622640
 20
3.104200
  0
VERTEX
  8
0
  6
CONTINUOUS
 10
4.629680
 20
2.371600
  0
VERTEX
  8
0
  6
CONTINUOUS
 10
4.609880
 20
2.347400
  0
SEQEND
  8
0
  0
SOLID
  8
0
 62
    15
 10
4.629680
 20
2.371600
 11
4.622640
 21
3.104200
 12
4.672360
 22
2.409440
 13
4.665320
 23
3.142040
  0
POLYLINE
  8
0
  6
CONTINUOUS
 66
     1
 40
0.000000
 41
0.000000
  0
VERTEX
  8
0
  6
CONTINUOUS
 10
4.629680
 20
2.371600
  0
VERTEX
  8
0
  6
CONTINUOUS
 10
4.622640
 20
3.104200
  0
VERTEX
  8
0
  6
CONTINUOUS
 10
4.665320
 20
3.142040
  0
VERTEX
  8
0
  6
CONTINUOUS
 10
4.672360
 20
2.409440
  0
VERTEX
  8
0
  6
CONTINUOUS
 10
4.629680
 20
2.371600
  0
SEQEND
  8
0
  0
SOLID
  8
0
 62
    15
 10
4.672360
 20
2.409440
 11
4.665320
 21
3.142040
 12
4.719000
 22
2.435400
 13
4.712400
 23
3.167560
  0
POLYLINE
  8
0
  6
CONTINUOUS
 66
     1
 40
0.000000
 41
0.000000
  0
VERTEX
  8
0
  6
CONTINUOUS
 10
4.672360
 20
2.409440
  0
VERTEX
  8
0
  6
CONTINUOUS
 10
4.665320
 20
3.142040
  0
VERTEX
  8
0
  6
CONTINUOUS
 10
4.712400
 20
3.167560
  0
VERTEX
  8
0
  6
CONTINUOUS
 10
4.719000
 20
2.435400
  0
VERTEX
  8
0
  6
CONTINUOUS
 10
4.672360
 20
2.409440
  0
SEQEND
  8
0
  0
SOLID
  8
0
 62
    15
 10
4.719000
 20
2.435400
 11
4.712400
 21
3.167560
 12
4.769160
 22
2.450800
 13
4.762120
 23
3.183400
  0
POLYLINE
  8
0
  6
CONTINUOUS
 66
     1
 40
0.000000
 41
0.000000
  0
VERTEX
  8
0
  6
CONTINUOUS
 10
4.719000
 20
2.435400
  0
VERTEX
  8
0
  6
CONTINUOUS
 10
4.712400
 20
3.167560
  0
VERTEX
  8
0
  6
CONTINUOUS
 10
4.762120
 20
3.183400
  0
VERTEX
  8
0
  6
CONTINUOUS
 10
4.769160
 20
2.450800
  0
VERTEX
  8
0
  6
CONTINUOUS
 10
4.719000
 20
2.435400
  0
SEQEND
  8
0
  0
SOLID
  8
0
 62
    15
 10
4.769160
 20
2.450800
 11
4.762120
 21
3.183400
 12
4.821960
 22
2.458720
 13
4.814920
 23
3.190880
  0
POLYLINE
  8
0
  6
CONTINUOUS
 66
     1
 40
0.000000
 41
0.000000
  0
VERTEX
  8
0
  6
CONTINUOUS
 10
4.769160
 20
2.450800
  0
VERTEX
  8
0
  6
CONTINUOUS
 10
4.762120
 20
3.183400
  0
VERTEX
  8
0
  6
CONTINUOUS
 10
4.814920
 20
3.190880
  0
VERTEX
  8
0
  6
CONTINUOUS
 10
4.821960
 20
2.458720
  0
VERTEX
  8
0
  6
CONTINUOUS
 10
4.769160
 20
2.450800
  0
SEQEND
  8
0
  0
SOLID
  8
0
 62
    15
 10
4.821960
 20
2.458720
 11
4.814920
 21
3.190880
 12
4.876960
 22
2.460480
 13
4.869920
 23
3.192640
  0
POLYLINE
  8
0
  6
CONTINUOUS
 66
     1
 40
0.000000
 41
0.000000
  0
VERTEX
  8
0
  6
CONTINUOUS
 10
4.821960
 20
2.458720
  0
VERTEX
  8
0
  6
CONTINUOUS
 10
4.814920
 20
3.190880
  0
VERTEX
  8
0
  6
CONTINUOUS
 10
4.869920
 20
3.192640
  0
VERTEX
  8
0
  6
CONTINUOUS
 10
4.876960
 20
2.460480
  0
VERTEX
  8
0
  6
CONTINUOUS
 10
4.821960
 20
2.458720
  0
SEQEND
  8
0
  0
SOLID
  8
0
 62
    15
 10
4.876960
 20
2.460480
 11
4.869920
 21
3.192640
 12
4.991800
 22
2.454760
 13
4.985200
 23
3.187360
  0
POLYLINE
  8
0
  6
CONTINUOUS
 66
     1
 40
0.000000
 41
0.000000
  0
VERTEX
  8
0
  6
CONTINUOUS
 10
4.876960
 20
2.460480
  0
VERTEX
  8
0
  6
CONTINUOUS
 10
4.869920
 20
3.192640
  0
VERTEX
  8
0
  6
CONTINUOUS
 10
4.985200
 20
3.187360
  0
VERTEX
  8
0
  6
CONTINUOUS
 10
4.991800
 20
2.454760
  0
VERTEX
  8
0
  6
CONTINUOUS
 10
4.876960
 20
2.460480
  0
SEQEND
  8
0
  0
SOLID
  8
0
 62
    15
 10
4.991800
 20
2.454760
 11
4.985200
 21
3.187360
 12
5.110160
 22
2.452120
 13
5.103120
 23
3.184280
  0
POLYLINE
  8
0
  6
CONTINUOUS
 66
     1
 40
0.000000
 41
0.000000
  0
VERTEX
  8
0
  6
CONTINUOUS
 10
4.991800
 20
2.454760
  0
VERTEX
  8
0
  6
CONTINUOUS
 10
4.985200
 20
3.187360
  0
VERTEX
  8
0
  6
CONTINUOUS
 10
5.103120
 20
3.184280
  0
VERTEX
  8
0
  6
CONTINUOUS
 10
5.110160
 20
2.452120
  0
VERTEX
  8
0
  6
CONTINUOUS
 10
4.991800
 20
2.454760
  0
SEQEND
  8
0
  0
SOLID
  8
0
 62
    15
 10
5.110160
 20
2.452120
 11
5.103120
 21
3.184280
 12
5.169120
 22
2.456960
 13
5.162080
 23
3.189120
  0
POLYLINE
  8
0
  6
CONTINUOUS
 66
     1
 40
0.000000
 41
0.000000
  0
VERTEX
  8
0
  6
CONTINUOUS
 10
5.110160
 20
2.452120
  0
VERTEX
  8
0
  6
CONTINUOUS
 10
5.103120
 20
3.184280
  0
VERTEX
  8
0
  6
CONTINUOUS
 10
5.162080
 20
3.189120
  0
VERTEX
  8
0
  6
CONTINUOUS
 10
5.169120
 20
2.456960
  0
VERTEX
  8
0
  6
CONTINUOUS
 10
5.110160
 20
2.452120
  0
SEQEND
  8
0
  0
SOLID
  8
0
 62
    15
 10
5.169120
 20
2.456960
 11
5.162080
 21
3.189120
 12
5.227200
 22
2.468400
 13
5.220600
 23
3.201000
  0
POLYLINE
  8
0
  6
CONTINUOUS
 66
     1
 40
0.000000
 41
0.000000
  0
VERTEX
  8
0
  6
CONTINUOUS
 10
5.169120
 20
2.456960
  0
VERTEX
  8
0
  6
CONTINUOUS
 10
5.162080
 20
3.189120
  0
VERTEX
  8
0
  6
CONTINUOUS
 10
5.220600
 20
3.201000
  0
VERTEX
  8
0
  6
CONTINUOUS
 10
5.227200
 20
2.468400
  0
VERTEX
  8
0
  6
CONTINUOUS
 10
5.169120
 20
2.456960
  0
SEQEND
  8
0
  0
SOLID
  8
0
 62
    15
 10
5.227200
 20
2.468400
 11
5.220600
 21
3.201000
 12
5.284400
 22
2.489520
 13
5.277360
 23
3.222120
  0
POLYLINE
  8
0
  6
CONTINUOUS
 66
     1
 40
0.000000
 41
0.000000
  0
VERTEX
  8
0
  6
CONTINUOUS
 10
5.227200
 20
2.468400
  0
VERTEX
  8
0
  6
CONTINUOUS
 10
5.220600
 20
3.201000
  0
VERTEX
  8
0
  6
CONTINUOUS
 10
5.277360
 20
3.222120
  0
VERTEX
  8
0
  6
CONTINUOUS
 10
5.284400
 20
2.489520
  0
VERTEX
  8
0
  6
CONTINUOUS
 10
5.227200
 20
2.468400
  0
SEQEND
  8
0
  0
SOLID
  8
0
 62
    15
 10
5.284400
 20
2.489520
 11
5.277360
 21
3.222120
 12
5.339400
 22
2.521640
 13
5.332800
 23
3.254240
  0
POLYLINE
  8
0
  6
CONTINUOUS
 66
     1
 40
0.000000
 41
0.000000
  0
VERTEX
  8
0
  6
CONTINUOUS
 10
5.284400
 20
2.489520
  0
VERTEX
  8
0
  6
CONTINUOUS
 10
5.277360
 20
3.222120
  0
VERTEX
  8
0
  6
CONTINUOUS
 10
5.332800
 20
3.254240
  0
VERTEX
  8
0
  6
CONTINUOUS
 10
5.339400
 20
2.521640
  0
VERTEX
  8
0
  6
CONTINUOUS
 10
5.284400
 20
2.489520
  0
SEQEND
  8
0
  0
SOLID
  8
0
 62
    15
 10
5.339400
 20
2.521640
 11
5.332800
 21
3.254240
 12
5.392640
 22
2.567400
 13
5.385600
 23
3.300000
  0
POLYLINE
  8
0
  6
CONTINUOUS
 66
     1
 40
0.000000
 41
0.000000
  0
VERTEX
  8
0
  6
CONTINUOUS
 10
5.339400
 20
2.521640
  0
VERTEX
  8
0
  6
CONTINUOUS
 10
5.332800
 20
3.254240
  0
VERTEX
  8
0
  6
CONTINUOUS
 10
5.385600
 20
3.300000
  0
VERTEX
  8
0
  6
CONTINUOUS
 10
5.392640
 20
2.567400
  0
VERTEX
  8
0
  6
CONTINUOUS
 10
5.339400
 20
2.521640
  0
SEQEND
  8
0
  0
SOLID
  8
0
 62
    15
 10
5.392640
 20
2.567400
 11
5.385600
 21
3.300000
 12
5.418160
 22
2.596000
 13
5.411120
 23
3.328160
  0
POLYLINE
  8
0
  6
CONTINUOUS
 66
     1
 40
0.000000
 41
0.000000
  0
VERTEX
  8
0
  6
CONTINUOUS
 10
5.392640
 20
2.567400
  0
VERTEX
  8
0
  6
CONTINUOUS
 10
5.385600
 20
3.300000
  0
VERTEX
  8
0
  6
CONTINUOUS
 10
5.411120
 20
3.328160
  0
VERTEX
  8
0
  6
CONTINUOUS
 10
5.418160
 20
2.596000
  0
VERTEX
  8
0
  6
CONTINUOUS
 10
5.392640
 20
2.567400
  0
SEQEND
  8
0
  0
SOLID
  8
0
 62
    15
 10
5.418160
 20
2.596000
 11
5.411120
 21
3.328160
 12
5.442800
 22
2.628560
 13
5.436200
 23
3.361160
  0
POLYLINE
  8
0
  6
CONTINUOUS
 66
     1
 40
0.000000
 41
0.000000
  0
VERTEX
  8
0
  6
CONTINUOUS
 10
5.418160
 20
2.596000
  0
VERTEX
  8
0
  6
CONTINUOUS
 10
5.411120
 20
3.328160
  0
VERTEX
  8
0
  6
CONTINUOUS
 10
5.436200
 20
3.361160
  0
VERTEX
  8
0
  6
CONTINUOUS
 10
5.442800
 20
2.628560
  0
VERTEX
  8
0
  6
CONTINUOUS
 10
5.418160
 20
2.596000
  0
SEQEND
  8
0
  0
SOLID
  8
0
 62
    15
 10
5.442800
 20
2.628560
 11
5.436200
 21
3.361160
 12
5.451160
 22
2.629880
 13
5.444120
 23
3.362480
  0
POLYLINE
  8
0
  6
CONTINUOUS
 66
     1
 40
0.000000
 41
0.000000
  0
VERTEX
  8
0
  6
CONTINUOUS
 10
5.442800
 20
2.628560
  0
VERTEX
  8
0
  6
CONTINUOUS
 10
5.436200
 20
3.361160
  0
VERTEX
  8
0
  6
CONTINUOUS
 10
5.444120
 20
3.362480
  0
VERTEX
  8
0
  6
CONTINUOUS
 10
5.451160
 20
2.629880
  0
VERTEX
  8
0
  6
CONTINUOUS
 10
5.442800
 20
2.628560
  0
SEQEND
  8
0
  0
SOLID
  8
0
 62
    15
 10
5.451160
 20
2.629880
 11
5.444120
 21
3.362480
 12
6.184200
 22
2.629880
 13
6.177600
 23
3.362480
  0
POLYLINE
  8
0
  6
CONTINUOUS
 66
     1
 40
0.000000
 41
0.000000
  0
VERTEX
  8
0
  6
CONTINUOUS
 10
5.451160
 20
2.629880
  0
VERTEX
  8
0
  6
CONTINUOUS
 10
5.444120
 20
3.362480
  0
VERTEX
  8
0
  6
CONTINUOUS
 10
6.177600
 20
3.362480
  0
VERTEX
  8
0
  6
CONTINUOUS
 10
6.184200
 20
2.629880
  0
VERTEX
  8
0
  6
CONTINUOUS
 10
5.451160
 20
2.629880
  0
SEQEND
  8
0
  0
SOLID
  8
0
 62
    15
 10
6.184200
 20
2.629880
 11
6.177600
 21
3.362480
 12
6.196520
 22
2.629880
 13
6.189480
 23
3.362480
  0
POLYLINE
  8
0
  6
CONTINUOUS
 66
     1
 40
0.000000
 41
0.000000
  0
VERTEX
  8
0
  6
CONTINUOUS
 10
6.184200
 20
2.629880
  0
VERTEX
  8
0
  6
CONTINUOUS
 10
6.177600
 20
3.362480
  0
VERTEX
  8
0
  6
CONTINUOUS
 10
6.189480
 20
3.362480
  0
VERTEX
  8
0
  6
CONTINUOUS
 10
6.196520
 20
2.629880
  0
VERTEX
  8
0
  6
CONTINUOUS
 10
6.184200
 20
2.629880
  0
SEQEND
  8
0
  0
POLYLINE
  8
0
  6
CONTINUOUS
 66
     1
 40
0.000000
 41
0.000000
  0
VERTEX
  8
0
  6
CONTINUOUS
 10
6.196520
 20
2.629880
  0
VERTEX
  8
0
  6
CONTINUOUS
 10
6.196520
 20
2.375120
  0
VERTEX
  8
0
  6
CONTINUOUS
 10
6.324120
 20
2.375120
  0
VERTEX
  8
0
  6
CONTINUOUS
 10
6.343040
 20
2.444640
  0
VERTEX
  8
0
  6
CONTINUOUS
 10
6.369440
 20
2.502280
  0
VERTEX
  8
0
  6
CONTINUOUS
 10
6.402440
 20
2.548920
  0
VERTEX
  8
0
  6
CONTINUOUS
 10
6.440720
 20
2.584120
  0
VERTEX
  8
0
  6
CONTINUOUS
 10
6.482960
 20
2.609200
  0
VERTEX
  8
0
  6
CONTINUOUS
 10
6.528280
 20
2.623720
  0
VERTEX
  8
0
  6
CONTINUOUS
 10
6.574920
 20
2.629440
  0
VERTEX
  8
0
  6
CONTINUOUS
 10
6.621560
 20
2.625480
  0
VERTEX
  8
0
  6
CONTINUOUS
 10
6.667320
 20
2.613160
  0
VERTEX
  8
0
  6
CONTINUOUS
 10
6.710440
 20
2.592480
  0
VERTEX
  8
0
  6
CONTINUOUS
 10
6.750040
 20
2.563880
  0
VERTEX
  8
0
  6
CONTINUOUS
 10
6.784360
 20
2.528240
  0
VERTEX
  8
0
  6
CONTINUOUS
 10
6.812520
 20
2.485560
  0
VERTEX
  8
0
  6
CONTINUOUS
 10
6.833200
 20
2.436280
  0
VERTEX
  8
0
  6
CONTINUOUS
 10
6.845080
 20
2.381280
  0
VERTEX
  8
0
  6
CONTINUOUS
 10
6.846840
 20
2.320560
  0
VERTEX
  8
0
  6
CONTINUOUS
 10
6.846840
 20
1.823360
  0
VERTEX
  8
0
  6
CONTINUOUS
 10
6.848160
 20
1.822040
  0
VERTEX
  8
0
  6
CONTINUOUS
 10
1.246960
 20
1.822040
  0
VERTEX
  8
0
  6
CONTINUOUS
 10
1.246960
 20
2.610080
  0
VERTEX
  8
0
  6
CONTINUOUS
 10
2.181520
 20
2.610080
  0
VERTEX
  8
0
  6
CONTINUOUS
 10
2.209240
 20
2.574440
  0
VERTEX
  8
0
  6
CONTINUOUS
 10
2.233440
 20
2.546720
  0
VERTEX
  8
0
  6
CONTINUOUS
 10
2.284040
 20
2.503600
  0
VERTEX
  8
0
  6
CONTINUOUS
 10
2.337280
 20
2.473680
  0
VERTEX
  8
0
  6
CONTINUOUS
 10
2.392280
 20
2.455200
  0
VERTEX
  8
0
  6
CONTINUOUS
 10
2.448600
 20
2.445960
  0
VERTEX
  8
0
  6
CONTINUOUS
 10
2.505360
 20
2.443760
  0
VERTEX
  8
0
  6
CONTINUOUS
 10
2.619760
 20
2.450800
  0
VERTEX
  8
0
  6
CONTINUOUS
 10
2.731080
 20
2.459160
  0
VERTEX
  8
0
  6
CONTINUOUS
 10
2.783880
 20
2.457840
  0
VERTEX
  8
0
  6
CONTINUOUS
 10
2.834480
 20
2.450360
  0
VERTEX
  8
0
  6
CONTINUOUS
 10
2.882440
 20
2.434520
  0
VERTEX
  8
0
  6
CONTINUOUS
 10
2.926440
 20
2.407680
  0
VERTEX
  8
0
  6
CONTINUOUS
 10
2.966920
 20
2.367640
  0
VERTEX
  8
0
  6
CONTINUOUS
 10
2.985400
 20
2.342120
  0
VERTEX
  8
0
  6
CONTINUOUS
 10
3.003000
 20
2.312640
  0
VERTEX
  8
0
  6
CONTINUOUS
 10
3.006960
 20
2.312640
  0
VERTEX
  8
0
  6
CONTINUOUS
 10
3.072520
 20
2.357080
  0
VERTEX
  8
0
  6
CONTINUOUS
 10
3.146440
 20
2.398880
  0
VERTEX
  8
0
  6
CONTINUOUS
 10
3.227840
 20
2.437160
  0
VERTEX
  8
0
  6
CONTINUOUS
 10
3.316280
 20
2.471480
  0
VERTEX
  8
0
  6
CONTINUOUS
 10
3.410440
 20
2.500960
  0
VERTEX
  8
0
  6
CONTINUOUS
 10
3.509440
 20
2.525160
  0
VERTEX
  8
0
  6
CONTINUOUS
 10
3.612400
 20
2.543640
  0
VERTEX
  8
0
  6
CONTINUOUS
 10
3.718880
 20
2.555080
  0
VERTEX
  8
0
  6
CONTINUOUS
 10
3.827560
 20
2.559040
  0
VERTEX
  8
0
  6
CONTINUOUS
 10
3.938000
 20
2.555080
  0
VERTEX
  8
0
  6
CONTINUOUS
 10
4.048440
 20
2.542320
  0
VERTEX
  8
0
  6
CONTINUOUS
 10
4.159320
 20
2.519880
  0
VERTEX
  8
0
  6
CONTINUOUS
 10
4.268880
 20
2.487760
  0
VERTEX
  8
0
  6
CONTINUOUS
 10
4.376240
 20
2.444640
  0
VERTEX
  8
0
  6
CONTINUOUS
 10
4.480960
 20
2.390080
  0
VERTEX
  8
0
  6
CONTINUOUS
 10
4.581720
 20
2.323200
  0
VERTEX
  8
0
  6
CONTINUOUS
 10
4.590960
 20
2.319240
  0
VERTEX
  8
0
  6
CONTINUOUS
 10
4.609880
 20
2.347400
  0
VERTEX
  8
0
  6
CONTINUOUS
 10
4.629680
 20
2.371600
  0
VERTEX
  8
0
  6
CONTINUOUS
 10
4.672360
 20
2.409440
  0
VERTEX
  8
0
  6
CONTINUOUS
 10
4.719000
 20
2.435400
  0
VERTEX
  8
0
  6
CONTINUOUS
 10
4.769160
 20
2.450800
  0
VERTEX
  8
0
  6
CONTINUOUS
 10
4.821960
 20
2.458720
  0
VERTEX
  8
0
  6
CONTINUOUS
 10
4.876960
 20
2.460480
  0
VERTEX
  8
0
  6
CONTINUOUS
 10
4.991800
 20
2.454760
  0
VERTEX
  8
0
  6
CONTINUOUS
 10
5.110160
 20
2.452120
  0
VERTEX
  8
0
  6
CONTINUOUS
 10
5.169120
 20
2.456960
  0
VERTEX
  8
0
  6
CONTINUOUS
 10
5.227200
 20
2.468400
  0
VERTEX
  8
0
  6
CONTINUOUS
 10
5.284400
 20
2.489520
  0
VERTEX
  8
0
  6
CONTINUOUS
 10
5.339400
 20
2.521640
  0
VERTEX
  8
0
  6
CONTINUOUS
 10
5.392640
 20
2.567400
  0
VERTEX
  8
0
  6
CONTINUOUS
 10
5.418160
 20
2.596000
  0
VERTEX
  8
0
  6
CONTINUOUS
 10
5.442800
 20
2.628560
  0
VERTEX
  8
0
  6
CONTINUOUS
 10
5.451160
 20
2.629880
  0
VERTEX
  8
0
  6
CONTINUOUS
 10
6.196520
 20
2.629880
  0
SEQEND
  8
0
  0
TEXT
  8
0
 10
3.795440
 20
1.566840
 40
0.138076
  1
BA  27
 41
1.000000
  7
SN0
 71
     0
 72
     5
 11
4.293494
 21
1.566840
  0
TEXT
  8
0
 10
3.501520
 20
1.375440
 40
0.138076
  1
13/16" x 5-5/8"
 41
1.000000
  7
SN0
 71
     0
 72
     5
 11
4.587243
 21
1.375440
  0
TEXT
  8
0
 10
7.719800
 20
3.376560
 40
0.138076
  1
case
 41
1.000000
  7
SN0
 71
     0
 72
     5
 11
8.071023
 21
3.376560
  0
TEXT
  8
0
 10
7.802960
 20
3.184720
 40
0.138076
  1
27
 41
1.000000
  7
SN0
 71
     0
 72
     5
 11
7.988050
 21
3.184720
  0
ENDSEC
  0
EOF
