  0
SECTION
  2
HEADER
  9
$ACADVER
  1
AC1006
  9
$EXTMIN
 10
2.073720
 20
0.485760
  9
$EXTMAX
 10
8.084560
 20
5.724840
  9
$LTSCALE
 40
0.044000
  9
$PDMODE
 70
    35
  9
$PDSIZE
 40
0.035200
  0
ENDSEC
  0
SECTION
  2
TABLES
  0
TABLE
  2
LTYPE
 70
     9
  0
LTYPE
  2
CONTINUOUS
 70
    64
  3
Solid line
 72
    65
 73
     0
 40
0.000000
  0
LTYPE
  2
DASHED
 70
    64
  3
__ __ __ __ __ __ __ __ __ __ __ __ __ __ __
 72
    65
 73
     2
 40
0.000330
 49
0.000220
 49
-0.000110
  0
LTYPE
  2
HIDDEN
 70
    64
  3
 _ _ _ _ _ _ _ _ _ _ _ _ _ _ _ _ _ _ _ _ _ _
 72
    65
 73
     2
 40
0.000165
 49
0.000110
 49
-0.000055
  0
LTYPE
  2
CENTER
 70
    64
  3
____ _ ____ _ ____ _ ____ _ ____ _ ____ _ ____
 72
    65
 73
     4
 40
0.000880
 49
0.000550
 49
-0.000110
 49
0.000110
 49
-0.000110
  0
LTYPE
  2
PHANTOM
 70
    64
  3
_____ _ _ _____ _ _ _____ _ _ _____ _ _ ____
 72
    65
 73
     6
 40
0.001100
 49
0.000550
 49
-0.000110
 49
0.000110
 49
-0.000110
 49
0.000110
 49
-0.000110
  0
LTYPE
  2
DOT
 70
    64
  3
...............................................
 72
    65
 73
     2
 40
0.000110
 49
0.000000
 49
-0.000110
  0
LTYPE
  2
DASHDOT
 70
    64
  3
__ . __ . __ . __ . __ . __ . __ . __ . __ . __
 72
    65
 73
     4
 40
0.000440
 49
0.000220
 49
-0.000110
 49
0.000000
 49
-0.000110
  0
LTYPE
  2
BORDER
 70
    64
  3
__ __ . __ __ . __ __ . __ __ . __ __ . __ __
 72
    65
 73
     6
 40
0.000770
 49
0.000220
 49
-0.000110
 49
0.000220
 49
-0.000110
 49
0.000000
 49
-0.000110
  0
LTYPE
  2
DIVIDE
 70
    64
  3
__ . . __ . . __ . . __ . . __ . . __ . . __
 72
    65
 73
     6
 40
0.000550
 49
0.000220
 49
-0.000110
 49
0.000000
 49
-0.000110
 49
0.000000
 49
-0.000110
  0
LTYPE
  2
DOTDOT
 70
    64
  3
 . .  . .  . .  . .  . .  . . 
 72
    65
 73
     5
 40
0.000242
 49
-0.000110
 49
0.000000
 49
-0.000110
 49
0.000000
 49
-0.000110
  0
ENDTAB
  0
TABLE
  2
STYLE
 70
     2
  0
STYLE
 70
     0
  2
SN0
 40
0.000000
 41
0.000440
 50
0.000000
 71
     0
 42
0.000000
  3
ROMAND
  0
STYLE
 70
    68
  2
SV0
 40
0.000000
 41
0.000440
 50
0.000000
 71
     0
 42
0.000000
  3
ROMAND
  0
ENDTAB
  0
TABLE
  2
LAYER
 70
     3
  0
LAYER
  2
FOREGROUND
 70
    64
 62
     7
  6
CONTINUOUS
  0
LAYER
  2
BACKGROUND
 70
    65
 62
    -7
  6
CONTINUOUS
  0
LAYER
  2
0
 70
    64
 62
     7
  6
CONTINUOUS
  0
ENDTAB
  0
ENDSEC
  0
SECTION
  2
ENTITIES
  0
POLYLINE
  8
FOREGROUND
  6
CONTINUOUS
 66
     1
 40
0.000000
 41
0.000000
  0
VERTEX
  8
FOREGROUND
  6
CONTINUOUS
 10
0.000000
 20
6.210600
  0
VERTEX
  8
FOREGROUND
  6
CONTINUOUS
 10
8.499920
 20
6.210600
  0
VERTEX
  8
FOREGROUND
  6
CONTINUOUS
 10
8.499920
 20
-4.789400
  0
VERTEX
  8
FOREGROUND
  6
CONTINUOUS
 10
0.000000
 20
-4.789400
  0
VERTEX
  8
FOREGROUND
  6
CONTINUOUS
 10
0.000000
 20
6.210600
  0
SEQEND
  8
0
  0
POLYLINE
  8
FOREGROUND
  6
CONTINUOUS
 66
     1
 40
0.000000
 41
0.000000
  0
VERTEX
  8
FOREGROUND
  6
CONTINUOUS
 10
0.000000
 20
6.210600
  0
VERTEX
  8
FOREGROUND
  6
CONTINUOUS
 10
8.499920
 20
6.210600
  0
VERTEX
  8
FOREGROUND
  6
CONTINUOUS
 10
8.499920
 20
-4.789400
  0
VERTEX
  8
FOREGROUND
  6
CONTINUOUS
 10
0.000000
 20
-4.789400
  0
VERTEX
  8
FOREGROUND
  6
CONTINUOUS
 10
0.000000
 20
6.210600
  0
SEQEND
  8
0
  0
SOLID
  8
0
 62
    15
 10
2.074160
 20
5.338080
 11
2.725800
 21
5.722640
 12
2.080760
 22
5.339400
 13
2.732400
 23
5.724400
  0
POLYLINE
  8
0
  6
CONTINUOUS
 66
     1
 40
0.000000
 41
0.000000
  0
VERTEX
  8
0
  6
CONTINUOUS
 10
2.074160
 20
5.338080
  0
VERTEX
  8
0
  6
CONTINUOUS
 10
2.725800
 20
5.722640
  0
VERTEX
  8
0
  6
CONTINUOUS
 10
2.732400
 20
5.724400
  0
VERTEX
  8
0
  6
CONTINUOUS
 10
2.080760
 20
5.339400
  0
VERTEX
  8
0
  6
CONTINUOUS
 10
2.074160
 20
5.338080
  0
SEQEND
  8
0
  0
SOLID
  8
0
 62
    15
 10
2.814680
 20
4.417160
 11
3.466320
 21
4.802160
 12
2.790040
 22
4.391200
 13
3.441240
 23
4.775760
  0
POLYLINE
  8
0
  6
CONTINUOUS
 66
     1
 40
0.000000
 41
0.000000
  0
VERTEX
  8
0
  6
CONTINUOUS
 10
2.814680
 20
4.417160
  0
VERTEX
  8
0
  6
CONTINUOUS
 10
3.466320
 20
4.802160
  0
VERTEX
  8
0
  6
CONTINUOUS
 10
3.441240
 20
4.775760
  0
VERTEX
  8
0
  6
CONTINUOUS
 10
2.790040
 20
4.391200
  0
VERTEX
  8
0
  6
CONTINUOUS
 10
2.814680
 20
4.417160
  0
SEQEND
  8
0
  0
SOLID
  8
0
 62
    15
 10
2.790040
 20
4.391200
 11
3.441240
 21
4.775760
 12
2.768480
 22
4.362160
 13
3.420120
 23
4.746720
  0
POLYLINE
  8
0
  6
CONTINUOUS
 66
     1
 40
0.000000
 41
0.000000
  0
VERTEX
  8
0
  6
CONTINUOUS
 10
2.790040
 20
4.391200
  0
VERTEX
  8
0
  6
CONTINUOUS
 10
3.441240
 20
4.775760
  0
VERTEX
  8
0
  6
CONTINUOUS
 10
3.420120
 20
4.746720
  0
VERTEX
  8
0
  6
CONTINUOUS
 10
2.768480
 20
4.362160
  0
VERTEX
  8
0
  6
CONTINUOUS
 10
2.790040
 20
4.391200
  0
SEQEND
  8
0
  0
SOLID
  8
0
 62
    15
 10
2.768480
 20
4.362160
 11
3.420120
 21
4.746720
 12
2.750880
 22
4.330920
 13
3.402520
 23
4.715480
  0
POLYLINE
  8
0
  6
CONTINUOUS
 66
     1
 40
0.000000
 41
0.000000
  0
VERTEX
  8
0
  6
CONTINUOUS
 10
2.768480
 20
4.362160
  0
VERTEX
  8
0
  6
CONTINUOUS
 10
3.420120
 20
4.746720
  0
VERTEX
  8
0
  6
CONTINUOUS
 10
3.402520
 20
4.715480
  0
VERTEX
  8
0
  6
CONTINUOUS
 10
2.750880
 20
4.330920
  0
VERTEX
  8
0
  6
CONTINUOUS
 10
2.768480
 20
4.362160
  0
SEQEND
  8
0
  0
SOLID
  8
0
 62
    15
 10
2.750880
 20
4.330920
 11
3.402520
 21
4.715480
 12
2.737240
 22
4.297480
 13
3.388880
 23
4.682040
  0
POLYLINE
  8
0
  6
CONTINUOUS
 66
     1
 40
0.000000
 41
0.000000
  0
VERTEX
  8
0
  6
CONTINUOUS
 10
2.750880
 20
4.330920
  0
VERTEX
  8
0
  6
CONTINUOUS
 10
3.402520
 20
4.715480
  0
VERTEX
  8
0
  6
CONTINUOUS
 10
3.388880
 20
4.682040
  0
VERTEX
  8
0
  6
CONTINUOUS
 10
2.737240
 20
4.297480
  0
VERTEX
  8
0
  6
CONTINUOUS
 10
2.750880
 20
4.330920
  0
SEQEND
  8
0
  0
SOLID
  8
0
 62
    15
 10
2.737240
 20
4.297480
 11
3.388880
 21
4.682040
 12
2.727560
 22
4.261840
 13
3.378760
 23
4.646840
  0
POLYLINE
  8
0
  6
CONTINUOUS
 66
     1
 40
0.000000
 41
0.000000
  0
VERTEX
  8
0
  6
CONTINUOUS
 10
2.737240
 20
4.297480
  0
VERTEX
  8
0
  6
CONTINUOUS
 10
3.388880
 20
4.682040
  0
VERTEX
  8
0
  6
CONTINUOUS
 10
3.378760
 20
4.646840
  0
VERTEX
  8
0
  6
CONTINUOUS
 10
2.727560
 20
4.261840
  0
VERTEX
  8
0
  6
CONTINUOUS
 10
2.737240
 20
4.297480
  0
SEQEND
  8
0
  0
SOLID
  8
0
 62
    15
 10
2.727560
 20
4.261840
 11
3.378760
 21
4.646840
 12
2.721400
 22
4.224880
 13
3.373040
 23
4.609440
  0
POLYLINE
  8
0
  6
CONTINUOUS
 66
     1
 40
0.000000
 41
0.000000
  0
VERTEX
  8
0
  6
CONTINUOUS
 10
2.727560
 20
4.261840
  0
VERTEX
  8
0
  6
CONTINUOUS
 10
3.378760
 20
4.646840
  0
VERTEX
  8
0
  6
CONTINUOUS
 10
3.373040
 20
4.609440
  0
VERTEX
  8
0
  6
CONTINUOUS
 10
2.721400
 20
4.224880
  0
VERTEX
  8
0
  6
CONTINUOUS
 10
2.727560
 20
4.261840
  0
SEQEND
  8
0
  0
SOLID
  8
0
 62
    15
 10
2.721400
 20
4.224880
 11
3.373040
 21
4.609440
 12
2.719640
 22
4.186160
 13
3.370840
 23
4.570720
  0
POLYLINE
  8
0
  6
CONTINUOUS
 66
     1
 40
0.000000
 41
0.000000
  0
VERTEX
  8
0
  6
CONTINUOUS
 10
2.721400
 20
4.224880
  0
VERTEX
  8
0
  6
CONTINUOUS
 10
3.373040
 20
4.609440
  0
VERTEX
  8
0
  6
CONTINUOUS
 10
3.370840
 20
4.570720
  0
VERTEX
  8
0
  6
CONTINUOUS
 10
2.719640
 20
4.186160
  0
VERTEX
  8
0
  6
CONTINUOUS
 10
2.721400
 20
4.224880
  0
SEQEND
  8
0
  0
SOLID
  8
0
 62
    15
 10
2.719640
 20
4.186160
 11
3.370840
 21
4.570720
 12
2.722280
 22
4.146560
 13
3.373480
 23
4.531560
  0
POLYLINE
  8
0
  6
CONTINUOUS
 66
     1
 40
0.000000
 41
0.000000
  0
VERTEX
  8
0
  6
CONTINUOUS
 10
2.719640
 20
4.186160
  0
VERTEX
  8
0
  6
CONTINUOUS
 10
3.370840
 20
4.570720
  0
VERTEX
  8
0
  6
CONTINUOUS
 10
3.373480
 20
4.531560
  0
VERTEX
  8
0
  6
CONTINUOUS
 10
2.722280
 20
4.146560
  0
VERTEX
  8
0
  6
CONTINUOUS
 10
2.719640
 20
4.186160
  0
SEQEND
  8
0
  0
SOLID
  8
0
 62
    15
 10
2.722280
 20
4.146560
 11
3.373480
 21
4.531560
 12
2.729760
 22
4.108720
 13
3.381400
 23
4.493280
  0
POLYLINE
  8
0
  6
CONTINUOUS
 66
     1
 40
0.000000
 41
0.000000
  0
VERTEX
  8
0
  6
CONTINUOUS
 10
2.722280
 20
4.146560
  0
VERTEX
  8
0
  6
CONTINUOUS
 10
3.373480
 20
4.531560
  0
VERTEX
  8
0
  6
CONTINUOUS
 10
3.381400
 20
4.493280
  0
VERTEX
  8
0
  6
CONTINUOUS
 10
2.729760
 20
4.108720
  0
VERTEX
  8
0
  6
CONTINUOUS
 10
2.722280
 20
4.146560
  0
SEQEND
  8
0
  0
SOLID
  8
0
 62
    15
 10
2.729760
 20
4.108720
 11
3.381400
 21
4.493280
 12
2.742080
 22
4.072200
 13
3.393720
 23
4.456760
  0
POLYLINE
  8
0
  6
CONTINUOUS
 66
     1
 40
0.000000
 41
0.000000
  0
VERTEX
  8
0
  6
CONTINUOUS
 10
2.729760
 20
4.108720
  0
VERTEX
  8
0
  6
CONTINUOUS
 10
3.381400
 20
4.493280
  0
VERTEX
  8
0
  6
CONTINUOUS
 10
3.393720
 20
4.456760
  0
VERTEX
  8
0
  6
CONTINUOUS
 10
2.742080
 20
4.072200
  0
VERTEX
  8
0
  6
CONTINUOUS
 10
2.729760
 20
4.108720
  0
SEQEND
  8
0
  0
SOLID
  8
0
 62
    15
 10
2.742080
 20
4.072200
 11
3.393720
 21
4.456760
 12
2.758800
 22
4.037440
 13
3.410000
 23
4.422440
  0
POLYLINE
  8
0
  6
CONTINUOUS
 66
     1
 40
0.000000
 41
0.000000
  0
VERTEX
  8
0
  6
CONTINUOUS
 10
2.742080
 20
4.072200
  0
VERTEX
  8
0
  6
CONTINUOUS
 10
3.393720
 20
4.456760
  0
VERTEX
  8
0
  6
CONTINUOUS
 10
3.410000
 20
4.422440
  0
VERTEX
  8
0
  6
CONTINUOUS
 10
2.758800
 20
4.037440
  0
VERTEX
  8
0
  6
CONTINUOUS
 10
2.742080
 20
4.072200
  0
SEQEND
  8
0
  0
SOLID
  8
0
 62
    15
 10
2.758800
 20
4.037440
 11
3.410000
 21
4.422440
 12
2.779040
 22
4.005320
 13
3.430680
 23
4.390320
  0
POLYLINE
  8
0
  6
CONTINUOUS
 66
     1
 40
0.000000
 41
0.000000
  0
VERTEX
  8
0
  6
CONTINUOUS
 10
2.758800
 20
4.037440
  0
VERTEX
  8
0
  6
CONTINUOUS
 10
3.410000
 20
4.422440
  0
VERTEX
  8
0
  6
CONTINUOUS
 10
3.430680
 20
4.390320
  0
VERTEX
  8
0
  6
CONTINUOUS
 10
2.779040
 20
4.005320
  0
VERTEX
  8
0
  6
CONTINUOUS
 10
2.758800
 20
4.037440
  0
SEQEND
  8
0
  0
SOLID
  8
0
 62
    15
 10
2.779040
 20
4.005320
 11
3.430680
 21
4.390320
 12
2.803240
 22
3.975840
 13
3.454880
 23
4.360840
  0
POLYLINE
  8
0
  6
CONTINUOUS
 66
     1
 40
0.000000
 41
0.000000
  0
VERTEX
  8
0
  6
CONTINUOUS
 10
2.779040
 20
4.005320
  0
VERTEX
  8
0
  6
CONTINUOUS
 10
3.430680
 20
4.390320
  0
VERTEX
  8
0
  6
CONTINUOUS
 10
3.454880
 20
4.360840
  0
VERTEX
  8
0
  6
CONTINUOUS
 10
2.803240
 20
3.975840
  0
VERTEX
  8
0
  6
CONTINUOUS
 10
2.779040
 20
4.005320
  0
SEQEND
  8
0
  0
SOLID
  8
0
 62
    15
 10
2.803240
 20
3.975840
 11
3.454880
 21
4.360840
 12
2.830520
 22
3.949440
 13
3.482160
 23
4.334000
  0
POLYLINE
  8
0
  6
CONTINUOUS
 66
     1
 40
0.000000
 41
0.000000
  0
VERTEX
  8
0
  6
CONTINUOUS
 10
2.803240
 20
3.975840
  0
VERTEX
  8
0
  6
CONTINUOUS
 10
3.454880
 20
4.360840
  0
VERTEX
  8
0
  6
CONTINUOUS
 10
3.482160
 20
4.334000
  0
VERTEX
  8
0
  6
CONTINUOUS
 10
2.830520
 20
3.949440
  0
VERTEX
  8
0
  6
CONTINUOUS
 10
2.803240
 20
3.975840
  0
SEQEND
  8
0
  0
SOLID
  8
0
 62
    15
 10
2.830520
 20
3.949440
 11
3.482160
 21
4.334000
 12
2.860880
 22
3.926120
 13
3.512080
 23
4.310680
  0
POLYLINE
  8
0
  6
CONTINUOUS
 66
     1
 40
0.000000
 41
0.000000
  0
VERTEX
  8
0
  6
CONTINUOUS
 10
2.830520
 20
3.949440
  0
VERTEX
  8
0
  6
CONTINUOUS
 10
3.482160
 20
4.334000
  0
VERTEX
  8
0
  6
CONTINUOUS
 10
3.512080
 20
4.310680
  0
VERTEX
  8
0
  6
CONTINUOUS
 10
2.860880
 20
3.926120
  0
VERTEX
  8
0
  6
CONTINUOUS
 10
2.830520
 20
3.949440
  0
SEQEND
  8
0
  0
SOLID
  8
0
 62
    15
 10
2.860880
 20
3.926120
 11
3.512080
 21
4.310680
 12
2.864840
 22
3.920840
 13
3.516040
 23
4.305400
  0
POLYLINE
  8
0
  6
CONTINUOUS
 66
     1
 40
0.000000
 41
0.000000
  0
VERTEX
  8
0
  6
CONTINUOUS
 10
2.860880
 20
3.926120
  0
VERTEX
  8
0
  6
CONTINUOUS
 10
3.512080
 20
4.310680
  0
VERTEX
  8
0
  6
CONTINUOUS
 10
3.516040
 20
4.305400
  0
VERTEX
  8
0
  6
CONTINUOUS
 10
2.864840
 20
3.920840
  0
VERTEX
  8
0
  6
CONTINUOUS
 10
2.860880
 20
3.926120
  0
SEQEND
  8
0
  0
SOLID
  8
0
 62
    15
 10
2.864840
 20
3.920840
 11
3.516040
 21
4.305400
 12
2.864840
 22
1.015520
 13
3.516040
 23
1.400080
  0
POLYLINE
  8
0
  6
CONTINUOUS
 66
     1
 40
0.000000
 41
0.000000
  0
VERTEX
  8
0
  6
CONTINUOUS
 10
2.864840
 20
3.920840
  0
VERTEX
  8
0
  6
CONTINUOUS
 10
3.516040
 20
4.305400
  0
VERTEX
  8
0
  6
CONTINUOUS
 10
3.516040
 20
1.400080
  0
VERTEX
  8
0
  6
CONTINUOUS
 10
2.864840
 20
1.015520
  0
VERTEX
  8
0
  6
CONTINUOUS
 10
2.864840
 20
3.920840
  0
SEQEND
  8
0
  0
SOLID
  8
0
 62
    15
 10
2.080760
 20
5.339400
 11
2.732400
 21
5.724400
 12
2.460920
 22
5.339400
 13
3.112120
 23
5.723960
  0
POLYLINE
  8
0
  6
CONTINUOUS
 66
     1
 40
0.000000
 41
0.000000
  0
VERTEX
  8
0
  6
CONTINUOUS
 10
2.080760
 20
5.339400
  0
VERTEX
  8
0
  6
CONTINUOUS
 10
2.732400
 20
5.724400
  0
VERTEX
  8
0
  6
CONTINUOUS
 10
3.112120
 20
5.723960
  0
VERTEX
  8
0
  6
CONTINUOUS
 10
2.460920
 20
5.339400
  0
VERTEX
  8
0
  6
CONTINUOUS
 10
2.080760
 20
5.339400
  0
SEQEND
  8
0
  0
SOLID
  8
0
 62
    15
 10
2.843720
 20
4.440920
 11
3.494920
 21
4.825480
 12
2.814680
 22
4.417160
 13
3.466320
 23
4.802160
  0
POLYLINE
  8
0
  6
CONTINUOUS
 66
     1
 40
0.000000
 41
0.000000
  0
VERTEX
  8
0
  6
CONTINUOUS
 10
2.843720
 20
4.440920
  0
VERTEX
  8
0
  6
CONTINUOUS
 10
3.494920
 20
4.825480
  0
VERTEX
  8
0
  6
CONTINUOUS
 10
3.466320
 20
4.802160
  0
VERTEX
  8
0
  6
CONTINUOUS
 10
2.814680
 20
4.417160
  0
VERTEX
  8
0
  6
CONTINUOUS
 10
2.843720
 20
4.440920
  0
SEQEND
  8
0
  0
SOLID
  8
0
 62
    15
 10
2.460920
 20
5.339400
 11
3.112120
 21
5.723960
 12
2.460920
 22
5.316520
 13
3.112120
 23
5.701520
  0
POLYLINE
  8
0
  6
CONTINUOUS
 66
     1
 40
0.000000
 41
0.000000
  0
VERTEX
  8
0
  6
CONTINUOUS
 10
2.460920
 20
5.339400
  0
VERTEX
  8
0
  6
CONTINUOUS
 10
3.112120
 20
5.723960
  0
VERTEX
  8
0
  6
CONTINUOUS
 10
3.112120
 20
5.701520
  0
VERTEX
  8
0
  6
CONTINUOUS
 10
2.460920
 20
5.316520
  0
VERTEX
  8
0
  6
CONTINUOUS
 10
2.460920
 20
5.339400
  0
SEQEND
  8
0
  0
SOLID
  8
0
 62
    15
 10
2.460920
 20
5.316520
 11
3.112120
 21
5.701520
 12
2.462240
 22
5.315200
 13
3.113440
 23
5.700200
  0
POLYLINE
  8
0
  6
CONTINUOUS
 66
     1
 40
0.000000
 41
0.000000
  0
VERTEX
  8
0
  6
CONTINUOUS
 10
2.460920
 20
5.316520
  0
VERTEX
  8
0
  6
CONTINUOUS
 10
3.112120
 20
5.701520
  0
VERTEX
  8
0
  6
CONTINUOUS
 10
3.113440
 20
5.700200
  0
VERTEX
  8
0
  6
CONTINUOUS
 10
2.462240
 20
5.315200
  0
VERTEX
  8
0
  6
CONTINUOUS
 10
2.460920
 20
5.316520
  0
SEQEND
  8
0
  0
SOLID
  8
0
 62
    15
 10
2.462240
 20
5.315200
 11
3.113440
 21
5.700200
 12
2.464000
 22
5.276040
 13
3.115640
 23
5.660600
  0
POLYLINE
  8
0
  6
CONTINUOUS
 66
     1
 40
0.000000
 41
0.000000
  0
VERTEX
  8
0
  6
CONTINUOUS
 10
2.462240
 20
5.315200
  0
VERTEX
  8
0
  6
CONTINUOUS
 10
3.113440
 20
5.700200
  0
VERTEX
  8
0
  6
CONTINUOUS
 10
3.115640
 20
5.660600
  0
VERTEX
  8
0
  6
CONTINUOUS
 10
2.464000
 20
5.276040
  0
VERTEX
  8
0
  6
CONTINUOUS
 10
2.462240
 20
5.315200
  0
SEQEND
  8
0
  0
SOLID
  8
0
 62
    15
 10
2.464000
 20
5.276040
 11
3.115640
 21
5.660600
 12
2.470160
 22
5.237320
 13
3.121360
 23
5.622320
  0
POLYLINE
  8
0
  6
CONTINUOUS
 66
     1
 40
0.000000
 41
0.000000
  0
VERTEX
  8
0
  6
CONTINUOUS
 10
2.464000
 20
5.276040
  0
VERTEX
  8
0
  6
CONTINUOUS
 10
3.115640
 20
5.660600
  0
VERTEX
  8
0
  6
CONTINUOUS
 10
3.121360
 20
5.622320
  0
VERTEX
  8
0
  6
CONTINUOUS
 10
2.470160
 20
5.237320
  0
VERTEX
  8
0
  6
CONTINUOUS
 10
2.464000
 20
5.276040
  0
SEQEND
  8
0
  0
SOLID
  8
0
 62
    15
 10
2.470160
 20
5.237320
 11
3.121360
 21
5.622320
 12
2.479840
 22
5.199920
 13
3.131040
 23
5.584920
  0
POLYLINE
  8
0
  6
CONTINUOUS
 66
     1
 40
0.000000
 41
0.000000
  0
VERTEX
  8
0
  6
CONTINUOUS
 10
2.470160
 20
5.237320
  0
VERTEX
  8
0
  6
CONTINUOUS
 10
3.121360
 20
5.622320
  0
VERTEX
  8
0
  6
CONTINUOUS
 10
3.131040
 20
5.584920
  0
VERTEX
  8
0
  6
CONTINUOUS
 10
2.479840
 20
5.199920
  0
VERTEX
  8
0
  6
CONTINUOUS
 10
2.470160
 20
5.237320
  0
SEQEND
  8
0
  0
SOLID
  8
0
 62
    15
 10
2.479840
 20
5.199920
 11
3.131040
 21
5.584920
 12
2.493040
 22
5.163840
 13
3.144680
 23
5.548840
  0
POLYLINE
  8
0
  6
CONTINUOUS
 66
     1
 40
0.000000
 41
0.000000
  0
VERTEX
  8
0
  6
CONTINUOUS
 10
2.479840
 20
5.199920
  0
VERTEX
  8
0
  6
CONTINUOUS
 10
3.131040
 20
5.584920
  0
VERTEX
  8
0
  6
CONTINUOUS
 10
3.144680
 20
5.548840
  0
VERTEX
  8
0
  6
CONTINUOUS
 10
2.493040
 20
5.163840
  0
VERTEX
  8
0
  6
CONTINUOUS
 10
2.479840
 20
5.199920
  0
SEQEND
  8
0
  0
SOLID
  8
0
 62
    15
 10
2.493040
 20
5.163840
 11
3.144680
 21
5.548840
 12
2.509760
 22
5.129520
 13
3.160960
 23
5.514080
  0
POLYLINE
  8
0
  6
CONTINUOUS
 66
     1
 40
0.000000
 41
0.000000
  0
VERTEX
  8
0
  6
CONTINUOUS
 10
2.493040
 20
5.163840
  0
VERTEX
  8
0
  6
CONTINUOUS
 10
3.144680
 20
5.548840
  0
VERTEX
  8
0
  6
CONTINUOUS
 10
3.160960
 20
5.514080
  0
VERTEX
  8
0
  6
CONTINUOUS
 10
2.509760
 20
5.129520
  0
VERTEX
  8
0
  6
CONTINUOUS
 10
2.493040
 20
5.163840
  0
SEQEND
  8
0
  0
SOLID
  8
0
 62
    15
 10
2.509760
 20
5.129520
 11
3.160960
 21
5.514080
 12
2.529560
 22
5.096520
 13
3.180760
 23
5.481520
  0
POLYLINE
  8
0
  6
CONTINUOUS
 66
     1
 40
0.000000
 41
0.000000
  0
VERTEX
  8
0
  6
CONTINUOUS
 10
2.509760
 20
5.129520
  0
VERTEX
  8
0
  6
CONTINUOUS
 10
3.160960
 20
5.514080
  0
VERTEX
  8
0
  6
CONTINUOUS
 10
3.180760
 20
5.481520
  0
VERTEX
  8
0
  6
CONTINUOUS
 10
2.529560
 20
5.096520
  0
VERTEX
  8
0
  6
CONTINUOUS
 10
2.509760
 20
5.129520
  0
SEQEND
  8
0
  0
SOLID
  8
0
 62
    15
 10
2.529560
 20
5.096520
 11
3.180760
 21
5.481520
 12
2.577520
 22
5.037120
 13
3.228720
 23
5.422120
  0
POLYLINE
  8
0
  6
CONTINUOUS
 66
     1
 40
0.000000
 41
0.000000
  0
VERTEX
  8
0
  6
CONTINUOUS
 10
2.529560
 20
5.096520
  0
VERTEX
  8
0
  6
CONTINUOUS
 10
3.180760
 20
5.481520
  0
VERTEX
  8
0
  6
CONTINUOUS
 10
3.228720
 20
5.422120
  0
VERTEX
  8
0
  6
CONTINUOUS
 10
2.577520
 20
5.037120
  0
VERTEX
  8
0
  6
CONTINUOUS
 10
2.529560
 20
5.096520
  0
SEQEND
  8
0
  0
SOLID
  8
0
 62
    15
 10
2.577520
 20
5.037120
 11
3.228720
 21
5.422120
 12
2.635160
 22
4.987840
 13
3.286360
 23
5.372840
  0
POLYLINE
  8
0
  6
CONTINUOUS
 66
     1
 40
0.000000
 41
0.000000
  0
VERTEX
  8
0
  6
CONTINUOUS
 10
2.577520
 20
5.037120
  0
VERTEX
  8
0
  6
CONTINUOUS
 10
3.228720
 20
5.422120
  0
VERTEX
  8
0
  6
CONTINUOUS
 10
3.286360
 20
5.372840
  0
VERTEX
  8
0
  6
CONTINUOUS
 10
2.635160
 20
4.987840
  0
VERTEX
  8
0
  6
CONTINUOUS
 10
2.577520
 20
5.037120
  0
SEQEND
  8
0
  0
SOLID
  8
0
 62
    15
 10
2.635160
 20
4.987840
 11
3.286360
 21
5.372840
 12
2.667280
 22
4.967600
 13
3.318480
 23
5.352160
  0
POLYLINE
  8
0
  6
CONTINUOUS
 66
     1
 40
0.000000
 41
0.000000
  0
VERTEX
  8
0
  6
CONTINUOUS
 10
2.635160
 20
4.987840
  0
VERTEX
  8
0
  6
CONTINUOUS
 10
3.286360
 20
5.372840
  0
VERTEX
  8
0
  6
CONTINUOUS
 10
3.318480
 20
5.352160
  0
VERTEX
  8
0
  6
CONTINUOUS
 10
2.667280
 20
4.967600
  0
VERTEX
  8
0
  6
CONTINUOUS
 10
2.635160
 20
4.987840
  0
SEQEND
  8
0
  0
SOLID
  8
0
 62
    15
 10
2.667280
 20
4.967600
 11
3.318480
 21
5.352160
 12
2.701160
 22
4.950440
 13
3.352800
 23
5.335000
  0
POLYLINE
  8
0
  6
CONTINUOUS
 66
     1
 40
0.000000
 41
0.000000
  0
VERTEX
  8
0
  6
CONTINUOUS
 10
2.667280
 20
4.967600
  0
VERTEX
  8
0
  6
CONTINUOUS
 10
3.318480
 20
5.352160
  0
VERTEX
  8
0
  6
CONTINUOUS
 10
3.352800
 20
5.335000
  0
VERTEX
  8
0
  6
CONTINUOUS
 10
2.701160
 20
4.950440
  0
VERTEX
  8
0
  6
CONTINUOUS
 10
2.667280
 20
4.967600
  0
SEQEND
  8
0
  0
SOLID
  8
0
 62
    15
 10
2.701160
 20
4.950440
 11
3.352800
 21
5.335000
 12
2.736800
 22
4.936800
 13
3.388440
 23
5.321360
  0
POLYLINE
  8
0
  6
CONTINUOUS
 66
     1
 40
0.000000
 41
0.000000
  0
VERTEX
  8
0
  6
CONTINUOUS
 10
2.701160
 20
4.950440
  0
VERTEX
  8
0
  6
CONTINUOUS
 10
3.352800
 20
5.335000
  0
VERTEX
  8
0
  6
CONTINUOUS
 10
3.388440
 20
5.321360
  0
VERTEX
  8
0
  6
CONTINUOUS
 10
2.736800
 20
4.936800
  0
VERTEX
  8
0
  6
CONTINUOUS
 10
2.701160
 20
4.950440
  0
SEQEND
  8
0
  0
SOLID
  8
0
 62
    15
 10
2.736800
 20
4.936800
 11
3.388440
 21
5.321360
 12
2.773760
 22
4.926680
 13
3.425400
 23
5.311240
  0
POLYLINE
  8
0
  6
CONTINUOUS
 66
     1
 40
0.000000
 41
0.000000
  0
VERTEX
  8
0
  6
CONTINUOUS
 10
2.736800
 20
4.936800
  0
VERTEX
  8
0
  6
CONTINUOUS
 10
3.388440
 20
5.321360
  0
VERTEX
  8
0
  6
CONTINUOUS
 10
3.425400
 20
5.311240
  0
VERTEX
  8
0
  6
CONTINUOUS
 10
2.773760
 20
4.926680
  0
VERTEX
  8
0
  6
CONTINUOUS
 10
2.736800
 20
4.936800
  0
SEQEND
  8
0
  0
SOLID
  8
0
 62
    15
 10
2.773760
 20
4.926680
 11
3.425400
 21
5.311240
 12
2.812040
 22
4.920080
 13
3.463680
 23
5.305080
  0
POLYLINE
  8
0
  6
CONTINUOUS
 66
     1
 40
0.000000
 41
0.000000
  0
VERTEX
  8
0
  6
CONTINUOUS
 10
2.773760
 20
4.926680
  0
VERTEX
  8
0
  6
CONTINUOUS
 10
3.425400
 20
5.311240
  0
VERTEX
  8
0
  6
CONTINUOUS
 10
3.463680
 20
5.305080
  0
VERTEX
  8
0
  6
CONTINUOUS
 10
2.812040
 20
4.920080
  0
VERTEX
  8
0
  6
CONTINUOUS
 10
2.773760
 20
4.926680
  0
SEQEND
  8
0
  0
SOLID
  8
0
 62
    15
 10
2.812040
 20
4.920080
 11
3.463680
 21
5.305080
 12
2.851640
 22
4.917880
 13
3.502840
 23
5.302880
  0
POLYLINE
  8
0
  6
CONTINUOUS
 66
     1
 40
0.000000
 41
0.000000
  0
VERTEX
  8
0
  6
CONTINUOUS
 10
2.812040
 20
4.920080
  0
VERTEX
  8
0
  6
CONTINUOUS
 10
3.463680
 20
5.305080
  0
VERTEX
  8
0
  6
CONTINUOUS
 10
3.502840
 20
5.302880
  0
VERTEX
  8
0
  6
CONTINUOUS
 10
2.851640
 20
4.917880
  0
VERTEX
  8
0
  6
CONTINUOUS
 10
2.812040
 20
4.920080
  0
SEQEND
  8
0
  0
SOLID
  8
0
 62
    15
 10
2.851640
 20
4.917880
 11
3.502840
 21
5.302880
 12
2.852960
 22
4.916560
 13
3.504160
 23
5.301560
  0
POLYLINE
  8
0
  6
CONTINUOUS
 66
     1
 40
0.000000
 41
0.000000
  0
VERTEX
  8
0
  6
CONTINUOUS
 10
2.851640
 20
4.917880
  0
VERTEX
  8
0
  6
CONTINUOUS
 10
3.502840
 20
5.302880
  0
VERTEX
  8
0
  6
CONTINUOUS
 10
3.504160
 20
5.301560
  0
VERTEX
  8
0
  6
CONTINUOUS
 10
2.852960
 20
4.916560
  0
VERTEX
  8
0
  6
CONTINUOUS
 10
2.851640
 20
4.917880
  0
SEQEND
  8
0
  0
SOLID
  8
0
 62
    15
 10
2.852960
 20
4.916560
 11
3.504160
 21
5.301560
 12
2.852960
 22
4.451480
 13
3.504160
 23
4.836040
  0
POLYLINE
  8
0
  6
CONTINUOUS
 66
     1
 40
0.000000
 41
0.000000
  0
VERTEX
  8
0
  6
CONTINUOUS
 10
2.852960
 20
4.916560
  0
VERTEX
  8
0
  6
CONTINUOUS
 10
3.504160
 20
5.301560
  0
VERTEX
  8
0
  6
CONTINUOUS
 10
3.504160
 20
4.836040
  0
VERTEX
  8
0
  6
CONTINUOUS
 10
2.852960
 20
4.451480
  0
VERTEX
  8
0
  6
CONTINUOUS
 10
2.852960
 20
4.916560
  0
SEQEND
  8
0
  0
SOLID
  8
0
 62
    15
 10
2.852960
 20
4.451480
 11
3.504160
 21
4.836040
 12
2.843720
 22
4.440920
 13
3.494920
 23
4.825480
  0
POLYLINE
  8
0
  6
CONTINUOUS
 66
     1
 40
0.000000
 41
0.000000
  0
VERTEX
  8
0
  6
CONTINUOUS
 10
2.852960
 20
4.451480
  0
VERTEX
  8
0
  6
CONTINUOUS
 10
3.504160
 20
4.836040
  0
VERTEX
  8
0
  6
CONTINUOUS
 10
3.494920
 20
4.825480
  0
VERTEX
  8
0
  6
CONTINUOUS
 10
2.843720
 20
4.440920
  0
VERTEX
  8
0
  6
CONTINUOUS
 10
2.852960
 20
4.451480
  0
SEQEND
  8
0
  0
POLYLINE
  8
0
  6
CONTINUOUS
 66
     1
 40
0.000000
 41
0.000000
  0
VERTEX
  8
0
  6
CONTINUOUS
 10
2.843720
 20
4.440920
  0
VERTEX
  8
0
  6
CONTINUOUS
 10
2.814680
 20
4.417160
  0
VERTEX
  8
0
  6
CONTINUOUS
 10
2.790040
 20
4.391200
  0
VERTEX
  8
0
  6
CONTINUOUS
 10
2.768480
 20
4.362160
  0
VERTEX
  8
0
  6
CONTINUOUS
 10
2.750880
 20
4.330920
  0
VERTEX
  8
0
  6
CONTINUOUS
 10
2.737240
 20
4.297480
  0
VERTEX
  8
0
  6
CONTINUOUS
 10
2.727560
 20
4.261840
  0
VERTEX
  8
0
  6
CONTINUOUS
 10
2.721400
 20
4.224880
  0
VERTEX
  8
0
  6
CONTINUOUS
 10
2.719640
 20
4.186160
  0
VERTEX
  8
0
  6
CONTINUOUS
 10
2.722280
 20
4.146560
  0
VERTEX
  8
0
  6
CONTINUOUS
 10
2.729760
 20
4.108720
  0
VERTEX
  8
0
  6
CONTINUOUS
 10
2.742080
 20
4.072200
  0
VERTEX
  8
0
  6
CONTINUOUS
 10
2.758800
 20
4.037440
  0
VERTEX
  8
0
  6
CONTINUOUS
 10
2.779040
 20
4.005320
  0
VERTEX
  8
0
  6
CONTINUOUS
 10
2.803240
 20
3.975840
  0
VERTEX
  8
0
  6
CONTINUOUS
 10
2.830520
 20
3.949440
  0
VERTEX
  8
0
  6
CONTINUOUS
 10
2.860880
 20
3.926120
  0
VERTEX
  8
0
  6
CONTINUOUS
 10
2.864840
 20
3.920840
  0
VERTEX
  8
0
  6
CONTINUOUS
 10
2.864840
 20
1.015520
  0
VERTEX
  8
0
  6
CONTINUOUS
 10
2.074160
 20
1.015520
  0
VERTEX
  8
0
  6
CONTINUOUS
 10
2.074160
 20
5.338080
  0
VERTEX
  8
0
  6
CONTINUOUS
 10
2.080760
 20
5.339400
  0
VERTEX
  8
0
  6
CONTINUOUS
 10
2.460920
 20
5.339400
  0
VERTEX
  8
0
  6
CONTINUOUS
 10
2.460920
 20
5.316520
  0
VERTEX
  8
0
  6
CONTINUOUS
 10
2.462240
 20
5.315200
  0
VERTEX
  8
0
  6
CONTINUOUS
 10
2.464000
 20
5.276040
  0
VERTEX
  8
0
  6
CONTINUOUS
 10
2.470160
 20
5.237320
  0
VERTEX
  8
0
  6
CONTINUOUS
 10
2.479840
 20
5.199920
  0
VERTEX
  8
0
  6
CONTINUOUS
 10
2.493040
 20
5.163840
  0
VERTEX
  8
0
  6
CONTINUOUS
 10
2.509760
 20
5.129520
  0
VERTEX
  8
0
  6
CONTINUOUS
 10
2.529560
 20
5.096520
  0
VERTEX
  8
0
  6
CONTINUOUS
 10
2.577520
 20
5.037120
  0
VERTEX
  8
0
  6
CONTINUOUS
 10
2.635160
 20
4.987840
  0
VERTEX
  8
0
  6
CONTINUOUS
 10
2.667280
 20
4.967600
  0
VERTEX
  8
0
  6
CONTINUOUS
 10
2.701160
 20
4.950440
  0
VERTEX
  8
0
  6
CONTINUOUS
 10
2.736800
 20
4.936800
  0
VERTEX
  8
0
  6
CONTINUOUS
 10
2.773760
 20
4.926680
  0
VERTEX
  8
0
  6
CONTINUOUS
 10
2.812040
 20
4.920080
  0
VERTEX
  8
0
  6
CONTINUOUS
 10
2.851640
 20
4.917880
  0
VERTEX
  8
0
  6
CONTINUOUS
 10
2.852960
 20
4.916560
  0
VERTEX
  8
0
  6
CONTINUOUS
 10
2.852960
 20
4.451480
  0
VERTEX
  8
0
  6
CONTINUOUS
 10
2.843720
 20
4.440920
  0
SEQEND
  8
0
  0
TEXT
  8
0
 10
2.544520
 20
0.720280
 40
0.138304
  1
BA  26
 41
1.000000
  7
SN0
 71
     0
 72
     5
 11
3.043119
 21
0.720280
  0
TEXT
  8
0
 10
2.296800
 20
0.528880
 40
0.138304
  1
3/4" x 4-5/16" 
 41
1.000000
  7
SN0
 71
     0
 72
     5
 11
3.336375
 21
0.528880
  0
POLYLINE
  8
0
  6
CONTINUOUS
 66
     1
 40
0.014080
 41
0.014080
  0
VERTEX
  8
0
  6
CONTINUOUS
 10
7.178600
 20
3.286360
  0
VERTEX
  8
0
  6
CONTINUOUS
 10
7.155280
 20
3.257760
  0
VERTEX
  8
0
  6
CONTINUOUS
 10
7.128880
 20
3.232680
  0
VERTEX
  8
0
  6
CONTINUOUS
 10
7.100280
 20
3.211120
  0
VERTEX
  8
0
  6
CONTINUOUS
 10
7.069040
 20
3.193960
  0
VERTEX
  8
0
  6
CONTINUOUS
 10
7.035600
 20
3.179880
  0
VERTEX
  8
0
  6
CONTINUOUS
 10
6.999960
 20
3.170200
  0
VERTEX
  8
0
  6
CONTINUOUS
 10
6.963000
 20
3.164480
  0
VERTEX
  8
0
  6
CONTINUOUS
 10
6.924280
 20
3.162280
  0
VERTEX
  8
0
  6
CONTINUOUS
 10
6.884680
 20
3.164920
  0
VERTEX
  8
0
  6
CONTINUOUS
 10
6.846400
 20
3.172400
  0
VERTEX
  8
0
  6
CONTINUOUS
 10
6.809880
 20
3.184720
  0
VERTEX
  8
0
  6
CONTINUOUS
 10
6.775560
 20
3.201440
  0
VERTEX
  8
0
  6
CONTINUOUS
 10
6.743440
 20
3.222120
  0
VERTEX
  8
0
  6
CONTINUOUS
 10
6.713960
 20
3.246320
  0
VERTEX
  8
0
  6
CONTINUOUS
 10
6.687560
 20
3.273600
  0
VERTEX
  8
0
  6
CONTINUOUS
 10
6.664240
 20
3.303520
  0
VERTEX
  8
0
  6
CONTINUOUS
 10
6.658960
 20
3.307920
  0
VERTEX
  8
0
  6
CONTINUOUS
 10
3.753640
 20
3.307920
  0
VERTEX
  8
0
  6
CONTINUOUS
 10
3.753640
 20
2.517240
  0
VERTEX
  8
0
  6
CONTINUOUS
 10
8.076200
 20
2.517240
  0
VERTEX
  8
0
  6
CONTINUOUS
 10
8.077520
 20
2.523840
  0
VERTEX
  8
0
  6
CONTINUOUS
 10
8.077520
 20
2.903560
  0
VERTEX
  8
0
  6
CONTINUOUS
 10
8.054640
 20
2.903560
  0
VERTEX
  8
0
  6
CONTINUOUS
 10
8.053320
 20
2.904880
  0
VERTEX
  8
0
  6
CONTINUOUS
 10
8.014160
 20
2.907080
  0
VERTEX
  8
0
  6
CONTINUOUS
 10
7.975440
 20
2.912800
  0
VERTEX
  8
0
  6
CONTINUOUS
 10
7.938040
 20
2.922480
  0
VERTEX
  8
0
  6
CONTINUOUS
 10
7.901960
 20
2.935680
  0
VERTEX
  8
0
  6
CONTINUOUS
 10
7.867200
 20
2.952400
  0
VERTEX
  8
0
  6
CONTINUOUS
 10
7.818800
 20
2.983200
  0
VERTEX
  8
0
  6
CONTINUOUS
 10
7.789320
 20
3.006960
  0
VERTEX
  8
0
  6
CONTINUOUS
 10
7.749280
 20
3.047880
  0
VERTEX
  8
0
  6
CONTINUOUS
 10
7.725960
 20
3.077800
  0
VERTEX
  8
0
  6
CONTINUOUS
 10
7.696480
 20
3.126640
  0
VERTEX
  8
0
  6
CONTINUOUS
 10
7.681080
 20
3.161400
  0
VERTEX
  8
0
  6
CONTINUOUS
 10
7.669200
 20
3.197920
  0
VERTEX
  8
0
  6
CONTINUOUS
 10
7.660840
 20
3.235760
  0
VERTEX
  8
0
  6
CONTINUOUS
 10
7.656440
 20
3.274480
  0
VERTEX
  8
0
  6
CONTINUOUS
 10
7.656000
 20
3.294280
  0
VERTEX
  8
0
  6
CONTINUOUS
 10
7.654680
 20
3.295600
  0
VERTEX
  8
0
  6
CONTINUOUS
 10
7.189600
 20
3.295600
  0
VERTEX
  8
0
  6
CONTINUOUS
 10
7.178600
 20
3.286360
  0
SEQEND
  8
0
  0
TEXT
  8
0
 10
4.724280
 20
2.852080
 40
0.138304
  1
BA  26
 41
1.000000
  7
SN0
 71
     0
 72
     5
 11
5.222879
 21
2.852080
  0
TEXT
  8
0
 10
4.476120
 20
2.660680
 40
0.138304
  1
3/4" x 4-5/16" 
 41
1.000000
  7
SN0
 71
     0
 72
     5
 11
5.515695
 21
2.660680
  0
ENDSEC
  0
EOF
