  0
SECTION
  2
HEADER
  9
$ACADVER
  1
AC1006
  9
$EXTMIN
 10
0.772640
 20
0.320320
  9
$EXTMAX
 10
8.098200
 20
4.354680
  9
$LTSCALE
 40
0.044000
  9
$PDMODE
 70
    35
  9
$PDSIZE
 40
0.035200
  0
ENDSEC
  0
SECTION
  2
TABLES
  0
TABLE
  2
LTYPE
 70
     9
  0
LTYPE
  2
CONTINUOUS
 70
    64
  3
Solid line
 72
    65
 73
     0
 40
0.000000
  0
LTYPE
  2
DASHED
 70
    64
  3
__ __ __ __ __ __ __ __ __ __ __ __ __ __ __
 72
    65
 73
     2
 40
0.000330
 49
0.000220
 49
-0.000110
  0
LTYPE
  2
HIDDEN
 70
    64
  3
 _ _ _ _ _ _ _ _ _ _ _ _ _ _ _ _ _ _ _ _ _ _
 72
    65
 73
     2
 40
0.000165
 49
0.000110
 49
-0.000055
  0
LTYPE
  2
CENTER
 70
    64
  3
____ _ ____ _ ____ _ ____ _ ____ _ ____ _ ____
 72
    65
 73
     4
 40
0.000880
 49
0.000550
 49
-0.000110
 49
0.000110
 49
-0.000110
  0
LTYPE
  2
PHANTOM
 70
    64
  3
_____ _ _ _____ _ _ _____ _ _ _____ _ _ ____
 72
    65
 73
     6
 40
0.001100
 49
0.000550
 49
-0.000110
 49
0.000110
 49
-0.000110
 49
0.000110
 49
-0.000110
  0
LTYPE
  2
DOT
 70
    64
  3
...............................................
 72
    65
 73
     2
 40
0.000110
 49
0.000000
 49
-0.000110
  0
LTYPE
  2
DASHDOT
 70
    64
  3
__ . __ . __ . __ . __ . __ . __ . __ . __ . __
 72
    65
 73
     4
 40
0.000440
 49
0.000220
 49
-0.000110
 49
0.000000
 49
-0.000110
  0
LTYPE
  2
BORDER
 70
    64
  3
__ __ . __ __ . __ __ . __ __ . __ __ . __ __
 72
    65
 73
     6
 40
0.000770
 49
0.000220
 49
-0.000110
 49
0.000220
 49
-0.000110
 49
0.000000
 49
-0.000110
  0
LTYPE
  2
DIVIDE
 70
    64
  3
__ . . __ . . __ . . __ . . __ . . __ . . __
 72
    65
 73
     6
 40
0.000550
 49
0.000220
 49
-0.000110
 49
0.000000
 49
-0.000110
 49
0.000000
 49
-0.000110
  0
LTYPE
  2
DOTDOT
 70
    64
  3
 . .  . .  . .  . .  . .  . . 
 72
    65
 73
     5
 40
0.000242
 49
-0.000110
 49
0.000000
 49
-0.000110
 49
0.000000
 49
-0.000110
  0
ENDTAB
  0
TABLE
  2
STYLE
 70
     2
  0
STYLE
 70
     0
  2
SN0
 40
0.000000
 41
0.000440
 50
0.000000
 71
     0
 42
0.000000
  3
ROMAND
  0
STYLE
 70
    68
  2
SV0
 40
0.000000
 41
0.000440
 50
0.000000
 71
     0
 42
0.000000
  3
ROMAND
  0
ENDTAB
  0
TABLE
  2
LAYER
 70
     3
  0
LAYER
  2
FOREGROUND
 70
    64
 62
     7
  6
CONTINUOUS
  0
LAYER
  2
BACKGROUND
 70
    65
 62
    -7
  6
CONTINUOUS
  0
LAYER
  2
0
 70
    64
 62
     7
  6
CONTINUOUS
  0
ENDTAB
  0
ENDSEC
  0
SECTION
  2
ENTITIES
  0
POLYLINE
  8
FOREGROUND
  6
CONTINUOUS
 66
     1
 40
0.000000
 41
0.000000
  0
VERTEX
  8
FOREGROUND
  6
CONTINUOUS
 10
0.000000
 20
4.675000
  0
VERTEX
  8
FOREGROUND
  6
CONTINUOUS
 10
8.499920
 20
4.675000
  0
VERTEX
  8
FOREGROUND
  6
CONTINUOUS
 10
8.499920
 20
-6.325000
  0
VERTEX
  8
FOREGROUND
  6
CONTINUOUS
 10
0.000000
 20
-6.325000
  0
VERTEX
  8
FOREGROUND
  6
CONTINUOUS
 10
0.000000
 20
4.675000
  0
SEQEND
  8
0
  0
POLYLINE
  8
FOREGROUND
  6
CONTINUOUS
 66
     1
 40
0.000000
 41
0.000000
  0
VERTEX
  8
FOREGROUND
  6
CONTINUOUS
 10
0.000000
 20
4.675000
  0
VERTEX
  8
FOREGROUND
  6
CONTINUOUS
 10
8.499920
 20
4.675000
  0
VERTEX
  8
FOREGROUND
  6
CONTINUOUS
 10
8.499920
 20
-6.325000
  0
VERTEX
  8
FOREGROUND
  6
CONTINUOUS
 10
0.000000
 20
-6.325000
  0
VERTEX
  8
FOREGROUND
  6
CONTINUOUS
 10
0.000000
 20
4.675000
  0
SEQEND
  8
0
  0
POLYLINE
  8
0
  6
CONTINUOUS
 66
     1
 40
0.013200
 41
0.013200
  0
VERTEX
  8
0
  6
CONTINUOUS
 10
7.090600
 20
3.015320
  0
VERTEX
  8
0
  6
CONTINUOUS
 10
7.136038
 20
3.019060
  0
VERTEX
  8
0
  6
CONTINUOUS
 10
7.179283
 20
3.029872
  0
VERTEX
  8
0
  6
CONTINUOUS
 10
7.219724
 20
3.047147
  0
VERTEX
  8
0
  6
CONTINUOUS
 10
7.256751
 20
3.070274
  0
VERTEX
  8
0
  6
CONTINUOUS
 10
7.289755
 20
3.098645
  0
VERTEX
  8
0
  6
CONTINUOUS
 10
7.318126
 20
3.131649
  0
VERTEX
  8
0
  6
CONTINUOUS
 10
7.341253
 20
3.168676
  0
VERTEX
  8
0
  6
CONTINUOUS
 10
7.358528
 20
3.209117
  0
VERTEX
  8
0
  6
CONTINUOUS
 10
7.369340
 20
3.252362
  0
VERTEX
  8
0
  6
CONTINUOUS
 10
7.373080
 20
3.297800
  0
SEQEND
  8
0
  0
POLYLINE
  8
0
  6
CONTINUOUS
 66
     1
 40
0.013200
 41
0.013200
  0
VERTEX
  8
0
  6
CONTINUOUS
 10
7.373080
 20
3.297800
  0
VERTEX
  8
0
  6
CONTINUOUS
 10
7.369340
 20
3.343345
  0
VERTEX
  8
0
  6
CONTINUOUS
 10
7.358528
 20
3.386652
  0
VERTEX
  8
0
  6
CONTINUOUS
 10
7.341253
 20
3.427118
  0
VERTEX
  8
0
  6
CONTINUOUS
 10
7.318126
 20
3.464141
  0
VERTEX
  8
0
  6
CONTINUOUS
 10
7.289755
 20
3.497120
  0
VERTEX
  8
0
  6
CONTINUOUS
 10
7.256751
 20
3.525452
  0
VERTEX
  8
0
  6
CONTINUOUS
 10
7.219724
 20
3.548537
  0
VERTEX
  8
0
  6
CONTINUOUS
 10
7.179283
 20
3.565771
  0
VERTEX
  8
0
  6
CONTINUOUS
 10
7.136038
 20
3.576552
  0
VERTEX
  8
0
  6
CONTINUOUS
 10
7.090600
 20
3.580280
  0
SEQEND
  8
0
  0
POLYLINE
  8
0
  6
CONTINUOUS
 66
     1
 40
0.013200
 41
0.013200
  0
VERTEX
  8
0
  6
CONTINUOUS
 10
7.090600
 20
3.580280
  0
VERTEX
  8
0
  6
CONTINUOUS
 10
7.045055
 20
3.576552
  0
VERTEX
  8
0
  6
CONTINUOUS
 10
7.001748
 20
3.565771
  0
VERTEX
  8
0
  6
CONTINUOUS
 10
6.961282
 20
3.548537
  0
VERTEX
  8
0
  6
CONTINUOUS
 10
6.924259
 20
3.525452
  0
VERTEX
  8
0
  6
CONTINUOUS
 10
6.891280
 20
3.497120
  0
VERTEX
  8
0
  6
CONTINUOUS
 10
6.862948
 20
3.464141
  0
VERTEX
  8
0
  6
CONTINUOUS
 10
6.839863
 20
3.427118
  0
VERTEX
  8
0
  6
CONTINUOUS
 10
6.822629
 20
3.386652
  0
VERTEX
  8
0
  6
CONTINUOUS
 10
6.811848
 20
3.343345
  0
VERTEX
  8
0
  6
CONTINUOUS
 10
6.808120
 20
3.297800
  0
SEQEND
  8
0
  0
POLYLINE
  8
0
  6
CONTINUOUS
 66
     1
 40
0.013200
 41
0.013200
  0
VERTEX
  8
0
  6
CONTINUOUS
 10
6.808120
 20
3.297800
  0
VERTEX
  8
0
  6
CONTINUOUS
 10
6.807729
 20
3.293596
  0
VERTEX
  8
0
  6
CONTINUOUS
 10
6.807338
 20
3.290564
  0
VERTEX
  8
0
  6
CONTINUOUS
 10
6.808120
 20
3.287240
  0
SEQEND
  8
0
  0
POLYLINE
  8
0
  6
CONTINUOUS
 66
     1
 40
0.013200
 41
0.013200
  0
VERTEX
  8
0
  6
CONTINUOUS
 10
6.807680
 20
3.289880
  0
VERTEX
  8
0
  6
CONTINUOUS
 10
6.807680
 20
3.281960
  0
SEQEND
  8
0
  0
POLYLINE
  8
0
  6
CONTINUOUS
 66
     1
 40
0.013200
 41
0.013200
  0
VERTEX
  8
0
  6
CONTINUOUS
 10
6.807680
 20
3.281960
  0
VERTEX
  8
0
  6
CONTINUOUS
 10
6.714400
 20
3.281960
  0
SEQEND
  8
0
  0
POLYLINE
  8
0
  6
CONTINUOUS
 66
     1
 40
0.013200
 41
0.013200
  0
VERTEX
  8
0
  6
CONTINUOUS
 10
6.714400
 20
3.281960
  0
VERTEX
  8
0
  6
CONTINUOUS
 10
6.714400
 20
3.578960
  0
SEQEND
  8
0
  0
POLYLINE
  8
0
  6
CONTINUOUS
 66
     1
 40
0.013200
 41
0.013200
  0
VERTEX
  8
0
  6
CONTINUOUS
 10
6.714400
 20
3.578960
  0
VERTEX
  8
0
  6
CONTINUOUS
 10
6.200040
 20
3.578960
  0
SEQEND
  8
0
  0
POLYLINE
  8
0
  6
CONTINUOUS
 66
     1
 40
0.013200
 41
0.013200
  0
VERTEX
  8
0
  6
CONTINUOUS
 10
6.200040
 20
3.580280
  0
VERTEX
  8
0
  6
CONTINUOUS
 10
6.174520
 20
4.071320
  0
SEQEND
  8
0
  0
POLYLINE
  8
0
  6
CONTINUOUS
 66
     1
 40
0.013200
 41
0.013200
  0
VERTEX
  8
0
  6
CONTINUOUS
 10
6.174520
 20
4.071320
  0
VERTEX
  8
0
  6
CONTINUOUS
 10
5.305080
 20
4.071320
  0
SEQEND
  8
0
  0
POLYLINE
  8
0
  6
CONTINUOUS
 66
     1
 40
0.013200
 41
0.013200
  0
VERTEX
  8
0
  6
CONTINUOUS
 10
5.303760
 20
4.071320
  0
VERTEX
  8
0
  6
CONTINUOUS
 10
5.293200
 20
4.071320
  0
SEQEND
  8
0
  0
POLYLINE
  8
0
  6
CONTINUOUS
 66
     1
 40
0.013200
 41
0.013200
  0
VERTEX
  8
0
  6
CONTINUOUS
 10
5.293200
 20
4.071320
  0
VERTEX
  8
0
  6
CONTINUOUS
 10
5.293187
 20
4.033997
  0
VERTEX
  8
0
  6
CONTINUOUS
 10
5.290855
 20
3.996782
  0
VERTEX
  8
0
  6
CONTINUOUS
 10
5.286236
 20
3.959766
  0
VERTEX
  8
0
  6
CONTINUOUS
 10
5.279356
 20
3.923044
  0
VERTEX
  8
0
  6
CONTINUOUS
 10
5.270246
 20
3.886708
  0
VERTEX
  8
0
  6
CONTINUOUS
 10
5.258935
 20
3.850852
  0
VERTEX
  8
0
  6
CONTINUOUS
 10
5.245451
 20
3.815569
  0
VERTEX
  8
0
  6
CONTINUOUS
 10
5.229824
 20
3.780953
  0
VERTEX
  8
0
  6
CONTINUOUS
 10
5.212082
 20
3.747095
  0
VERTEX
  8
0
  6
CONTINUOUS
 10
5.192255
 20
3.714090
  0
VERTEX
  8
0
  6
CONTINUOUS
 10
5.170371
 20
3.682031
  0
VERTEX
  8
0
  6
CONTINUOUS
 10
5.146460
 20
3.651010
  0
VERTEX
  8
0
  6
CONTINUOUS
 10
5.120551
 20
3.621122
  0
VERTEX
  8
0
  6
CONTINUOUS
 10
5.092672
 20
3.592458
  0
VERTEX
  8
0
  6
CONTINUOUS
 10
5.062853
 20
3.565114
  0
VERTEX
  8
0
  6
CONTINUOUS
 10
5.031123
 20
3.539181
  0
VERTEX
  8
0
  6
CONTINUOUS
 10
4.997511
 20
3.514753
  0
VERTEX
  8
0
  6
CONTINUOUS
 10
4.962045
 20
3.491922
  0
VERTEX
  8
0
  6
CONTINUOUS
 10
4.924755
 20
3.470784
  0
VERTEX
  8
0
  6
CONTINUOUS
 10
4.885670
 20
3.451429
  0
VERTEX
  8
0
  6
CONTINUOUS
 10
4.844819
 20
3.433952
  0
VERTEX
  8
0
  6
CONTINUOUS
 10
4.802231
 20
3.418447
  0
VERTEX
  8
0
  6
CONTINUOUS
 10
4.757935
 20
3.405005
  0
VERTEX
  8
0
  6
CONTINUOUS
 10
4.711960
 20
3.393720
  0
SEQEND
  8
0
  0
POLYLINE
  8
0
  6
CONTINUOUS
 66
     1
 40
0.013200
 41
0.013200
  0
VERTEX
  8
0
  6
CONTINUOUS
 10
4.711960
 20
3.393720
  0
VERTEX
  8
0
  6
CONTINUOUS
 10
4.656080
 20
3.560480
  0
SEQEND
  8
0
  0
POLYLINE
  8
0
  6
CONTINUOUS
 66
     1
 40
0.013200
 41
0.013200
  0
VERTEX
  8
0
  6
CONTINUOUS
 10
4.654760
 20
3.560480
  0
VERTEX
  8
0
  6
CONTINUOUS
 10
4.646400
 20
3.560480
  0
SEQEND
  8
0
  0
POLYLINE
  8
0
  6
CONTINUOUS
 66
     1
 40
0.013200
 41
0.013200
  0
VERTEX
  8
0
  6
CONTINUOUS
 10
4.650360
 20
3.560480
  0
VERTEX
  8
0
  6
CONTINUOUS
 10
2.346520
 20
3.560480
  0
SEQEND
  8
0
  0
POLYLINE
  8
0
  6
CONTINUOUS
 66
     1
 40
0.013200
 41
0.013200
  0
VERTEX
  8
0
  6
CONTINUOUS
 10
2.345200
 20
3.560480
  0
VERTEX
  8
0
  6
CONTINUOUS
 10
2.291960
 20
3.368640
  0
SEQEND
  8
0
  0
POLYLINE
  8
0
  6
CONTINUOUS
 66
     1
 40
0.013200
 41
0.013200
  0
VERTEX
  8
0
  6
CONTINUOUS
 10
2.289320
 20
3.368640
  0
VERTEX
  8
0
  6
CONTINUOUS
 10
2.253727
 20
3.378905
  0
VERTEX
  8
0
  6
CONTINUOUS
 10
2.217990
 20
3.391304
  0
VERTEX
  8
0
  6
CONTINUOUS
 10
2.182269
 20
3.405788
  0
VERTEX
  8
0
  6
CONTINUOUS
 10
2.146726
 20
3.422311
  0
VERTEX
  8
0
  6
CONTINUOUS
 10
2.111521
 20
3.440824
  0
VERTEX
  8
0
  6
CONTINUOUS
 10
2.076814
 20
3.461281
  0
VERTEX
  8
0
  6
CONTINUOUS
 10
2.042766
 20
3.483633
  0
VERTEX
  8
0
  6
CONTINUOUS
 10
2.009537
 20
3.507834
  0
VERTEX
  8
0
  6
CONTINUOUS
 10
1.977289
 20
3.533835
  0
VERTEX
  8
0
  6
CONTINUOUS
 10
1.946181
 20
3.561590
  0
VERTEX
  8
0
  6
CONTINUOUS
 10
1.916375
 20
3.591050
  0
VERTEX
  8
0
  6
CONTINUOUS
 10
1.888030
 20
3.622169
  0
VERTEX
  8
0
  6
CONTINUOUS
 10
1.861308
 20
3.654898
  0
VERTEX
  8
0
  6
CONTINUOUS
 10
1.836369
 20
3.689190
  0
VERTEX
  8
0
  6
CONTINUOUS
 10
1.813373
 20
3.724998
  0
VERTEX
  8
0
  6
CONTINUOUS
 10
1.792481
 20
3.762274
  0
VERTEX
  8
0
  6
CONTINUOUS
 10
1.773854
 20
3.800970
  0
VERTEX
  8
0
  6
CONTINUOUS
 10
1.757652
 20
3.841040
  0
VERTEX
  8
0
  6
CONTINUOUS
 10
1.744036
 20
3.882435
  0
VERTEX
  8
0
  6
CONTINUOUS
 10
1.733166
 20
3.925108
  0
VERTEX
  8
0
  6
CONTINUOUS
 10
1.725203
 20
3.969011
  0
VERTEX
  8
0
  6
CONTINUOUS
 10
1.720308
 20
4.014098
  0
VERTEX
  8
0
  6
CONTINUOUS
 10
1.718640
 20
4.060320
  0
SEQEND
  8
0
  0
POLYLINE
  8
0
  6
CONTINUOUS
 66
     1
 40
0.013200
 41
0.013200
  0
VERTEX
  8
0
  6
CONTINUOUS
 10
1.718640
 20
4.060320
  0
VERTEX
  8
0
  6
CONTINUOUS
 10
0.779680
 20
4.060320
  0
SEQEND
  8
0
  0
POLYLINE
  8
0
  6
CONTINUOUS
 66
     1
 40
0.013200
 41
0.013200
  0
VERTEX
  8
0
  6
CONTINUOUS
 10
0.779680
 20
4.057680
  0
VERTEX
  8
0
  6
CONTINUOUS
 10
0.779680
 20
3.015320
  0
SEQEND
  8
0
  0
POLYLINE
  8
0
  6
CONTINUOUS
 66
     1
 40
0.013200
 41
0.013200
  0
VERTEX
  8
0
  6
CONTINUOUS
 10
0.780120
 20
3.014000
  0
VERTEX
  8
0
  6
CONTINUOUS
 10
7.085320
 20
3.014000
  0
SEQEND
  8
0
  0
POLYLINE
  8
0
  6
CONTINUOUS
 66
     1
 40
0.013200
 41
0.013200
  0
VERTEX
  8
0
  6
CONTINUOUS
 10
4.830760
 20
3.428480
  0
VERTEX
  8
0
  6
CONTINUOUS
 10
4.828014
 20
3.479469
  0
VERTEX
  8
0
  6
CONTINUOUS
 10
4.822613
 20
3.524814
  0
VERTEX
  8
0
  6
CONTINUOUS
 10
4.814285
 20
3.565165
  0
VERTEX
  8
0
  6
CONTINUOUS
 10
4.802759
 20
3.601168
  0
VERTEX
  8
0
  6
CONTINUOUS
 10
4.787764
 20
3.633470
  0
VERTEX
  8
0
  6
CONTINUOUS
 10
4.769028
 20
3.662720
  0
VERTEX
  8
0
  6
CONTINUOUS
 10
4.746280
 20
3.689565
  0
VERTEX
  8
0
  6
CONTINUOUS
 10
4.719249
 20
3.714652
  0
VERTEX
  8
0
  6
CONTINUOUS
 10
4.687663
 20
3.738629
  0
VERTEX
  8
0
  6
CONTINUOUS
 10
4.651252
 20
3.762142
  0
VERTEX
  8
0
  6
CONTINUOUS
 10
4.609743
 20
3.785841
  0
VERTEX
  8
0
  6
CONTINUOUS
 10
4.562865
 20
3.810372
  0
VERTEX
  8
0
  6
CONTINUOUS
 10
4.510348
 20
3.836382
  0
VERTEX
  8
0
  6
CONTINUOUS
 10
4.451920
 20
3.864520
  0
SEQEND
  8
0
  0
POLYLINE
  8
0
  6
CONTINUOUS
 66
     1
 40
0.013200
 41
0.013200
  0
VERTEX
  8
0
  6
CONTINUOUS
 10
4.451920
 20
3.864520
  0
VERTEX
  8
0
  6
CONTINUOUS
 10
4.426704
 20
3.876017
  0
VERTEX
  8
0
  6
CONTINUOUS
 10
4.400227
 20
3.887203
  0
VERTEX
  8
0
  6
CONTINUOUS
 10
4.372531
 20
3.898066
  0
VERTEX
  8
0
  6
CONTINUOUS
 10
4.343657
 20
3.908592
  0
VERTEX
  8
0
  6
CONTINUOUS
 10
4.313650
 20
3.918768
  0
VERTEX
  8
0
  6
CONTINUOUS
 10
4.282550
 20
3.928583
  0
VERTEX
  8
0
  6
CONTINUOUS
 10
4.250401
 20
3.938023
  0
VERTEX
  8
0
  6
CONTINUOUS
 10
4.217244
 20
3.947075
  0
VERTEX
  8
0
  6
CONTINUOUS
 10
4.183123
 20
3.955726
  0
VERTEX
  8
0
  6
CONTINUOUS
 10
4.148080
 20
3.963965
  0
VERTEX
  8
0
  6
CONTINUOUS
 10
4.112157
 20
3.971778
  0
VERTEX
  8
0
  6
CONTINUOUS
 10
4.075397
 20
3.979151
  0
VERTEX
  8
0
  6
CONTINUOUS
 10
4.037842
 20
3.986074
  0
VERTEX
  8
0
  6
CONTINUOUS
 10
3.999534
 20
3.992532
  0
VERTEX
  8
0
  6
CONTINUOUS
 10
3.960516
 20
3.998513
  0
VERTEX
  8
0
  6
CONTINUOUS
 10
3.920831
 20
4.004004
  0
VERTEX
  8
0
  6
CONTINUOUS
 10
3.880521
 20
4.008993
  0
VERTEX
  8
0
  6
CONTINUOUS
 10
3.839627
 20
4.013467
  0
VERTEX
  8
0
  6
CONTINUOUS
 10
3.798194
 20
4.017412
  0
VERTEX
  8
0
  6
CONTINUOUS
 10
3.756263
 20
4.020816
  0
VERTEX
  8
0
  6
CONTINUOUS
 10
3.713876
 20
4.023667
  0
VERTEX
  8
0
  6
CONTINUOUS
 10
3.671077
 20
4.025951
  0
VERTEX
  8
0
  6
CONTINUOUS
 10
3.627907
 20
4.027656
  0
VERTEX
  8
0
  6
CONTINUOUS
 10
3.584409
 20
4.028769
  0
VERTEX
  8
0
  6
CONTINUOUS
 10
3.540625
 20
4.029278
  0
VERTEX
  8
0
  6
CONTINUOUS
 10
3.496598
 20
4.029169
  0
VERTEX
  8
0
  6
CONTINUOUS
 10
3.452370
 20
4.028429
  0
VERTEX
  8
0
  6
CONTINUOUS
 10
3.407984
 20
4.027046
  0
VERTEX
  8
0
  6
CONTINUOUS
 10
3.363482
 20
4.025008
  0
VERTEX
  8
0
  6
CONTINUOUS
 10
3.318907
 20
4.022301
  0
VERTEX
  8
0
  6
CONTINUOUS
 10
3.274300
 20
4.018913
  0
VERTEX
  8
0
  6
CONTINUOUS
 10
3.229706
 20
4.014830
  0
VERTEX
  8
0
  6
CONTINUOUS
 10
3.185164
 20
4.010040
  0
VERTEX
  8
0
  6
CONTINUOUS
 10
3.140720
 20
4.004531
  0
VERTEX
  8
0
  6
CONTINUOUS
 10
3.096414
 20
3.998289
  0
VERTEX
  8
0
  6
CONTINUOUS
 10
3.052289
 20
3.991302
  0
VERTEX
  8
0
  6
CONTINUOUS
 10
3.008388
 20
3.983557
  0
VERTEX
  8
0
  6
CONTINUOUS
 10
2.964753
 20
3.975041
  0
VERTEX
  8
0
  6
CONTINUOUS
 10
2.921426
 20
3.965742
  0
VERTEX
  8
0
  6
CONTINUOUS
 10
2.878450
 20
3.955646
  0
VERTEX
  8
0
  6
CONTINUOUS
 10
2.835868
 20
3.944741
  0
VERTEX
  8
0
  6
CONTINUOUS
 10
2.793721
 20
3.933015
  0
VERTEX
  8
0
  6
CONTINUOUS
 10
2.752053
 20
3.920453
  0
VERTEX
  8
0
  6
CONTINUOUS
 10
2.710906
 20
3.907044
  0
VERTEX
  8
0
  6
CONTINUOUS
 10
2.670321
 20
3.892775
  0
VERTEX
  8
0
  6
CONTINUOUS
 10
2.630342
 20
3.877633
  0
VERTEX
  8
0
  6
CONTINUOUS
 10
2.591012
 20
3.861605
  0
VERTEX
  8
0
  6
CONTINUOUS
 10
2.552371
 20
3.844679
  0
VERTEX
  8
0
  6
CONTINUOUS
 10
2.514464
 20
3.826841
  0
VERTEX
  8
0
  6
CONTINUOUS
 10
2.477331
 20
3.808079
  0
VERTEX
  8
0
  6
CONTINUOUS
 10
2.441017
 20
3.788381
  0
VERTEX
  8
0
  6
CONTINUOUS
 10
2.405563
 20
3.767733
  0
VERTEX
  8
0
  6
CONTINUOUS
 10
2.371011
 20
3.746122
  0
VERTEX
  8
0
  6
CONTINUOUS
 10
2.337405
 20
3.723536
  0
VERTEX
  8
0
  6
CONTINUOUS
 10
2.304786
 20
3.699962
  0
VERTEX
  8
0
  6
CONTINUOUS
 10
2.273197
 20
3.675388
  0
VERTEX
  8
0
  6
CONTINUOUS
 10
2.242680
 20
3.649800
  0
SEQEND
  8
0
  0
POLYLINE
  8
0
  6
CONTINUOUS
 66
     1
 40
0.013200
 41
0.013200
  0
VERTEX
  8
0
  6
CONTINUOUS
 10
2.242680
 20
3.649800
  0
VERTEX
  8
0
  6
CONTINUOUS
 10
2.210180
 20
3.612558
  0
VERTEX
  8
0
  6
CONTINUOUS
 10
2.190711
 20
3.562962
  0
VERTEX
  8
0
  6
CONTINUOUS
 10
2.180936
 20
3.507874
  0
VERTEX
  8
0
  6
CONTINUOUS
 10
2.177518
 20
3.454158
  0
VERTEX
  8
0
  6
CONTINUOUS
 10
2.177120
 20
3.408680
  0
SEQEND
  8
0
  0
TEXT
  8
0
 10
7.747520
 20
4.202880
 40
0.138000
  1
case
 41
1.000000
  7
SN0
 71
     0
 72
     5
 11
8.097315
 21
4.202880
  0
TEXT
  8
0
 10
7.830240
 20
4.011040
 40
0.138000
  1
25
 41
1.000000
  7
SN0
 71
     0
 72
     5
 11
8.014478
 21
4.011040
  0
TEXT
  8
0
 10
3.859240
 20
0.556160
 40
0.138000
  1
BA  25
 41
1.000000
  7
SN0
 71
     0
 72
     5
 11
4.356279
 21
0.556160
  0
TEXT
  8
0
 10
3.537600
 20
0.364320
 40
0.138000
  1
1-1/16" x 6-5/8"
 41
1.000000
  7
SN0
 71
     0
 72
     5
 11
4.674527
 21
0.364320
  0
SOLID
  8
0
 62
    15
 10
2.249280
 20
1.442320
 11
2.255440
 21
2.175360
 12
2.271280
 22
1.463440
 13
2.277440
 23
2.196920
  0
POLYLINE
  8
0
  6
CONTINUOUS
 66
     1
 40
0.000000
 41
0.000000
  0
VERTEX
  8
0
  6
CONTINUOUS
 10
2.249280
 20
1.442320
  0
VERTEX
  8
0
  6
CONTINUOUS
 10
2.255440
 20
2.175360
  0
VERTEX
  8
0
  6
CONTINUOUS
 10
2.277440
 20
2.196920
  0
VERTEX
  8
0
  6
CONTINUOUS
 10
2.271280
 20
1.463440
  0
VERTEX
  8
0
  6
CONTINUOUS
 10
2.249280
 20
1.442320
  0
SEQEND
  8
0
  0
SOLID
  8
0
 62
    15
 10
6.203560
 20
1.884960
 11
6.209720
 21
2.618000
 12
6.228640
 22
1.394360
 13
6.234800
 23
2.127400
  0
POLYLINE
  8
0
  6
CONTINUOUS
 66
     1
 40
0.000000
 41
0.000000
  0
VERTEX
  8
0
  6
CONTINUOUS
 10
6.203560
 20
1.884960
  0
VERTEX
  8
0
  6
CONTINUOUS
 10
6.209720
 20
2.618000
  0
VERTEX
  8
0
  6
CONTINUOUS
 10
6.234800
 20
2.127400
  0
VERTEX
  8
0
  6
CONTINUOUS
 10
6.228640
 20
1.394360
  0
VERTEX
  8
0
  6
CONTINUOUS
 10
6.203560
 20
1.884960
  0
SEQEND
  8
0
  0
SOLID
  8
0
 62
    15
 10
6.743440
 20
1.095600
 11
6.749600
 21
1.828640
 12
6.836720
 22
1.095600
 13
6.842880
 23
1.828640
  0
POLYLINE
  8
0
  6
CONTINUOUS
 66
     1
 40
0.000000
 41
0.000000
  0
VERTEX
  8
0
  6
CONTINUOUS
 10
6.743440
 20
1.095600
  0
VERTEX
  8
0
  6
CONTINUOUS
 10
6.749600
 20
1.828640
  0
VERTEX
  8
0
  6
CONTINUOUS
 10
6.842880
 20
1.828640
  0
VERTEX
  8
0
  6
CONTINUOUS
 10
6.836720
 20
1.095600
  0
VERTEX
  8
0
  6
CONTINUOUS
 10
6.743440
 20
1.095600
  0
SEQEND
  8
0
  0
SOLID
  8
0
 62
    15
 10
6.743440
 20
1.393040
 11
6.749600
 21
2.126080
 12
6.743440
 22
1.095600
 13
6.749600
 23
1.828640
  0
POLYLINE
  8
0
  6
CONTINUOUS
 66
     1
 40
0.000000
 41
0.000000
  0
VERTEX
  8
0
  6
CONTINUOUS
 10
6.743440
 20
1.393040
  0
VERTEX
  8
0
  6
CONTINUOUS
 10
6.749600
 20
2.126080
  0
VERTEX
  8
0
  6
CONTINUOUS
 10
6.749600
 20
1.828640
  0
VERTEX
  8
0
  6
CONTINUOUS
 10
6.743440
 20
1.095600
  0
VERTEX
  8
0
  6
CONTINUOUS
 10
6.743440
 20
1.393040
  0
SEQEND
  8
0
  0
SOLID
  8
0
 62
    15
 10
6.228640
 20
1.393040
 11
6.234800
 21
2.126080
 12
6.743440
 22
1.393040
 13
6.749600
 23
2.126080
  0
POLYLINE
  8
0
  6
CONTINUOUS
 66
     1
 40
0.000000
 41
0.000000
  0
VERTEX
  8
0
  6
CONTINUOUS
 10
6.228640
 20
1.393040
  0
VERTEX
  8
0
  6
CONTINUOUS
 10
6.234800
 20
2.126080
  0
VERTEX
  8
0
  6
CONTINUOUS
 10
6.749600
 20
2.126080
  0
VERTEX
  8
0
  6
CONTINUOUS
 10
6.743440
 20
1.393040
  0
VERTEX
  8
0
  6
CONTINUOUS
 10
6.228640
 20
1.393040
  0
SEQEND
  8
0
  0
SOLID
  8
0
 62
    15
 10
6.228640
 20
1.394360
 11
6.234800
 21
2.127400
 12
6.228640
 22
1.393040
 13
6.234800
 23
2.126080
  0
POLYLINE
  8
0
  6
CONTINUOUS
 66
     1
 40
0.000000
 41
0.000000
  0
VERTEX
  8
0
  6
CONTINUOUS
 10
6.228640
 20
1.394360
  0
VERTEX
  8
0
  6
CONTINUOUS
 10
6.234800
 20
2.127400
  0
VERTEX
  8
0
  6
CONTINUOUS
 10
6.234800
 20
2.126080
  0
VERTEX
  8
0
  6
CONTINUOUS
 10
6.228640
 20
1.393040
  0
VERTEX
  8
0
  6
CONTINUOUS
 10
6.228640
 20
1.394360
  0
SEQEND
  8
0
  0
SOLID
  8
0
 62
    15
 10
6.836720
 20
1.103520
 11
6.842880
 21
1.836560
 12
6.836720
 22
1.100880
 13
6.842880
 23
1.833920
  0
POLYLINE
  8
0
  6
CONTINUOUS
 66
     1
 40
0.000000
 41
0.000000
  0
VERTEX
  8
0
  6
CONTINUOUS
 10
6.836720
 20
1.103520
  0
VERTEX
  8
0
  6
CONTINUOUS
 10
6.842880
 20
1.836560
  0
VERTEX
  8
0
  6
CONTINUOUS
 10
6.842880
 20
1.833920
  0
VERTEX
  8
0
  6
CONTINUOUS
 10
6.836720
 20
1.100880
  0
VERTEX
  8
0
  6
CONTINUOUS
 10
6.836720
 20
1.103520
  0
SEQEND
  8
0
  0
SOLID
  8
0
 62
    15
 10
6.836720
 20
1.111440
 11
6.842880
 21
1.844920
 12
6.842440
 22
1.168200
 13
6.848600
 23
1.901240
  0
POLYLINE
  8
0
  6
CONTINUOUS
 66
     1
 40
0.000000
 41
0.000000
  0
VERTEX
  8
0
  6
CONTINUOUS
 10
6.836720
 20
1.111440
  0
VERTEX
  8
0
  6
CONTINUOUS
 10
6.842880
 20
1.844920
  0
VERTEX
  8
0
  6
CONTINUOUS
 10
6.848600
 20
1.901240
  0
VERTEX
  8
0
  6
CONTINUOUS
 10
6.842440
 20
1.168200
  0
VERTEX
  8
0
  6
CONTINUOUS
 10
6.836720
 20
1.111440
  0
SEQEND
  8
0
  0
SOLID
  8
0
 62
    15
 10
6.842440
 20
1.168200
 11
6.848600
 21
1.901240
 12
6.859160
 22
1.221000
 13
6.865320
 23
1.954040
  0
POLYLINE
  8
0
  6
CONTINUOUS
 66
     1
 40
0.000000
 41
0.000000
  0
VERTEX
  8
0
  6
CONTINUOUS
 10
6.842440
 20
1.168200
  0
VERTEX
  8
0
  6
CONTINUOUS
 10
6.848600
 20
1.901240
  0
VERTEX
  8
0
  6
CONTINUOUS
 10
6.865320
 20
1.954040
  0
VERTEX
  8
0
  6
CONTINUOUS
 10
6.859160
 20
1.221000
  0
VERTEX
  8
0
  6
CONTINUOUS
 10
6.842440
 20
1.168200
  0
SEQEND
  8
0
  0
SOLID
  8
0
 62
    15
 10
6.859160
 20
1.221000
 11
6.865320
 21
1.954040
 12
6.885560
 22
1.268960
 13
6.891720
 23
2.002440
  0
POLYLINE
  8
0
  6
CONTINUOUS
 66
     1
 40
0.000000
 41
0.000000
  0
VERTEX
  8
0
  6
CONTINUOUS
 10
6.859160
 20
1.221000
  0
VERTEX
  8
0
  6
CONTINUOUS
 10
6.865320
 20
1.954040
  0
VERTEX
  8
0
  6
CONTINUOUS
 10
6.891720
 20
2.002440
  0
VERTEX
  8
0
  6
CONTINUOUS
 10
6.885560
 20
1.268960
  0
VERTEX
  8
0
  6
CONTINUOUS
 10
6.859160
 20
1.221000
  0
SEQEND
  8
0
  0
SOLID
  8
0
 62
    15
 10
6.885560
 20
1.268960
 11
6.891720
 21
2.002440
 12
6.920320
 22
1.310760
 13
6.926040
 23
2.044240
  0
POLYLINE
  8
0
  6
CONTINUOUS
 66
     1
 40
0.000000
 41
0.000000
  0
VERTEX
  8
0
  6
CONTINUOUS
 10
6.885560
 20
1.268960
  0
VERTEX
  8
0
  6
CONTINUOUS
 10
6.891720
 20
2.002440
  0
VERTEX
  8
0
  6
CONTINUOUS
 10
6.926040
 20
2.044240
  0
VERTEX
  8
0
  6
CONTINUOUS
 10
6.920320
 20
1.310760
  0
VERTEX
  8
0
  6
CONTINUOUS
 10
6.885560
 20
1.268960
  0
SEQEND
  8
0
  0
SOLID
  8
0
 62
    15
 10
6.920320
 20
1.310760
 11
6.926040
 21
2.044240
 12
6.962120
 22
1.345520
 13
6.968280
 23
2.079000
  0
POLYLINE
  8
0
  6
CONTINUOUS
 66
     1
 40
0.000000
 41
0.000000
  0
VERTEX
  8
0
  6
CONTINUOUS
 10
6.920320
 20
1.310760
  0
VERTEX
  8
0
  6
CONTINUOUS
 10
6.926040
 20
2.044240
  0
VERTEX
  8
0
  6
CONTINUOUS
 10
6.968280
 20
2.079000
  0
VERTEX
  8
0
  6
CONTINUOUS
 10
6.962120
 20
1.345520
  0
VERTEX
  8
0
  6
CONTINUOUS
 10
6.920320
 20
1.310760
  0
SEQEND
  8
0
  0
SOLID
  8
0
 62
    15
 10
6.962120
 20
1.345520
 11
6.968280
 21
2.079000
 12
7.010080
 22
1.371920
 13
7.016240
 23
2.104960
  0
POLYLINE
  8
0
  6
CONTINUOUS
 66
     1
 40
0.000000
 41
0.000000
  0
VERTEX
  8
0
  6
CONTINUOUS
 10
6.962120
 20
1.345520
  0
VERTEX
  8
0
  6
CONTINUOUS
 10
6.968280
 20
2.079000
  0
VERTEX
  8
0
  6
CONTINUOUS
 10
7.016240
 20
2.104960
  0
VERTEX
  8
0
  6
CONTINUOUS
 10
7.010080
 20
1.371920
  0
VERTEX
  8
0
  6
CONTINUOUS
 10
6.962120
 20
1.345520
  0
SEQEND
  8
0
  0
SOLID
  8
0
 62
    15
 10
7.010080
 20
1.371920
 11
7.016240
 21
2.104960
 12
7.062880
 22
1.388640
 13
7.069040
 23
2.121680
  0
POLYLINE
  8
0
  6
CONTINUOUS
 66
     1
 40
0.000000
 41
0.000000
  0
VERTEX
  8
0
  6
CONTINUOUS
 10
7.010080
 20
1.371920
  0
VERTEX
  8
0
  6
CONTINUOUS
 10
7.016240
 20
2.104960
  0
VERTEX
  8
0
  6
CONTINUOUS
 10
7.069040
 20
2.121680
  0
VERTEX
  8
0
  6
CONTINUOUS
 10
7.062880
 20
1.388640
  0
VERTEX
  8
0
  6
CONTINUOUS
 10
7.010080
 20
1.371920
  0
SEQEND
  8
0
  0
SOLID
  8
0
 62
    15
 10
7.062880
 20
1.388640
 11
7.069040
 21
2.121680
 12
7.119640
 22
1.394360
 13
7.125800
 23
2.127400
  0
POLYLINE
  8
0
  6
CONTINUOUS
 66
     1
 40
0.000000
 41
0.000000
  0
VERTEX
  8
0
  6
CONTINUOUS
 10
7.062880
 20
1.388640
  0
VERTEX
  8
0
  6
CONTINUOUS
 10
7.069040
 20
2.121680
  0
VERTEX
  8
0
  6
CONTINUOUS
 10
7.125800
 20
2.127400
  0
VERTEX
  8
0
  6
CONTINUOUS
 10
7.119640
 20
1.394360
  0
VERTEX
  8
0
  6
CONTINUOUS
 10
7.062880
 20
1.388640
  0
SEQEND
  8
0
  0
SOLID
  8
0
 62
    15
 10
7.119640
 20
1.394360
 11
7.125800
 21
2.127400
 12
7.175960
 22
1.388640
 13
7.182120
 23
2.121680
  0
POLYLINE
  8
0
  6
CONTINUOUS
 66
     1
 40
0.000000
 41
0.000000
  0
VERTEX
  8
0
  6
CONTINUOUS
 10
7.119640
 20
1.394360
  0
VERTEX
  8
0
  6
CONTINUOUS
 10
7.125800
 20
2.127400
  0
VERTEX
  8
0
  6
CONTINUOUS
 10
7.182120
 20
2.121680
  0
VERTEX
  8
0
  6
CONTINUOUS
 10
7.175960
 20
1.388640
  0
VERTEX
  8
0
  6
CONTINUOUS
 10
7.119640
 20
1.394360
  0
SEQEND
  8
0
  0
SOLID
  8
0
 62
    15
 10
7.175960
 20
1.388640
 11
7.182120
 21
2.121680
 12
7.228760
 22
1.371920
 13
7.234920
 23
2.104960
  0
POLYLINE
  8
0
  6
CONTINUOUS
 66
     1
 40
0.000000
 41
0.000000
  0
VERTEX
  8
0
  6
CONTINUOUS
 10
7.175960
 20
1.388640
  0
VERTEX
  8
0
  6
CONTINUOUS
 10
7.182120
 20
2.121680
  0
VERTEX
  8
0
  6
CONTINUOUS
 10
7.234920
 20
2.104960
  0
VERTEX
  8
0
  6
CONTINUOUS
 10
7.228760
 20
1.371920
  0
VERTEX
  8
0
  6
CONTINUOUS
 10
7.175960
 20
1.388640
  0
SEQEND
  8
0
  0
SOLID
  8
0
 62
    15
 10
7.228760
 20
1.371920
 11
7.234920
 21
2.104960
 12
7.276720
 22
1.345520
 13
7.282880
 23
2.079000
  0
POLYLINE
  8
0
  6
CONTINUOUS
 66
     1
 40
0.000000
 41
0.000000
  0
VERTEX
  8
0
  6
CONTINUOUS
 10
7.228760
 20
1.371920
  0
VERTEX
  8
0
  6
CONTINUOUS
 10
7.234920
 20
2.104960
  0
VERTEX
  8
0
  6
CONTINUOUS
 10
7.282880
 20
2.079000
  0
VERTEX
  8
0
  6
CONTINUOUS
 10
7.276720
 20
1.345520
  0
VERTEX
  8
0
  6
CONTINUOUS
 10
7.228760
 20
1.371920
  0
SEQEND
  8
0
  0
SOLID
  8
0
 62
    15
 10
7.318960
 20
1.310760
 11
7.325120
 21
2.044240
 12
7.353280
 22
1.268960
 13
7.359440
 23
2.002440
  0
POLYLINE
  8
0
  6
CONTINUOUS
 66
     1
 40
0.000000
 41
0.000000
  0
VERTEX
  8
0
  6
CONTINUOUS
 10
7.318960
 20
1.310760
  0
VERTEX
  8
0
  6
CONTINUOUS
 10
7.325120
 20
2.044240
  0
VERTEX
  8
0
  6
CONTINUOUS
 10
7.359440
 20
2.002440
  0
VERTEX
  8
0
  6
CONTINUOUS
 10
7.353280
 20
1.268960
  0
VERTEX
  8
0
  6
CONTINUOUS
 10
7.318960
 20
1.310760
  0
SEQEND
  8
0
  0
SOLID
  8
0
 62
    15
 10
7.276720
 20
1.345520
 11
7.282880
 21
2.079000
 12
7.318960
 22
1.310760
 13
7.325120
 23
2.044240
  0
POLYLINE
  8
0
  6
CONTINUOUS
 66
     1
 40
0.000000
 41
0.000000
  0
VERTEX
  8
0
  6
CONTINUOUS
 10
7.276720
 20
1.345520
  0
VERTEX
  8
0
  6
CONTINUOUS
 10
7.282880
 20
2.079000
  0
VERTEX
  8
0
  6
CONTINUOUS
 10
7.325120
 20
2.044240
  0
VERTEX
  8
0
  6
CONTINUOUS
 10
7.318960
 20
1.310760
  0
VERTEX
  8
0
  6
CONTINUOUS
 10
7.276720
 20
1.345520
  0
SEQEND
  8
0
  0
SOLID
  8
0
 62
    15
 10
7.353280
 20
1.268960
 11
7.359440
 21
2.002440
 12
7.379680
 22
1.221000
 13
7.385840
 23
1.954040
  0
POLYLINE
  8
0
  6
CONTINUOUS
 66
     1
 40
0.000000
 41
0.000000
  0
VERTEX
  8
0
  6
CONTINUOUS
 10
7.353280
 20
1.268960
  0
VERTEX
  8
0
  6
CONTINUOUS
 10
7.359440
 20
2.002440
  0
VERTEX
  8
0
  6
CONTINUOUS
 10
7.385840
 20
1.954040
  0
VERTEX
  8
0
  6
CONTINUOUS
 10
7.379680
 20
1.221000
  0
VERTEX
  8
0
  6
CONTINUOUS
 10
7.353280
 20
1.268960
  0
SEQEND
  8
0
  0
SOLID
  8
0
 62
    15
 10
7.379680
 20
1.221000
 11
7.385840
 21
1.954040
 12
7.396400
 22
1.168200
 13
7.402560
 23
1.901240
  0
POLYLINE
  8
0
  6
CONTINUOUS
 66
     1
 40
0.000000
 41
0.000000
  0
VERTEX
  8
0
  6
CONTINUOUS
 10
7.379680
 20
1.221000
  0
VERTEX
  8
0
  6
CONTINUOUS
 10
7.385840
 20
1.954040
  0
VERTEX
  8
0
  6
CONTINUOUS
 10
7.402560
 20
1.901240
  0
VERTEX
  8
0
  6
CONTINUOUS
 10
7.396400
 20
1.168200
  0
VERTEX
  8
0
  6
CONTINUOUS
 10
7.379680
 20
1.221000
  0
SEQEND
  8
0
  0
SOLID
  8
0
 62
    15
 10
7.396400
 20
1.168200
 11
7.402560
 21
1.901240
 12
7.402120
 22
1.111440
 13
7.408280
 23
1.844920
  0
POLYLINE
  8
0
  6
CONTINUOUS
 66
     1
 40
0.000000
 41
0.000000
  0
VERTEX
  8
0
  6
CONTINUOUS
 10
7.396400
 20
1.168200
  0
VERTEX
  8
0
  6
CONTINUOUS
 10
7.402560
 20
1.901240
  0
VERTEX
  8
0
  6
CONTINUOUS
 10
7.408280
 20
1.844920
  0
VERTEX
  8
0
  6
CONTINUOUS
 10
7.402120
 20
1.111440
  0
VERTEX
  8
0
  6
CONTINUOUS
 10
7.396400
 20
1.168200
  0
SEQEND
  8
0
  0
SOLID
  8
0
 62
    15
 10
0.808720
 20
1.873960
 11
0.814880
 21
2.607440
 12
1.747680
 22
1.873960
 13
1.753840
 23
2.607440
  0
POLYLINE
  8
0
  6
CONTINUOUS
 66
     1
 40
0.000000
 41
0.000000
  0
VERTEX
  8
0
  6
CONTINUOUS
 10
0.808720
 20
1.873960
  0
VERTEX
  8
0
  6
CONTINUOUS
 10
0.814880
 20
2.607440
  0
VERTEX
  8
0
  6
CONTINUOUS
 10
1.753840
 20
2.607440
  0
VERTEX
  8
0
  6
CONTINUOUS
 10
1.747680
 20
1.873960
  0
VERTEX
  8
0
  6
CONTINUOUS
 10
0.808720
 20
1.873960
  0
SEQEND
  8
0
  0
SOLID
  8
0
 62
    15
 10
1.747680
 20
1.873960
 11
1.753840
 21
2.607440
 12
1.749880
 22
1.816320
 13
1.756040
 23
2.549800
  0
POLYLINE
  8
0
  6
CONTINUOUS
 66
     1
 40
0.000000
 41
0.000000
  0
VERTEX
  8
0
  6
CONTINUOUS
 10
1.747680
 20
1.873960
  0
VERTEX
  8
0
  6
CONTINUOUS
 10
1.753840
 20
2.607440
  0
VERTEX
  8
0
  6
CONTINUOUS
 10
1.756040
 20
2.549800
  0
VERTEX
  8
0
  6
CONTINUOUS
 10
1.749880
 20
1.816320
  0
VERTEX
  8
0
  6
CONTINUOUS
 10
1.747680
 20
1.873960
  0
SEQEND
  8
0
  0
SOLID
  8
0
 62
    15
 10
1.749880
 20
1.816320
 11
1.756040
 21
2.549800
 12
1.757360
 22
1.760440
 13
1.763520
 23
2.493920
  0
POLYLINE
  8
0
  6
CONTINUOUS
 66
     1
 40
0.000000
 41
0.000000
  0
VERTEX
  8
0
  6
CONTINUOUS
 10
1.749880
 20
1.816320
  0
VERTEX
  8
0
  6
CONTINUOUS
 10
1.756040
 20
2.549800
  0
VERTEX
  8
0
  6
CONTINUOUS
 10
1.763520
 20
2.493920
  0
VERTEX
  8
0
  6
CONTINUOUS
 10
1.757360
 20
1.760440
  0
VERTEX
  8
0
  6
CONTINUOUS
 10
1.749880
 20
1.816320
  0
SEQEND
  8
0
  0
SOLID
  8
0
 62
    15
 10
1.757360
 20
1.760440
 11
1.763520
 21
2.493920
 12
1.785520
 22
1.655280
 13
1.791680
 23
2.388320
  0
POLYLINE
  8
0
  6
CONTINUOUS
 66
     1
 40
0.000000
 41
0.000000
  0
VERTEX
  8
0
  6
CONTINUOUS
 10
1.757360
 20
1.760440
  0
VERTEX
  8
0
  6
CONTINUOUS
 10
1.763520
 20
2.493920
  0
VERTEX
  8
0
  6
CONTINUOUS
 10
1.791680
 20
2.388320
  0
VERTEX
  8
0
  6
CONTINUOUS
 10
1.785520
 20
1.655280
  0
VERTEX
  8
0
  6
CONTINUOUS
 10
1.757360
 20
1.760440
  0
SEQEND
  8
0
  0
SOLID
  8
0
 62
    15
 10
1.785520
 20
1.655280
 11
1.791680
 21
2.388320
 12
1.829960
 22
1.558040
 13
1.836120
 23
2.291520
  0
POLYLINE
  8
0
  6
CONTINUOUS
 66
     1
 40
0.000000
 41
0.000000
  0
VERTEX
  8
0
  6
CONTINUOUS
 10
1.785520
 20
1.655280
  0
VERTEX
  8
0
  6
CONTINUOUS
 10
1.791680
 20
2.388320
  0
VERTEX
  8
0
  6
CONTINUOUS
 10
1.836120
 20
2.291520
  0
VERTEX
  8
0
  6
CONTINUOUS
 10
1.829960
 20
1.558040
  0
VERTEX
  8
0
  6
CONTINUOUS
 10
1.785520
 20
1.655280
  0
SEQEND
  8
0
  0
SOLID
  8
0
 62
    15
 10
1.829960
 20
1.558040
 11
1.836120
 21
2.291520
 12
1.887600
 22
1.470480
 13
1.893760
 23
2.203520
  0
POLYLINE
  8
0
  6
CONTINUOUS
 66
     1
 40
0.000000
 41
0.000000
  0
VERTEX
  8
0
  6
CONTINUOUS
 10
1.829960
 20
1.558040
  0
VERTEX
  8
0
  6
CONTINUOUS
 10
1.836120
 20
2.291520
  0
VERTEX
  8
0
  6
CONTINUOUS
 10
1.893760
 20
2.203520
  0
VERTEX
  8
0
  6
CONTINUOUS
 10
1.887600
 20
1.470480
  0
VERTEX
  8
0
  6
CONTINUOUS
 10
1.829960
 20
1.558040
  0
SEQEND
  8
0
  0
SOLID
  8
0
 62
    15
 10
1.887600
 20
1.470480
 11
1.893760
 21
2.203520
 12
1.956680
 22
1.392600
 13
1.962840
 23
2.126080
  0
POLYLINE
  8
0
  6
CONTINUOUS
 66
     1
 40
0.000000
 41
0.000000
  0
VERTEX
  8
0
  6
CONTINUOUS
 10
1.887600
 20
1.470480
  0
VERTEX
  8
0
  6
CONTINUOUS
 10
1.893760
 20
2.203520
  0
VERTEX
  8
0
  6
CONTINUOUS
 10
1.962840
 20
2.126080
  0
VERTEX
  8
0
  6
CONTINUOUS
 10
1.956680
 20
1.392600
  0
VERTEX
  8
0
  6
CONTINUOUS
 10
1.887600
 20
1.470480
  0
SEQEND
  8
0
  0
SOLID
  8
0
 62
    15
 10
1.956680
 20
1.392600
 11
1.962840
 21
2.126080
 12
2.034560
 22
1.325280
 13
2.040720
 23
2.058320
  0
POLYLINE
  8
0
  6
CONTINUOUS
 66
     1
 40
0.000000
 41
0.000000
  0
VERTEX
  8
0
  6
CONTINUOUS
 10
1.956680
 20
1.392600
  0
VERTEX
  8
0
  6
CONTINUOUS
 10
1.962840
 20
2.126080
  0
VERTEX
  8
0
  6
CONTINUOUS
 10
2.040720
 20
2.058320
  0
VERTEX
  8
0
  6
CONTINUOUS
 10
2.034560
 20
1.325280
  0
VERTEX
  8
0
  6
CONTINUOUS
 10
1.956680
 20
1.392600
  0
SEQEND
  8
0
  0
SOLID
  8
0
 62
    15
 10
2.034560
 20
1.325280
 11
2.040720
 21
2.058320
 12
2.118600
 22
1.268960
 13
2.124760
 23
2.002000
  0
POLYLINE
  8
0
  6
CONTINUOUS
 66
     1
 40
0.000000
 41
0.000000
  0
VERTEX
  8
0
  6
CONTINUOUS
 10
2.034560
 20
1.325280
  0
VERTEX
  8
0
  6
CONTINUOUS
 10
2.040720
 20
2.058320
  0
VERTEX
  8
0
  6
CONTINUOUS
 10
2.124760
 20
2.002000
  0
VERTEX
  8
0
  6
CONTINUOUS
 10
2.118600
 20
1.268960
  0
VERTEX
  8
0
  6
CONTINUOUS
 10
2.034560
 20
1.325280
  0
SEQEND
  8
0
  0
SOLID
  8
0
 62
    15
 10
2.118600
 20
1.268960
 11
2.124760
 21
2.002000
 12
2.206160
 22
1.224520
 13
2.212320
 23
1.957560
  0
POLYLINE
  8
0
  6
CONTINUOUS
 66
     1
 40
0.000000
 41
0.000000
  0
VERTEX
  8
0
  6
CONTINUOUS
 10
2.118600
 20
1.268960
  0
VERTEX
  8
0
  6
CONTINUOUS
 10
2.124760
 20
2.002000
  0
VERTEX
  8
0
  6
CONTINUOUS
 10
2.212320
 20
1.957560
  0
VERTEX
  8
0
  6
CONTINUOUS
 10
2.206160
 20
1.224520
  0
VERTEX
  8
0
  6
CONTINUOUS
 10
2.118600
 20
1.268960
  0
SEQEND
  8
0
  0
SOLID
  8
0
 62
    15
 10
2.206160
 20
1.222320
 11
2.212320
 21
1.955360
 12
2.207040
 22
1.280840
 13
2.213200
 23
2.013880
  0
POLYLINE
  8
0
  6
CONTINUOUS
 66
     1
 40
0.000000
 41
0.000000
  0
VERTEX
  8
0
  6
CONTINUOUS
 10
2.206160
 20
1.222320
  0
VERTEX
  8
0
  6
CONTINUOUS
 10
2.212320
 20
1.955360
  0
VERTEX
  8
0
  6
CONTINUOUS
 10
2.213200
 20
2.013880
  0
VERTEX
  8
0
  6
CONTINUOUS
 10
2.207040
 20
1.280840
  0
VERTEX
  8
0
  6
CONTINUOUS
 10
2.206160
 20
1.222320
  0
SEQEND
  8
0
  0
SOLID
  8
0
 62
    15
 10
2.212320
 20
1.957560
 11
2.213200
 21
1.957560
 12
2.206160
 22
1.224520
 13
2.207040
 23
1.224080
  0
POLYLINE
  8
0
  6
CONTINUOUS
 66
     1
 40
0.000000
 41
0.000000
  0
VERTEX
  8
0
  6
CONTINUOUS
 10
2.212320
 20
1.957560
  0
VERTEX
  8
0
  6
CONTINUOUS
 10
2.213200
 20
1.957560
  0
VERTEX
  8
0
  6
CONTINUOUS
 10
2.207040
 20
1.224080
  0
VERTEX
  8
0
  6
CONTINUOUS
 10
2.206160
 20
1.224520
  0
VERTEX
  8
0
  6
CONTINUOUS
 10
2.212320
 20
1.957560
  0
SEQEND
  8
0
  0
SOLID
  8
0
 62
    15
 10
2.207040
 20
1.280840
 11
2.213200
 21
2.013880
 12
2.213640
 22
1.349480
 13
2.219800
 23
2.082520
  0
POLYLINE
  8
0
  6
CONTINUOUS
 66
     1
 40
0.000000
 41
0.000000
  0
VERTEX
  8
0
  6
CONTINUOUS
 10
2.207040
 20
1.280840
  0
VERTEX
  8
0
  6
CONTINUOUS
 10
2.213200
 20
2.013880
  0
VERTEX
  8
0
  6
CONTINUOUS
 10
2.219800
 20
2.082520
  0
VERTEX
  8
0
  6
CONTINUOUS
 10
2.213640
 20
1.349480
  0
VERTEX
  8
0
  6
CONTINUOUS
 10
2.207040
 20
1.280840
  0
SEQEND
  8
0
  0
SOLID
  8
0
 62
    15
 10
2.213640
 20
1.349480
 11
2.219800
 21
2.082520
 12
2.233000
 22
1.414600
 13
2.239160
 23
2.148080
  0
POLYLINE
  8
0
  6
CONTINUOUS
 66
     1
 40
0.000000
 41
0.000000
  0
VERTEX
  8
0
  6
CONTINUOUS
 10
2.213640
 20
1.349480
  0
VERTEX
  8
0
  6
CONTINUOUS
 10
2.219800
 20
2.082520
  0
VERTEX
  8
0
  6
CONTINUOUS
 10
2.239160
 20
2.148080
  0
VERTEX
  8
0
  6
CONTINUOUS
 10
2.233000
 20
1.414600
  0
VERTEX
  8
0
  6
CONTINUOUS
 10
2.213640
 20
1.349480
  0
SEQEND
  8
0
  0
SOLID
  8
0
 62
    15
 10
2.233000
 20
1.414600
 11
2.239160
 21
2.148080
 12
2.249280
 22
1.442320
 13
2.255440
 23
2.175360
  0
POLYLINE
  8
0
  6
CONTINUOUS
 66
     1
 40
0.000000
 41
0.000000
  0
VERTEX
  8
0
  6
CONTINUOUS
 10
2.233000
 20
1.414600
  0
VERTEX
  8
0
  6
CONTINUOUS
 10
2.239160
 20
2.148080
  0
VERTEX
  8
0
  6
CONTINUOUS
 10
2.255440
 20
2.175360
  0
VERTEX
  8
0
  6
CONTINUOUS
 10
2.249280
 20
1.442320
  0
VERTEX
  8
0
  6
CONTINUOUS
 10
2.233000
 20
1.414600
  0
SEQEND
  8
0
  0
SOLID
  8
0
 62
    15
 10
5.342040
 20
1.885400
 11
5.348200
 21
2.618440
 12
6.203560
 22
1.884960
 13
6.209720
 23
2.618000
  0
POLYLINE
  8
0
  6
CONTINUOUS
 66
     1
 40
0.000000
 41
0.000000
  0
VERTEX
  8
0
  6
CONTINUOUS
 10
5.342040
 20
1.885400
  0
VERTEX
  8
0
  6
CONTINUOUS
 10
5.348200
 20
2.618440
  0
VERTEX
  8
0
  6
CONTINUOUS
 10
6.209720
 20
2.618000
  0
VERTEX
  8
0
  6
CONTINUOUS
 10
6.203560
 20
1.884960
  0
VERTEX
  8
0
  6
CONTINUOUS
 10
5.342040
 20
1.885400
  0
SEQEND
  8
0
  0
SOLID
  8
0
 62
    15
 10
2.271280
 20
1.463440
 11
2.277440
 21
2.196920
 12
2.384800
 22
1.550120
 13
2.390960
 23
2.283600
  0
POLYLINE
  8
0
  6
CONTINUOUS
 66
     1
 40
0.000000
 41
0.000000
  0
VERTEX
  8
0
  6
CONTINUOUS
 10
2.271280
 20
1.463440
  0
VERTEX
  8
0
  6
CONTINUOUS
 10
2.277440
 20
2.196920
  0
VERTEX
  8
0
  6
CONTINUOUS
 10
2.390960
 20
2.283600
  0
VERTEX
  8
0
  6
CONTINUOUS
 10
2.384800
 20
1.550120
  0
VERTEX
  8
0
  6
CONTINUOUS
 10
2.271280
 20
1.463440
  0
SEQEND
  8
0
  0
SOLID
  8
0
 62
    15
 10
2.384800
 20
1.550120
 11
2.390960
 21
2.283600
 12
2.510640
 22
1.624040
 13
2.516800
 23
2.357520
  0
POLYLINE
  8
0
  6
CONTINUOUS
 66
     1
 40
0.000000
 41
0.000000
  0
VERTEX
  8
0
  6
CONTINUOUS
 10
2.384800
 20
1.550120
  0
VERTEX
  8
0
  6
CONTINUOUS
 10
2.390960
 20
2.283600
  0
VERTEX
  8
0
  6
CONTINUOUS
 10
2.516800
 20
2.357520
  0
VERTEX
  8
0
  6
CONTINUOUS
 10
2.510640
 20
1.624040
  0
VERTEX
  8
0
  6
CONTINUOUS
 10
2.384800
 20
1.550120
  0
SEQEND
  8
0
  0
SOLID
  8
0
 62
    15
 10
2.510640
 20
1.624040
 11
2.516800
 21
2.357520
 12
2.646600
 22
1.686520
 13
2.652760
 23
2.420000
  0
POLYLINE
  8
0
  6
CONTINUOUS
 66
     1
 40
0.000000
 41
0.000000
  0
VERTEX
  8
0
  6
CONTINUOUS
 10
2.510640
 20
1.624040
  0
VERTEX
  8
0
  6
CONTINUOUS
 10
2.516800
 20
2.357520
  0
VERTEX
  8
0
  6
CONTINUOUS
 10
2.652760
 20
2.420000
  0
VERTEX
  8
0
  6
CONTINUOUS
 10
2.646600
 20
1.686520
  0
VERTEX
  8
0
  6
CONTINUOUS
 10
2.510640
 20
1.624040
  0
SEQEND
  8
0
  0
SOLID
  8
0
 62
    15
 10
2.646600
 20
1.686520
 11
2.652760
 21
2.420000
 12
2.791360
 22
1.737560
 13
2.797520
 23
2.470600
  0
POLYLINE
  8
0
  6
CONTINUOUS
 66
     1
 40
0.000000
 41
0.000000
  0
VERTEX
  8
0
  6
CONTINUOUS
 10
2.646600
 20
1.686520
  0
VERTEX
  8
0
  6
CONTINUOUS
 10
2.652760
 20
2.420000
  0
VERTEX
  8
0
  6
CONTINUOUS
 10
2.797520
 20
2.470600
  0
VERTEX
  8
0
  6
CONTINUOUS
 10
2.791360
 20
1.737560
  0
VERTEX
  8
0
  6
CONTINUOUS
 10
2.646600
 20
1.686520
  0
SEQEND
  8
0
  0
SOLID
  8
0
 62
    15
 10
2.791360
 20
1.737560
 11
2.797520
 21
2.470600
 12
2.942280
 22
1.777600
 13
2.948440
 23
2.511080
  0
POLYLINE
  8
0
  6
CONTINUOUS
 66
     1
 40
0.000000
 41
0.000000
  0
VERTEX
  8
0
  6
CONTINUOUS
 10
2.791360
 20
1.737560
  0
VERTEX
  8
0
  6
CONTINUOUS
 10
2.797520
 20
2.470600
  0
VERTEX
  8
0
  6
CONTINUOUS
 10
2.948440
 20
2.511080
  0
VERTEX
  8
0
  6
CONTINUOUS
 10
2.942280
 20
1.777600
  0
VERTEX
  8
0
  6
CONTINUOUS
 10
2.791360
 20
1.737560
  0
SEQEND
  8
0
  0
SOLID
  8
0
 62
    15
 10
2.942280
 20
1.777600
 11
2.948440
 21
2.511080
 12
3.097600
 22
1.807960
 13
3.103760
 23
2.541000
  0
POLYLINE
  8
0
  6
CONTINUOUS
 66
     1
 40
0.000000
 41
0.000000
  0
VERTEX
  8
0
  6
CONTINUOUS
 10
2.942280
 20
1.777600
  0
VERTEX
  8
0
  6
CONTINUOUS
 10
2.948440
 20
2.511080
  0
VERTEX
  8
0
  6
CONTINUOUS
 10
3.103760
 20
2.541000
  0
VERTEX
  8
0
  6
CONTINUOUS
 10
3.097600
 20
1.807960
  0
VERTEX
  8
0
  6
CONTINUOUS
 10
2.942280
 20
1.777600
  0
SEQEND
  8
0
  0
SOLID
  8
0
 62
    15
 10
3.097600
 20
1.807960
 11
3.103760
 21
2.541000
 12
3.255560
 22
1.828200
 13
3.261720
 23
2.561680
  0
POLYLINE
  8
0
  6
CONTINUOUS
 66
     1
 40
0.000000
 41
0.000000
  0
VERTEX
  8
0
  6
CONTINUOUS
 10
3.097600
 20
1.807960
  0
VERTEX
  8
0
  6
CONTINUOUS
 10
3.103760
 20
2.541000
  0
VERTEX
  8
0
  6
CONTINUOUS
 10
3.261720
 20
2.561680
  0
VERTEX
  8
0
  6
CONTINUOUS
 10
3.255560
 20
1.828200
  0
VERTEX
  8
0
  6
CONTINUOUS
 10
3.097600
 20
1.807960
  0
SEQEND
  8
0
  0
SOLID
  8
0
 62
    15
 10
3.255560
 20
1.828200
 11
3.261720
 21
2.561680
 12
3.414840
 22
1.839640
 13
3.420560
 23
2.573120
  0
POLYLINE
  8
0
  6
CONTINUOUS
 66
     1
 40
0.000000
 41
0.000000
  0
VERTEX
  8
0
  6
CONTINUOUS
 10
3.255560
 20
1.828200
  0
VERTEX
  8
0
  6
CONTINUOUS
 10
3.261720
 20
2.561680
  0
VERTEX
  8
0
  6
CONTINUOUS
 10
3.420560
 20
2.573120
  0
VERTEX
  8
0
  6
CONTINUOUS
 10
3.414840
 20
1.839640
  0
VERTEX
  8
0
  6
CONTINUOUS
 10
3.255560
 20
1.828200
  0
SEQEND
  8
0
  0
SOLID
  8
0
 62
    15
 10
3.414840
 20
1.839640
 11
3.420560
 21
2.573120
 12
3.572360
 22
1.843160
 13
3.578520
 23
2.576200
  0
POLYLINE
  8
0
  6
CONTINUOUS
 66
     1
 40
0.000000
 41
0.000000
  0
VERTEX
  8
0
  6
CONTINUOUS
 10
3.414840
 20
1.839640
  0
VERTEX
  8
0
  6
CONTINUOUS
 10
3.420560
 20
2.573120
  0
VERTEX
  8
0
  6
CONTINUOUS
 10
3.578520
 20
2.576200
  0
VERTEX
  8
0
  6
CONTINUOUS
 10
3.572360
 20
1.843160
  0
VERTEX
  8
0
  6
CONTINUOUS
 10
3.414840
 20
1.839640
  0
SEQEND
  8
0
  0
SOLID
  8
0
 62
    15
 10
3.572360
 20
1.843160
 11
3.578520
 21
2.576200
 12
3.726800
 22
1.838320
 13
3.732960
 23
2.571800
  0
POLYLINE
  8
0
  6
CONTINUOUS
 66
     1
 40
0.000000
 41
0.000000
  0
VERTEX
  8
0
  6
CONTINUOUS
 10
3.572360
 20
1.843160
  0
VERTEX
  8
0
  6
CONTINUOUS
 10
3.578520
 20
2.576200
  0
VERTEX
  8
0
  6
CONTINUOUS
 10
3.732960
 20
2.571800
  0
VERTEX
  8
0
  6
CONTINUOUS
 10
3.726800
 20
1.838320
  0
VERTEX
  8
0
  6
CONTINUOUS
 10
3.572360
 20
1.843160
  0
SEQEND
  8
0
  0
SOLID
  8
0
 62
    15
 10
3.726800
 20
1.838320
 11
3.732960
 21
2.571800
 12
3.876400
 22
1.826440
 13
3.882120
 23
2.559480
  0
POLYLINE
  8
0
  6
CONTINUOUS
 66
     1
 40
0.000000
 41
0.000000
  0
VERTEX
  8
0
  6
CONTINUOUS
 10
3.726800
 20
1.838320
  0
VERTEX
  8
0
  6
CONTINUOUS
 10
3.732960
 20
2.571800
  0
VERTEX
  8
0
  6
CONTINUOUS
 10
3.882120
 20
2.559480
  0
VERTEX
  8
0
  6
CONTINUOUS
 10
3.876400
 20
1.826440
  0
VERTEX
  8
0
  6
CONTINUOUS
 10
3.726800
 20
1.838320
  0
SEQEND
  8
0
  0
SOLID
  8
0
 62
    15
 10
3.876400
 20
1.826440
 11
3.882120
 21
2.559480
 12
4.018960
 22
1.807960
 13
4.024680
 23
2.541000
  0
POLYLINE
  8
0
  6
CONTINUOUS
 66
     1
 40
0.000000
 41
0.000000
  0
VERTEX
  8
0
  6
CONTINUOUS
 10
3.876400
 20
1.826440
  0
VERTEX
  8
0
  6
CONTINUOUS
 10
3.882120
 20
2.559480
  0
VERTEX
  8
0
  6
CONTINUOUS
 10
4.024680
 20
2.541000
  0
VERTEX
  8
0
  6
CONTINUOUS
 10
4.018960
 20
1.807960
  0
VERTEX
  8
0
  6
CONTINUOUS
 10
3.876400
 20
1.826440
  0
SEQEND
  8
0
  0
SOLID
  8
0
 62
    15
 10
4.018960
 20
1.807960
 11
4.024680
 21
2.541000
 12
4.152280
 22
1.783320
 13
4.158440
 23
2.516360
  0
POLYLINE
  8
0
  6
CONTINUOUS
 66
     1
 40
0.000000
 41
0.000000
  0
VERTEX
  8
0
  6
CONTINUOUS
 10
4.018960
 20
1.807960
  0
VERTEX
  8
0
  6
CONTINUOUS
 10
4.024680
 20
2.541000
  0
VERTEX
  8
0
  6
CONTINUOUS
 10
4.158440
 20
2.516360
  0
VERTEX
  8
0
  6
CONTINUOUS
 10
4.152280
 20
1.783320
  0
VERTEX
  8
0
  6
CONTINUOUS
 10
4.018960
 20
1.807960
  0
SEQEND
  8
0
  0
SOLID
  8
0
 62
    15
 10
4.152280
 20
1.783320
 11
4.158440
 21
2.516360
 12
4.275040
 22
1.752960
 13
4.281200
 23
2.486000
  0
POLYLINE
  8
0
  6
CONTINUOUS
 66
     1
 40
0.000000
 41
0.000000
  0
VERTEX
  8
0
  6
CONTINUOUS
 10
4.152280
 20
1.783320
  0
VERTEX
  8
0
  6
CONTINUOUS
 10
4.158440
 20
2.516360
  0
VERTEX
  8
0
  6
CONTINUOUS
 10
4.281200
 20
2.486000
  0
VERTEX
  8
0
  6
CONTINUOUS
 10
4.275040
 20
1.752960
  0
VERTEX
  8
0
  6
CONTINUOUS
 10
4.152280
 20
1.783320
  0
SEQEND
  8
0
  0
SOLID
  8
0
 62
    15
 10
4.275040
 20
1.752960
 11
4.281200
 21
2.486000
 12
4.385480
 22
1.717760
 13
4.391200
 23
2.451240
  0
POLYLINE
  8
0
  6
CONTINUOUS
 66
     1
 40
0.000000
 41
0.000000
  0
VERTEX
  8
0
  6
CONTINUOUS
 10
4.275040
 20
1.752960
  0
VERTEX
  8
0
  6
CONTINUOUS
 10
4.281200
 20
2.486000
  0
VERTEX
  8
0
  6
CONTINUOUS
 10
4.391200
 20
2.451240
  0
VERTEX
  8
0
  6
CONTINUOUS
 10
4.385480
 20
1.717760
  0
VERTEX
  8
0
  6
CONTINUOUS
 10
4.275040
 20
1.752960
  0
SEQEND
  8
0
  0
SOLID
  8
0
 62
    15
 10
4.385480
 20
1.717760
 11
4.391200
 21
2.451240
 12
4.480960
 22
1.678160
 13
4.487120
 23
2.411640
  0
POLYLINE
  8
0
  6
CONTINUOUS
 66
     1
 40
0.000000
 41
0.000000
  0
VERTEX
  8
0
  6
CONTINUOUS
 10
4.385480
 20
1.717760
  0
VERTEX
  8
0
  6
CONTINUOUS
 10
4.391200
 20
2.451240
  0
VERTEX
  8
0
  6
CONTINUOUS
 10
4.487120
 20
2.411640
  0
VERTEX
  8
0
  6
CONTINUOUS
 10
4.480960
 20
1.678160
  0
VERTEX
  8
0
  6
CONTINUOUS
 10
4.385480
 20
1.717760
  0
SEQEND
  8
0
  0
SOLID
  8
0
 62
    15
 10
4.480960
 20
1.678160
 11
4.487120
 21
2.411640
 12
4.532440
 22
1.653520
 13
4.538160
 23
2.386560
  0
POLYLINE
  8
0
  6
CONTINUOUS
 66
     1
 40
0.000000
 41
0.000000
  0
VERTEX
  8
0
  6
CONTINUOUS
 10
4.480960
 20
1.678160
  0
VERTEX
  8
0
  6
CONTINUOUS
 10
4.487120
 20
2.411640
  0
VERTEX
  8
0
  6
CONTINUOUS
 10
4.538160
 20
2.386560
  0
VERTEX
  8
0
  6
CONTINUOUS
 10
4.532440
 20
1.653520
  0
VERTEX
  8
0
  6
CONTINUOUS
 10
4.480960
 20
1.678160
  0
SEQEND
  8
0
  0
SOLID
  8
0
 62
    15
 10
4.532440
 20
1.653520
 11
4.538160
 21
2.386560
 12
4.579080
 22
1.630200
 13
4.585240
 23
2.363680
  0
POLYLINE
  8
0
  6
CONTINUOUS
 66
     1
 40
0.000000
 41
0.000000
  0
VERTEX
  8
0
  6
CONTINUOUS
 10
4.532440
 20
1.653520
  0
VERTEX
  8
0
  6
CONTINUOUS
 10
4.538160
 20
2.386560
  0
VERTEX
  8
0
  6
CONTINUOUS
 10
4.585240
 20
2.363680
  0
VERTEX
  8
0
  6
CONTINUOUS
 10
4.579080
 20
1.630200
  0
VERTEX
  8
0
  6
CONTINUOUS
 10
4.532440
 20
1.653520
  0
SEQEND
  8
0
  0
SOLID
  8
0
 62
    15
 10
4.579080
 20
1.630200
 11
4.585240
 21
2.363680
 12
4.660040
 22
1.587520
 13
4.666200
 23
2.321000
  0
POLYLINE
  8
0
  6
CONTINUOUS
 66
     1
 40
0.000000
 41
0.000000
  0
VERTEX
  8
0
  6
CONTINUOUS
 10
4.579080
 20
1.630200
  0
VERTEX
  8
0
  6
CONTINUOUS
 10
4.585240
 20
2.363680
  0
VERTEX
  8
0
  6
CONTINUOUS
 10
4.666200
 20
2.321000
  0
VERTEX
  8
0
  6
CONTINUOUS
 10
4.660040
 20
1.587520
  0
VERTEX
  8
0
  6
CONTINUOUS
 10
4.579080
 20
1.630200
  0
SEQEND
  8
0
  0
SOLID
  8
0
 62
    15
 10
4.660040
 20
1.587520
 11
4.666200
 21
2.321000
 12
4.724720
 22
1.546160
 13
4.730880
 23
2.279640
  0
POLYLINE
  8
0
  6
CONTINUOUS
 66
     1
 40
0.000000
 41
0.000000
  0
VERTEX
  8
0
  6
CONTINUOUS
 10
4.660040
 20
1.587520
  0
VERTEX
  8
0
  6
CONTINUOUS
 10
4.666200
 20
2.321000
  0
VERTEX
  8
0
  6
CONTINUOUS
 10
4.730880
 20
2.279640
  0
VERTEX
  8
0
  6
CONTINUOUS
 10
4.724720
 20
1.546160
  0
VERTEX
  8
0
  6
CONTINUOUS
 10
4.660040
 20
1.587520
  0
SEQEND
  8
0
  0
SOLID
  8
0
 62
    15
 10
4.724720
 20
1.546160
 11
4.730880
 21
2.279640
 12
4.775320
 22
1.503040
 13
4.781040
 23
2.236520
  0
POLYLINE
  8
0
  6
CONTINUOUS
 66
     1
 40
0.000000
 41
0.000000
  0
VERTEX
  8
0
  6
CONTINUOUS
 10
4.724720
 20
1.546160
  0
VERTEX
  8
0
  6
CONTINUOUS
 10
4.730880
 20
2.279640
  0
VERTEX
  8
0
  6
CONTINUOUS
 10
4.781040
 20
2.236520
  0
VERTEX
  8
0
  6
CONTINUOUS
 10
4.775320
 20
1.503040
  0
VERTEX
  8
0
  6
CONTINUOUS
 10
4.724720
 20
1.546160
  0
SEQEND
  8
0
  0
SOLID
  8
0
 62
    15
 10
4.775320
 20
1.503040
 11
4.781040
 21
2.236520
 12
4.812280
 22
1.454640
 13
4.818440
 23
2.188120
  0
POLYLINE
  8
0
  6
CONTINUOUS
 66
     1
 40
0.000000
 41
0.000000
  0
VERTEX
  8
0
  6
CONTINUOUS
 10
4.775320
 20
1.503040
  0
VERTEX
  8
0
  6
CONTINUOUS
 10
4.781040
 20
2.236520
  0
VERTEX
  8
0
  6
CONTINUOUS
 10
4.818440
 20
2.188120
  0
VERTEX
  8
0
  6
CONTINUOUS
 10
4.812280
 20
1.454640
  0
VERTEX
  8
0
  6
CONTINUOUS
 10
4.775320
 20
1.503040
  0
SEQEND
  8
0
  0
SOLID
  8
0
 62
    15
 10
4.812280
 20
1.454640
 11
4.818440
 21
2.188120
 12
4.837800
 22
1.397440
 13
4.843960
 23
2.130480
  0
POLYLINE
  8
0
  6
CONTINUOUS
 66
     1
 40
0.000000
 41
0.000000
  0
VERTEX
  8
0
  6
CONTINUOUS
 10
4.812280
 20
1.454640
  0
VERTEX
  8
0
  6
CONTINUOUS
 10
4.818440
 20
2.188120
  0
VERTEX
  8
0
  6
CONTINUOUS
 10
4.843960
 20
2.130480
  0
VERTEX
  8
0
  6
CONTINUOUS
 10
4.837800
 20
1.397440
  0
VERTEX
  8
0
  6
CONTINUOUS
 10
4.812280
 20
1.454640
  0
SEQEND
  8
0
  0
SOLID
  8
0
 62
    15
 10
4.853200
 20
1.327480
 11
4.859360
 21
2.060960
 12
4.857160
 22
1.287000
 13
4.863320
 23
2.020480
  0
POLYLINE
  8
0
  6
CONTINUOUS
 66
     1
 40
0.000000
 41
0.000000
  0
VERTEX
  8
0
  6
CONTINUOUS
 10
4.853200
 20
1.327480
  0
VERTEX
  8
0
  6
CONTINUOUS
 10
4.859360
 20
2.060960
  0
VERTEX
  8
0
  6
CONTINUOUS
 10
4.863320
 20
2.020480
  0
VERTEX
  8
0
  6
CONTINUOUS
 10
4.857160
 20
1.287000
  0
VERTEX
  8
0
  6
CONTINUOUS
 10
4.853200
 20
1.327480
  0
SEQEND
  8
0
  0
SOLID
  8
0
 62
    15
 10
4.837800
 20
1.397440
 11
4.843960
 21
2.130480
 12
4.853200
 22
1.327480
 13
4.859360
 23
2.060960
  0
POLYLINE
  8
0
  6
CONTINUOUS
 66
     1
 40
0.000000
 41
0.000000
  0
VERTEX
  8
0
  6
CONTINUOUS
 10
4.837800
 20
1.397440
  0
VERTEX
  8
0
  6
CONTINUOUS
 10
4.843960
 20
2.130480
  0
VERTEX
  8
0
  6
CONTINUOUS
 10
4.859360
 20
2.060960
  0
VERTEX
  8
0
  6
CONTINUOUS
 10
4.853200
 20
1.327480
  0
VERTEX
  8
0
  6
CONTINUOUS
 10
4.837800
 20
1.397440
  0
SEQEND
  8
0
  0
SOLID
  8
0
 62
    15
 10
4.858040
 20
1.238600
 11
4.864200
 21
1.971640
 12
4.946920
 22
1.283040
 13
4.953080
 23
2.016520
  0
POLYLINE
  8
0
  6
CONTINUOUS
 66
     1
 40
0.000000
 41
0.000000
  0
VERTEX
  8
0
  6
CONTINUOUS
 10
4.858040
 20
1.238600
  0
VERTEX
  8
0
  6
CONTINUOUS
 10
4.864200
 20
1.971640
  0
VERTEX
  8
0
  6
CONTINUOUS
 10
4.953080
 20
2.016520
  0
VERTEX
  8
0
  6
CONTINUOUS
 10
4.946920
 20
1.283040
  0
VERTEX
  8
0
  6
CONTINUOUS
 10
4.858040
 20
1.238600
  0
SEQEND
  8
0
  0
SOLID
  8
0
 62
    15
 10
4.857160
 20
1.287000
 11
4.863320
 21
2.020480
 12
4.859360
 22
1.242120
 13
4.865520
 23
1.975600
  0
POLYLINE
  8
0
  6
CONTINUOUS
 66
     1
 40
0.000000
 41
0.000000
  0
VERTEX
  8
0
  6
CONTINUOUS
 10
4.857160
 20
1.287000
  0
VERTEX
  8
0
  6
CONTINUOUS
 10
4.863320
 20
2.020480
  0
VERTEX
  8
0
  6
CONTINUOUS
 10
4.865520
 20
1.975600
  0
VERTEX
  8
0
  6
CONTINUOUS
 10
4.859360
 20
1.242120
  0
VERTEX
  8
0
  6
CONTINUOUS
 10
4.857160
 20
1.287000
  0
SEQEND
  8
0
  0
SOLID
  8
0
 62
    15
 10
4.946920
 20
1.283040
 11
4.953080
 21
2.016520
 12
5.033600
 22
1.338920
 13
5.039760
 23
2.072400
  0
POLYLINE
  8
0
  6
CONTINUOUS
 66
     1
 40
0.000000
 41
0.000000
  0
VERTEX
  8
0
  6
CONTINUOUS
 10
4.946920
 20
1.283040
  0
VERTEX
  8
0
  6
CONTINUOUS
 10
4.953080
 20
2.016520
  0
VERTEX
  8
0
  6
CONTINUOUS
 10
5.039760
 20
2.072400
  0
VERTEX
  8
0
  6
CONTINUOUS
 10
5.033600
 20
1.338920
  0
VERTEX
  8
0
  6
CONTINUOUS
 10
4.946920
 20
1.283040
  0
SEQEND
  8
0
  0
SOLID
  8
0
 62
    15
 10
5.033600
 20
1.338920
 11
5.039760
 21
2.072400
 12
5.115000
 22
1.405800
 13
5.121160
 23
2.139280
  0
POLYLINE
  8
0
  6
CONTINUOUS
 66
     1
 40
0.000000
 41
0.000000
  0
VERTEX
  8
0
  6
CONTINUOUS
 10
5.033600
 20
1.338920
  0
VERTEX
  8
0
  6
CONTINUOUS
 10
5.039760
 20
2.072400
  0
VERTEX
  8
0
  6
CONTINUOUS
 10
5.121160
 20
2.139280
  0
VERTEX
  8
0
  6
CONTINUOUS
 10
5.115000
 20
1.405800
  0
VERTEX
  8
0
  6
CONTINUOUS
 10
5.033600
 20
1.338920
  0
SEQEND
  8
0
  0
SOLID
  8
0
 62
    15
 10
5.115000
 20
1.405800
 11
5.121160
 21
2.139280
 12
5.188040
 22
1.483240
 13
5.194200
 23
2.216280
  0
POLYLINE
  8
0
  6
CONTINUOUS
 66
     1
 40
0.000000
 41
0.000000
  0
VERTEX
  8
0
  6
CONTINUOUS
 10
5.115000
 20
1.405800
  0
VERTEX
  8
0
  6
CONTINUOUS
 10
5.121160
 20
2.139280
  0
VERTEX
  8
0
  6
CONTINUOUS
 10
5.194200
 20
2.216280
  0
VERTEX
  8
0
  6
CONTINUOUS
 10
5.188040
 20
1.483240
  0
VERTEX
  8
0
  6
CONTINUOUS
 10
5.115000
 20
1.405800
  0
SEQEND
  8
0
  0
SOLID
  8
0
 62
    15
 10
5.188040
 20
1.483240
 11
5.194200
 21
2.216280
 12
5.249640
 22
1.570360
 13
5.255800
 23
2.303400
  0
POLYLINE
  8
0
  6
CONTINUOUS
 66
     1
 40
0.000000
 41
0.000000
  0
VERTEX
  8
0
  6
CONTINUOUS
 10
5.188040
 20
1.483240
  0
VERTEX
  8
0
  6
CONTINUOUS
 10
5.194200
 20
2.216280
  0
VERTEX
  8
0
  6
CONTINUOUS
 10
5.255800
 20
2.303400
  0
VERTEX
  8
0
  6
CONTINUOUS
 10
5.249640
 20
1.570360
  0
VERTEX
  8
0
  6
CONTINUOUS
 10
5.188040
 20
1.483240
  0
SEQEND
  8
0
  0
SOLID
  8
0
 62
    15
 10
5.249640
 20
1.570360
 11
5.255800
 21
2.303400
 12
5.297160
 22
1.666720
 13
5.303320
 23
2.399760
  0
POLYLINE
  8
0
  6
CONTINUOUS
 66
     1
 40
0.000000
 41
0.000000
  0
VERTEX
  8
0
  6
CONTINUOUS
 10
5.249640
 20
1.570360
  0
VERTEX
  8
0
  6
CONTINUOUS
 10
5.255800
 20
2.303400
  0
VERTEX
  8
0
  6
CONTINUOUS
 10
5.303320
 20
2.399760
  0
VERTEX
  8
0
  6
CONTINUOUS
 10
5.297160
 20
1.666720
  0
VERTEX
  8
0
  6
CONTINUOUS
 10
5.249640
 20
1.570360
  0
SEQEND
  8
0
  0
SOLID
  8
0
 62
    15
 10
5.297160
 20
1.666720
 11
5.303320
 21
2.399760
 12
5.315200
 22
1.718200
 13
5.321360
 23
2.451240
  0
POLYLINE
  8
0
  6
CONTINUOUS
 66
     1
 40
0.000000
 41
0.000000
  0
VERTEX
  8
0
  6
CONTINUOUS
 10
5.297160
 20
1.666720
  0
VERTEX
  8
0
  6
CONTINUOUS
 10
5.303320
 20
2.399760
  0
VERTEX
  8
0
  6
CONTINUOUS
 10
5.321360
 20
2.451240
  0
VERTEX
  8
0
  6
CONTINUOUS
 10
5.315200
 20
1.718200
  0
VERTEX
  8
0
  6
CONTINUOUS
 10
5.297160
 20
1.666720
  0
SEQEND
  8
0
  0
SOLID
  8
0
 62
    15
 10
5.315200
 20
1.718200
 11
5.321360
 21
2.451240
 12
5.327960
 22
1.771880
 13
5.334120
 23
2.504920
  0
POLYLINE
  8
0
  6
CONTINUOUS
 66
     1
 40
0.000000
 41
0.000000
  0
VERTEX
  8
0
  6
CONTINUOUS
 10
5.315200
 20
1.718200
  0
VERTEX
  8
0
  6
CONTINUOUS
 10
5.321360
 20
2.451240
  0
VERTEX
  8
0
  6
CONTINUOUS
 10
5.334120
 20
2.504920
  0
VERTEX
  8
0
  6
CONTINUOUS
 10
5.327960
 20
1.771880
  0
VERTEX
  8
0
  6
CONTINUOUS
 10
5.315200
 20
1.718200
  0
SEQEND
  8
0
  0
SOLID
  8
0
 62
    15
 10
5.327960
 20
1.771880
 11
5.334120
 21
2.504920
 12
5.336320
 22
1.827760
 13
5.342480
 23
2.560800
  0
POLYLINE
  8
0
  6
CONTINUOUS
 66
     1
 40
0.000000
 41
0.000000
  0
VERTEX
  8
0
  6
CONTINUOUS
 10
5.327960
 20
1.771880
  0
VERTEX
  8
0
  6
CONTINUOUS
 10
5.334120
 20
2.504920
  0
VERTEX
  8
0
  6
CONTINUOUS
 10
5.342480
 20
2.560800
  0
VERTEX
  8
0
  6
CONTINUOUS
 10
5.336320
 20
1.827760
  0
VERTEX
  8
0
  6
CONTINUOUS
 10
5.327960
 20
1.771880
  0
SEQEND
  8
0
  0
SOLID
  8
0
 62
    15
 10
5.336320
 20
1.827760
 11
5.342480
 21
2.560800
 12
5.338960
 22
1.885400
 13
5.345120
 23
2.618440
  0
POLYLINE
  8
0
  6
CONTINUOUS
 66
     1
 40
0.000000
 41
0.000000
  0
VERTEX
  8
0
  6
CONTINUOUS
 10
5.336320
 20
1.827760
  0
VERTEX
  8
0
  6
CONTINUOUS
 10
5.342480
 20
2.560800
  0
VERTEX
  8
0
  6
CONTINUOUS
 10
5.345120
 20
2.618440
  0
VERTEX
  8
0
  6
CONTINUOUS
 10
5.338960
 20
1.885400
  0
VERTEX
  8
0
  6
CONTINUOUS
 10
5.336320
 20
1.827760
  0
SEQEND
  8
0
  0
SOLID
  8
0
 62
    15
 10
5.338960
 20
1.885400
 11
5.345120
 21
2.618440
 12
5.342040
 22
1.885400
 13
5.348200
 23
2.618440
  0
POLYLINE
  8
0
  6
CONTINUOUS
 66
     1
 40
0.000000
 41
0.000000
  0
VERTEX
  8
0
  6
CONTINUOUS
 10
5.338960
 20
1.885400
  0
VERTEX
  8
0
  6
CONTINUOUS
 10
5.345120
 20
2.618440
  0
VERTEX
  8
0
  6
CONTINUOUS
 10
5.348200
 20
2.618440
  0
VERTEX
  8
0
  6
CONTINUOUS
 10
5.342040
 20
1.885400
  0
VERTEX
  8
0
  6
CONTINUOUS
 10
5.338960
 20
1.885400
  0
SEQEND
  8
0
  0
POLYLINE
  8
0
  6
CONTINUOUS
 66
     1
 40
0.000000
 41
0.000000
  0
VERTEX
  8
0
  6
CONTINUOUS
 10
5.342040
 20
1.885400
  0
VERTEX
  8
0
  6
CONTINUOUS
 10
6.203560
 20
1.884960
  0
VERTEX
  8
0
  6
CONTINUOUS
 10
6.228640
 20
1.393040
  0
VERTEX
  8
0
  6
CONTINUOUS
 10
6.743440
 20
1.393040
  0
VERTEX
  8
0
  6
CONTINUOUS
 10
6.743440
 20
1.095600
  0
VERTEX
  8
0
  6
CONTINUOUS
 10
6.836720
 20
1.095600
  0
VERTEX
  8
0
  6
CONTINUOUS
 10
6.836720
 20
1.103520
  0
VERTEX
  8
0
  6
CONTINUOUS
 10
6.836720
 20
1.100880
  0
VERTEX
  8
0
  6
CONTINUOUS
 10
6.836720
 20
1.111440
  0
VERTEX
  8
0
  6
CONTINUOUS
 10
6.842440
 20
1.168200
  0
VERTEX
  8
0
  6
CONTINUOUS
 10
6.859160
 20
1.221000
  0
VERTEX
  8
0
  6
CONTINUOUS
 10
6.885560
 20
1.268960
  0
VERTEX
  8
0
  6
CONTINUOUS
 10
6.920320
 20
1.310760
  0
VERTEX
  8
0
  6
CONTINUOUS
 10
6.962120
 20
1.345520
  0
VERTEX
  8
0
  6
CONTINUOUS
 10
7.010080
 20
1.371920
  0
VERTEX
  8
0
  6
CONTINUOUS
 10
7.062880
 20
1.388640
  0
VERTEX
  8
0
  6
CONTINUOUS
 10
7.119640
 20
1.394360
  0
VERTEX
  8
0
  6
CONTINUOUS
 10
7.175960
 20
1.388640
  0
VERTEX
  8
0
  6
CONTINUOUS
 10
7.228760
 20
1.371920
  0
VERTEX
  8
0
  6
CONTINUOUS
 10
7.276720
 20
1.345520
  0
VERTEX
  8
0
  6
CONTINUOUS
 10
7.318960
 20
1.310760
  0
VERTEX
  8
0
  6
CONTINUOUS
 10
7.353280
 20
1.268960
  0
VERTEX
  8
0
  6
CONTINUOUS
 10
7.379680
 20
1.221000
  0
VERTEX
  8
0
  6
CONTINUOUS
 10
7.396400
 20
1.168200
  0
VERTEX
  8
0
  6
CONTINUOUS
 10
7.402120
 20
1.111440
  0
VERTEX
  8
0
  6
CONTINUOUS
 10
7.396400
 20
1.055120
  0
VERTEX
  8
0
  6
CONTINUOUS
 10
7.379680
 20
1.002320
  0
VERTEX
  8
0
  6
CONTINUOUS
 10
7.353280
 20
0.954360
  0
VERTEX
  8
0
  6
CONTINUOUS
 10
7.318960
 20
0.912120
  0
VERTEX
  8
0
  6
CONTINUOUS
 10
7.276720
 20
0.877360
  0
VERTEX
  8
0
  6
CONTINUOUS
 10
7.228760
 20
0.851400
  0
VERTEX
  8
0
  6
CONTINUOUS
 10
7.175960
 20
0.834680
  0
VERTEX
  8
0
  6
CONTINUOUS
 10
7.114360
 20
0.827640
  0
VERTEX
  8
0
  6
CONTINUOUS
 10
0.808720
 20
0.827640
  0
VERTEX
  8
0
  6
CONTINUOUS
 10
0.808720
 20
1.873960
  0
VERTEX
  8
0
  6
CONTINUOUS
 10
1.747680
 20
1.873960
  0
VERTEX
  8
0
  6
CONTINUOUS
 10
1.749880
 20
1.816320
  0
VERTEX
  8
0
  6
CONTINUOUS
 10
1.757360
 20
1.760440
  0
VERTEX
  8
0
  6
CONTINUOUS
 10
1.785520
 20
1.655280
  0
VERTEX
  8
0
  6
CONTINUOUS
 10
1.829960
 20
1.558040
  0
VERTEX
  8
0
  6
CONTINUOUS
 10
1.887600
 20
1.470480
  0
VERTEX
  8
0
  6
CONTINUOUS
 10
1.956680
 20
1.392600
  0
VERTEX
  8
0
  6
CONTINUOUS
 10
2.034560
 20
1.325280
  0
VERTEX
  8
0
  6
CONTINUOUS
 10
2.118600
 20
1.268960
  0
VERTEX
  8
0
  6
CONTINUOUS
 10
2.207040
 20
1.224080
  0
VERTEX
  8
0
  6
CONTINUOUS
 10
2.206160
 20
1.222320
  0
VERTEX
  8
0
  6
CONTINUOUS
 10
2.207040
 20
1.280840
  0
VERTEX
  8
0
  6
CONTINUOUS
 10
2.213640
 20
1.349480
  0
VERTEX
  8
0
  6
CONTINUOUS
 10
2.233000
 20
1.414600
  0
VERTEX
  8
0
  6
CONTINUOUS
 10
2.249280
 20
1.442320
  0
VERTEX
  8
0
  6
CONTINUOUS
 10
2.271280
 20
1.463440
  0
VERTEX
  8
0
  6
CONTINUOUS
 10
2.384800
 20
1.550120
  0
VERTEX
  8
0
  6
CONTINUOUS
 10
2.510640
 20
1.624040
  0
VERTEX
  8
0
  6
CONTINUOUS
 10
2.646600
 20
1.686520
  0
VERTEX
  8
0
  6
CONTINUOUS
 10
2.791360
 20
1.737560
  0
VERTEX
  8
0
  6
CONTINUOUS
 10
2.942280
 20
1.777600
  0
VERTEX
  8
0
  6
CONTINUOUS
 10
3.097600
 20
1.807960
  0
VERTEX
  8
0
  6
CONTINUOUS
 10
3.255560
 20
1.828200
  0
VERTEX
  8
0
  6
CONTINUOUS
 10
3.414840
 20
1.839640
  0
VERTEX
  8
0
  6
CONTINUOUS
 10
3.572360
 20
1.843160
  0
VERTEX
  8
0
  6
CONTINUOUS
 10
3.726800
 20
1.838320
  0
VERTEX
  8
0
  6
CONTINUOUS
 10
3.876400
 20
1.826440
  0
VERTEX
  8
0
  6
CONTINUOUS
 10
4.018960
 20
1.807960
  0
VERTEX
  8
0
  6
CONTINUOUS
 10
4.152280
 20
1.783320
  0
VERTEX
  8
0
  6
CONTINUOUS
 10
4.275040
 20
1.752960
  0
VERTEX
  8
0
  6
CONTINUOUS
 10
4.385480
 20
1.717760
  0
VERTEX
  8
0
  6
CONTINUOUS
 10
4.480960
 20
1.678160
  0
VERTEX
  8
0
  6
CONTINUOUS
 10
4.579080
 20
1.630200
  0
VERTEX
  8
0
  6
CONTINUOUS
 10
4.660040
 20
1.587520
  0
VERTEX
  8
0
  6
CONTINUOUS
 10
4.724720
 20
1.546160
  0
VERTEX
  8
0
  6
CONTINUOUS
 10
4.775320
 20
1.503040
  0
VERTEX
  8
0
  6
CONTINUOUS
 10
4.812280
 20
1.454640
  0
VERTEX
  8
0
  6
CONTINUOUS
 10
4.837800
 20
1.397440
  0
VERTEX
  8
0
  6
CONTINUOUS
 10
4.853200
 20
1.327480
  0
VERTEX
  8
0
  6
CONTINUOUS
 10
4.857160
 20
1.287000
  0
VERTEX
  8
0
  6
CONTINUOUS
 10
4.859360
 20
1.242120
  0
VERTEX
  8
0
  6
CONTINUOUS
 10
4.858040
 20
1.238600
  0
VERTEX
  8
0
  6
CONTINUOUS
 10
4.946920
 20
1.283040
  0
VERTEX
  8
0
  6
CONTINUOUS
 10
5.033600
 20
1.338920
  0
VERTEX
  8
0
  6
CONTINUOUS
 10
5.115000
 20
1.405800
  0
VERTEX
  8
0
  6
CONTINUOUS
 10
5.188040
 20
1.483240
  0
VERTEX
  8
0
  6
CONTINUOUS
 10
5.249640
 20
1.570360
  0
VERTEX
  8
0
  6
CONTINUOUS
 10
5.297160
 20
1.666720
  0
VERTEX
  8
0
  6
CONTINUOUS
 10
5.315200
 20
1.718200
  0
VERTEX
  8
0
  6
CONTINUOUS
 10
5.327960
 20
1.771880
  0
VERTEX
  8
0
  6
CONTINUOUS
 10
5.336320
 20
1.827760
  0
VERTEX
  8
0
  6
CONTINUOUS
 10
5.338960
 20
1.885400
  0
VERTEX
  8
0
  6
CONTINUOUS
 10
5.342040
 20
1.885400
  0
SEQEND
  8
0
  0
ENDSEC
  0
EOF
