  0
SECTION
  2
HEADER
  9
$ACADVER
  1
AC1006
  9
$EXTMIN
 10
4.057240
 20
0.370480
  9
$EXTMAX
 10
7.941560
 20
3.529240
  9
$LTSCALE
 40
0.044000
  9
$PDMODE
 70
    35
  9
$PDSIZE
 40
0.035200
  0
ENDSEC
  0
SECTION
  2
TABLES
  0
TABLE
  2
LTYPE
 70
     9
  0
LTYPE
  2
CONTINUOUS
 70
    64
  3
Solid line
 72
    65
 73
     0
 40
0.000000
  0
LTYPE
  2
DASHED
 70
    64
  3
__ __ __ __ __ __ __ __ __ __ __ __ __ __ __
 72
    65
 73
     2
 40
0.000330
 49
0.000220
 49
-0.000110
  0
LTYPE
  2
HIDDEN
 70
    64
  3
 _ _ _ _ _ _ _ _ _ _ _ _ _ _ _ _ _ _ _ _ _ _
 72
    65
 73
     2
 40
0.000165
 49
0.000110
 49
-0.000055
  0
LTYPE
  2
CENTER
 70
    64
  3
____ _ ____ _ ____ _ ____ _ ____ _ ____ _ ____
 72
    65
 73
     4
 40
0.000880
 49
0.000550
 49
-0.000110
 49
0.000110
 49
-0.000110
  0
LTYPE
  2
PHANTOM
 70
    64
  3
_____ _ _ _____ _ _ _____ _ _ _____ _ _ ____
 72
    65
 73
     6
 40
0.001100
 49
0.000550
 49
-0.000110
 49
0.000110
 49
-0.000110
 49
0.000110
 49
-0.000110
  0
LTYPE
  2
DOT
 70
    64
  3
...............................................
 72
    65
 73
     2
 40
0.000110
 49
0.000000
 49
-0.000110
  0
LTYPE
  2
DASHDOT
 70
    64
  3
__ . __ . __ . __ . __ . __ . __ . __ . __ . __
 72
    65
 73
     4
 40
0.000440
 49
0.000220
 49
-0.000110
 49
0.000000
 49
-0.000110
  0
LTYPE
  2
BORDER
 70
    64
  3
__ __ . __ __ . __ __ . __ __ . __ __ . __ __
 72
    65
 73
     6
 40
0.000770
 49
0.000220
 49
-0.000110
 49
0.000220
 49
-0.000110
 49
0.000000
 49
-0.000110
  0
LTYPE
  2
DIVIDE
 70
    64
  3
__ . . __ . . __ . . __ . . __ . . __ . . __
 72
    65
 73
     6
 40
0.000550
 49
0.000220
 49
-0.000110
 49
0.000000
 49
-0.000110
 49
0.000000
 49
-0.000110
  0
LTYPE
  2
DOTDOT
 70
    64
  3
 . .  . .  . .  . .  . .  . . 
 72
    65
 73
     5
 40
0.000242
 49
-0.000110
 49
0.000000
 49
-0.000110
 49
0.000000
 49
-0.000110
  0
ENDTAB
  0
TABLE
  2
STYLE
 70
     2
  0
STYLE
 70
     0
  2
SN0
 40
0.000000
 41
0.000440
 50
0.000000
 71
     0
 42
0.000000
  3
ROMAND
  0
STYLE
 70
    68
  2
SV0
 40
0.000000
 41
0.000440
 50
0.000000
 71
     0
 42
0.000000
  3
ROMAND
  0
ENDTAB
  0
TABLE
  2
LAYER
 70
     3
  0
LAYER
  2
FOREGROUND
 70
    64
 62
     7
  6
CONTINUOUS
  0
LAYER
  2
BACKGROUND
 70
    65
 62
    -7
  6
CONTINUOUS
  0
LAYER
  2
0
 70
    64
 62
     7
  6
CONTINUOUS
  0
ENDTAB
  0
ENDSEC
  0
SECTION
  2
ENTITIES
  0
POLYLINE
  8
FOREGROUND
  6
CONTINUOUS
 66
     1
 40
0.000000
 41
0.000000
  0
VERTEX
  8
FOREGROUND
  6
CONTINUOUS
 10
0.000000
 20
3.899720
  0
VERTEX
  8
FOREGROUND
  6
CONTINUOUS
 10
8.499920
 20
3.899720
  0
VERTEX
  8
FOREGROUND
  6
CONTINUOUS
 10
8.499920
 20
-7.100280
  0
VERTEX
  8
FOREGROUND
  6
CONTINUOUS
 10
0.000000
 20
-7.100280
  0
VERTEX
  8
FOREGROUND
  6
CONTINUOUS
 10
0.000000
 20
3.899720
  0
SEQEND
  8
0
  0
POLYLINE
  8
FOREGROUND
  6
CONTINUOUS
 66
     1
 40
0.000000
 41
0.000000
  0
VERTEX
  8
FOREGROUND
  6
CONTINUOUS
 10
0.000000
 20
3.899720
  0
VERTEX
  8
FOREGROUND
  6
CONTINUOUS
 10
8.499920
 20
3.899720
  0
VERTEX
  8
FOREGROUND
  6
CONTINUOUS
 10
8.499920
 20
-7.100280
  0
VERTEX
  8
FOREGROUND
  6
CONTINUOUS
 10
0.000000
 20
-7.100280
  0
VERTEX
  8
FOREGROUND
  6
CONTINUOUS
 10
0.000000
 20
3.899720
  0
SEQEND
  8
0
  0
POLYLINE
  8
0
  6
CONTINUOUS
 66
     1
 40
0.014080
 41
0.014080
  0
VERTEX
  8
0
  6
CONTINUOUS
 10
6.300800
 20
3.243680
  0
VERTEX
  8
0
  6
CONTINUOUS
 10
6.300800
 20
3.354120
  0
VERTEX
  8
0
  6
CONTINUOUS
 10
6.162200
 20
3.354120
  0
VERTEX
  8
0
  6
CONTINUOUS
 10
6.162200
 20
1.190200
  0
VERTEX
  8
0
  6
CONTINUOUS
 10
6.962120
 20
1.190200
  0
VERTEX
  8
0
  6
CONTINUOUS
 10
6.962120
 20
2.039400
  0
VERTEX
  8
0
  6
CONTINUOUS
 10
6.764560
 20
2.039400
  0
VERTEX
  8
0
  6
CONTINUOUS
 10
6.764560
 20
2.133120
  0
VERTEX
  8
0
  6
CONTINUOUS
 10
6.820880
 20
2.172720
  0
VERTEX
  8
0
  6
CONTINUOUS
 10
6.864880
 20
2.212320
  0
VERTEX
  8
0
  6
CONTINUOUS
 10
6.890400
 20
2.241800
  0
VERTEX
  8
0
  6
CONTINUOUS
 10
6.909760
 20
2.270840
  0
VERTEX
  8
0
  6
CONTINUOUS
 10
6.919440
 20
2.290200
  0
VERTEX
  8
0
  6
CONTINUOUS
 10
6.926480
 20
2.309560
  0
VERTEX
  8
0
  6
CONTINUOUS
 10
6.930880
 20
2.328920
  0
VERTEX
  8
0
  6
CONTINUOUS
 10
6.933080
 20
2.347840
  0
VERTEX
  8
0
  6
CONTINUOUS
 10
6.933080
 20
2.366760
  0
VERTEX
  8
0
  6
CONTINUOUS
 10
6.930880
 20
2.385680
  0
VERTEX
  8
0
  6
CONTINUOUS
 10
6.926920
 20
2.404160
  0
VERTEX
  8
0
  6
CONTINUOUS
 10
6.912400
 20
2.441120
  0
VERTEX
  8
0
  6
CONTINUOUS
 10
6.890400
 20
2.477640
  0
VERTEX
  8
0
  6
CONTINUOUS
 10
6.862240
 20
2.513280
  0
VERTEX
  8
0
  6
CONTINUOUS
 10
6.827480
 20
2.548040
  0
VERTEX
  8
0
  6
CONTINUOUS
 10
6.766320
 20
2.598640
  0
VERTEX
  8
0
  6
CONTINUOUS
 10
6.695480
 20
2.647040
  0
VERTEX
  8
0
  6
CONTINUOUS
 10
6.617160
 20
2.692800
  0
VERTEX
  8
0
  6
CONTINUOUS
 10
6.566560
 20
2.720520
  0
VERTEX
  8
0
  6
CONTINUOUS
 10
6.523880
 20
2.748240
  0
VERTEX
  8
0
  6
CONTINUOUS
 10
6.486480
 20
2.777280
  0
VERTEX
  8
0
  6
CONTINUOUS
 10
6.453480
 20
2.808520
  0
VERTEX
  8
0
  6
CONTINUOUS
 10
6.412560
 20
2.857800
  0
VERTEX
  8
0
  6
CONTINUOUS
 10
6.380000
 20
2.909280
  0
VERTEX
  8
0
  6
CONTINUOUS
 10
6.354920
 20
2.962960
  0
VERTEX
  8
0
  6
CONTINUOUS
 10
6.342160
 20
2.999040
  0
VERTEX
  8
0
  6
CONTINUOUS
 10
6.331600
 20
3.035120
  0
VERTEX
  8
0
  6
CONTINUOUS
 10
6.322800
 20
3.071200
  0
VERTEX
  8
0
  6
CONTINUOUS
 10
6.310920
 20
3.142040
  0
VERTEX
  8
0
  6
CONTINUOUS
 10
6.299480
 20
3.241040
  0
VERTEX
  8
0
  6
CONTINUOUS
 10
6.300800
 20
3.243680
  0
SEQEND
  8
0
  0
SOLID
  8
0
 62
    15
 10
4.723400
 20
2.214520
 11
5.383400
 21
2.599080
 12
4.758160
 22
2.179760
 13
5.417720
 23
2.564320
  0
POLYLINE
  8
0
  6
CONTINUOUS
 66
     1
 40
0.000000
 41
0.000000
  0
VERTEX
  8
0
  6
CONTINUOUS
 10
4.723400
 20
2.214520
  0
VERTEX
  8
0
  6
CONTINUOUS
 10
5.383400
 20
2.599080
  0
VERTEX
  8
0
  6
CONTINUOUS
 10
5.417720
 20
2.564320
  0
VERTEX
  8
0
  6
CONTINUOUS
 10
4.758160
 20
2.179760
  0
VERTEX
  8
0
  6
CONTINUOUS
 10
4.723400
 20
2.214520
  0
SEQEND
  8
0
  0
SOLID
  8
0
 62
    15
 10
4.198480
 20
2.875840
 11
4.858040
 21
3.260400
 12
4.202000
 22
2.842400
 13
4.862000
 23
3.226960
  0
POLYLINE
  8
0
  6
CONTINUOUS
 66
     1
 40
0.000000
 41
0.000000
  0
VERTEX
  8
0
  6
CONTINUOUS
 10
4.198480
 20
2.875840
  0
VERTEX
  8
0
  6
CONTINUOUS
 10
4.858040
 20
3.260400
  0
VERTEX
  8
0
  6
CONTINUOUS
 10
4.862000
 20
3.226960
  0
VERTEX
  8
0
  6
CONTINUOUS
 10
4.202000
 20
2.842400
  0
VERTEX
  8
0
  6
CONTINUOUS
 10
4.198480
 20
2.875840
  0
SEQEND
  8
0
  0
SOLID
  8
0
 62
    15
 10
4.202000
 20
2.842400
 11
4.862000
 21
3.226960
 12
4.212120
 22
2.773320
 13
4.871680
 23
3.157880
  0
POLYLINE
  8
0
  6
CONTINUOUS
 66
     1
 40
0.000000
 41
0.000000
  0
VERTEX
  8
0
  6
CONTINUOUS
 10
4.202000
 20
2.842400
  0
VERTEX
  8
0
  6
CONTINUOUS
 10
4.862000
 20
3.226960
  0
VERTEX
  8
0
  6
CONTINUOUS
 10
4.871680
 20
3.157880
  0
VERTEX
  8
0
  6
CONTINUOUS
 10
4.212120
 20
2.773320
  0
VERTEX
  8
0
  6
CONTINUOUS
 10
4.202000
 20
2.842400
  0
SEQEND
  8
0
  0
SOLID
  8
0
 62
    15
 10
4.212120
 20
2.773320
 11
4.871680
 21
3.157880
 12
4.227520
 22
2.701600
 13
4.887080
 23
3.086160
  0
POLYLINE
  8
0
  6
CONTINUOUS
 66
     1
 40
0.000000
 41
0.000000
  0
VERTEX
  8
0
  6
CONTINUOUS
 10
4.212120
 20
2.773320
  0
VERTEX
  8
0
  6
CONTINUOUS
 10
4.871680
 20
3.157880
  0
VERTEX
  8
0
  6
CONTINUOUS
 10
4.887080
 20
3.086160
  0
VERTEX
  8
0
  6
CONTINUOUS
 10
4.227520
 20
2.701600
  0
VERTEX
  8
0
  6
CONTINUOUS
 10
4.212120
 20
2.773320
  0
SEQEND
  8
0
  0
SOLID
  8
0
 62
    15
 10
4.227520
 20
2.701600
 11
4.887080
 21
3.086160
 12
4.251280
 22
2.629440
 13
4.910840
 23
3.014000
  0
POLYLINE
  8
0
  6
CONTINUOUS
 66
     1
 40
0.000000
 41
0.000000
  0
VERTEX
  8
0
  6
CONTINUOUS
 10
4.227520
 20
2.701600
  0
VERTEX
  8
0
  6
CONTINUOUS
 10
4.887080
 20
3.086160
  0
VERTEX
  8
0
  6
CONTINUOUS
 10
4.910840
 20
3.014000
  0
VERTEX
  8
0
  6
CONTINUOUS
 10
4.251280
 20
2.629440
  0
VERTEX
  8
0
  6
CONTINUOUS
 10
4.227520
 20
2.701600
  0
SEQEND
  8
0
  0
SOLID
  8
0
 62
    15
 10
4.251280
 20
2.629440
 11
4.910840
 21
3.014000
 12
4.286040
 22
2.558600
 13
4.945600
 23
2.943160
  0
POLYLINE
  8
0
  6
CONTINUOUS
 66
     1
 40
0.000000
 41
0.000000
  0
VERTEX
  8
0
  6
CONTINUOUS
 10
4.251280
 20
2.629440
  0
VERTEX
  8
0
  6
CONTINUOUS
 10
4.910840
 20
3.014000
  0
VERTEX
  8
0
  6
CONTINUOUS
 10
4.945600
 20
2.943160
  0
VERTEX
  8
0
  6
CONTINUOUS
 10
4.286040
 20
2.558600
  0
VERTEX
  8
0
  6
CONTINUOUS
 10
4.251280
 20
2.629440
  0
SEQEND
  8
0
  0
SOLID
  8
0
 62
    15
 10
4.286040
 20
2.558600
 11
4.945600
 21
2.943160
 12
4.308480
 22
2.524280
 13
4.968040
 23
2.908840
  0
POLYLINE
  8
0
  6
CONTINUOUS
 66
     1
 40
0.000000
 41
0.000000
  0
VERTEX
  8
0
  6
CONTINUOUS
 10
4.286040
 20
2.558600
  0
VERTEX
  8
0
  6
CONTINUOUS
 10
4.945600
 20
2.943160
  0
VERTEX
  8
0
  6
CONTINUOUS
 10
4.968040
 20
2.908840
  0
VERTEX
  8
0
  6
CONTINUOUS
 10
4.308480
 20
2.524280
  0
VERTEX
  8
0
  6
CONTINUOUS
 10
4.286040
 20
2.558600
  0
SEQEND
  8
0
  0
SOLID
  8
0
 62
    15
 10
4.308480
 20
2.524280
 11
4.968040
 21
2.908840
 12
4.334880
 22
2.490840
 13
4.994440
 23
2.875400
  0
POLYLINE
  8
0
  6
CONTINUOUS
 66
     1
 40
0.000000
 41
0.000000
  0
VERTEX
  8
0
  6
CONTINUOUS
 10
4.308480
 20
2.524280
  0
VERTEX
  8
0
  6
CONTINUOUS
 10
4.968040
 20
2.908840
  0
VERTEX
  8
0
  6
CONTINUOUS
 10
4.994440
 20
2.875400
  0
VERTEX
  8
0
  6
CONTINUOUS
 10
4.334880
 20
2.490840
  0
VERTEX
  8
0
  6
CONTINUOUS
 10
4.308480
 20
2.524280
  0
SEQEND
  8
0
  0
SOLID
  8
0
 62
    15
 10
4.334880
 20
2.490840
 11
4.994440
 21
2.875400
 12
4.365680
 22
2.459160
 13
5.025240
 23
2.843720
  0
POLYLINE
  8
0
  6
CONTINUOUS
 66
     1
 40
0.000000
 41
0.000000
  0
VERTEX
  8
0
  6
CONTINUOUS
 10
4.334880
 20
2.490840
  0
VERTEX
  8
0
  6
CONTINUOUS
 10
4.994440
 20
2.875400
  0
VERTEX
  8
0
  6
CONTINUOUS
 10
5.025240
 20
2.843720
  0
VERTEX
  8
0
  6
CONTINUOUS
 10
4.365680
 20
2.459160
  0
VERTEX
  8
0
  6
CONTINUOUS
 10
4.334880
 20
2.490840
  0
SEQEND
  8
0
  0
SOLID
  8
0
 62
    15
 10
4.365680
 20
2.459160
 11
5.025240
 21
2.843720
 12
4.400440
 22
2.428800
 13
5.060440
 23
2.813360
  0
POLYLINE
  8
0
  6
CONTINUOUS
 66
     1
 40
0.000000
 41
0.000000
  0
VERTEX
  8
0
  6
CONTINUOUS
 10
4.365680
 20
2.459160
  0
VERTEX
  8
0
  6
CONTINUOUS
 10
5.025240
 20
2.843720
  0
VERTEX
  8
0
  6
CONTINUOUS
 10
5.060440
 20
2.813360
  0
VERTEX
  8
0
  6
CONTINUOUS
 10
4.400440
 20
2.428800
  0
VERTEX
  8
0
  6
CONTINUOUS
 10
4.365680
 20
2.459160
  0
SEQEND
  8
0
  0
SOLID
  8
0
 62
    15
 10
4.400440
 20
2.428800
 11
5.060440
 21
2.813360
 12
4.440480
 22
2.400640
 13
5.100480
 23
2.785200
  0
POLYLINE
  8
0
  6
CONTINUOUS
 66
     1
 40
0.000000
 41
0.000000
  0
VERTEX
  8
0
  6
CONTINUOUS
 10
4.400440
 20
2.428800
  0
VERTEX
  8
0
  6
CONTINUOUS
 10
5.060440
 20
2.813360
  0
VERTEX
  8
0
  6
CONTINUOUS
 10
5.100480
 20
2.785200
  0
VERTEX
  8
0
  6
CONTINUOUS
 10
4.440480
 20
2.400640
  0
VERTEX
  8
0
  6
CONTINUOUS
 10
4.400440
 20
2.428800
  0
SEQEND
  8
0
  0
SOLID
  8
0
 62
    15
 10
4.440480
 20
2.400640
 11
5.100480
 21
2.785200
 12
4.485800
 22
2.374240
 13
5.145800
 23
2.758800
  0
POLYLINE
  8
0
  6
CONTINUOUS
 66
     1
 40
0.000000
 41
0.000000
  0
VERTEX
  8
0
  6
CONTINUOUS
 10
4.440480
 20
2.400640
  0
VERTEX
  8
0
  6
CONTINUOUS
 10
5.100480
 20
2.785200
  0
VERTEX
  8
0
  6
CONTINUOUS
 10
5.145800
 20
2.758800
  0
VERTEX
  8
0
  6
CONTINUOUS
 10
4.485800
 20
2.374240
  0
VERTEX
  8
0
  6
CONTINUOUS
 10
4.440480
 20
2.400640
  0
SEQEND
  8
0
  0
SOLID
  8
0
 62
    15
 10
4.485800
 20
2.374240
 11
5.145800
 21
2.758800
 12
4.591400
 22
2.313520
 13
5.250960
 23
2.698080
  0
POLYLINE
  8
0
  6
CONTINUOUS
 66
     1
 40
0.000000
 41
0.000000
  0
VERTEX
  8
0
  6
CONTINUOUS
 10
4.485800
 20
2.374240
  0
VERTEX
  8
0
  6
CONTINUOUS
 10
5.145800
 20
2.758800
  0
VERTEX
  8
0
  6
CONTINUOUS
 10
5.250960
 20
2.698080
  0
VERTEX
  8
0
  6
CONTINUOUS
 10
4.591400
 20
2.313520
  0
VERTEX
  8
0
  6
CONTINUOUS
 10
4.485800
 20
2.374240
  0
SEQEND
  8
0
  0
SOLID
  8
0
 62
    15
 10
4.591400
 20
2.313520
 11
5.250960
 21
2.698080
 12
4.639360
 22
2.281400
 13
5.299360
 23
2.665960
  0
POLYLINE
  8
0
  6
CONTINUOUS
 66
     1
 40
0.000000
 41
0.000000
  0
VERTEX
  8
0
  6
CONTINUOUS
 10
4.591400
 20
2.313520
  0
VERTEX
  8
0
  6
CONTINUOUS
 10
5.250960
 20
2.698080
  0
VERTEX
  8
0
  6
CONTINUOUS
 10
5.299360
 20
2.665960
  0
VERTEX
  8
0
  6
CONTINUOUS
 10
4.639360
 20
2.281400
  0
VERTEX
  8
0
  6
CONTINUOUS
 10
4.591400
 20
2.313520
  0
SEQEND
  8
0
  0
SOLID
  8
0
 62
    15
 10
4.639360
 20
2.281400
 11
5.299360
 21
2.665960
 12
4.683800
 22
2.248400
 13
5.343360
 23
2.632960
  0
POLYLINE
  8
0
  6
CONTINUOUS
 66
     1
 40
0.000000
 41
0.000000
  0
VERTEX
  8
0
  6
CONTINUOUS
 10
4.639360
 20
2.281400
  0
VERTEX
  8
0
  6
CONTINUOUS
 10
5.299360
 20
2.665960
  0
VERTEX
  8
0
  6
CONTINUOUS
 10
5.343360
 20
2.632960
  0
VERTEX
  8
0
  6
CONTINUOUS
 10
4.683800
 20
2.248400
  0
VERTEX
  8
0
  6
CONTINUOUS
 10
4.639360
 20
2.281400
  0
SEQEND
  8
0
  0
SOLID
  8
0
 62
    15
 10
4.683800
 20
2.248400
 11
5.343360
 21
2.632960
 12
4.723400
 22
2.214520
 13
5.383400
 23
2.599080
  0
POLYLINE
  8
0
  6
CONTINUOUS
 66
     1
 40
0.000000
 41
0.000000
  0
VERTEX
  8
0
  6
CONTINUOUS
 10
4.683800
 20
2.248400
  0
VERTEX
  8
0
  6
CONTINUOUS
 10
5.343360
 20
2.632960
  0
VERTEX
  8
0
  6
CONTINUOUS
 10
5.383400
 20
2.599080
  0
VERTEX
  8
0
  6
CONTINUOUS
 10
4.723400
 20
2.214520
  0
VERTEX
  8
0
  6
CONTINUOUS
 10
4.683800
 20
2.248400
  0
SEQEND
  8
0
  0
SOLID
  8
0
 62
    15
 10
4.195400
 20
2.907520
 11
4.854960
 21
3.292080
 12
4.198480
 22
2.875840
 13
4.858040
 23
3.260400
  0
POLYLINE
  8
0
  6
CONTINUOUS
 66
     1
 40
0.000000
 41
0.000000
  0
VERTEX
  8
0
  6
CONTINUOUS
 10
4.195400
 20
2.907520
  0
VERTEX
  8
0
  6
CONTINUOUS
 10
4.854960
 20
3.292080
  0
VERTEX
  8
0
  6
CONTINUOUS
 10
4.858040
 20
3.260400
  0
VERTEX
  8
0
  6
CONTINUOUS
 10
4.198480
 20
2.875840
  0
VERTEX
  8
0
  6
CONTINUOUS
 10
4.195400
 20
2.907520
  0
SEQEND
  8
0
  0
SOLID
  8
0
 62
    15
 10
4.758160
 20
2.179760
 11
5.417720
 21
2.564320
 12
4.786320
 22
2.144120
 13
5.446320
 23
2.528680
  0
POLYLINE
  8
0
  6
CONTINUOUS
 66
     1
 40
0.000000
 41
0.000000
  0
VERTEX
  8
0
  6
CONTINUOUS
 10
4.758160
 20
2.179760
  0
VERTEX
  8
0
  6
CONTINUOUS
 10
5.417720
 20
2.564320
  0
VERTEX
  8
0
  6
CONTINUOUS
 10
5.446320
 20
2.528680
  0
VERTEX
  8
0
  6
CONTINUOUS
 10
4.786320
 20
2.144120
  0
VERTEX
  8
0
  6
CONTINUOUS
 10
4.758160
 20
2.179760
  0
SEQEND
  8
0
  0
SOLID
  8
0
 62
    15
 10
4.786320
 20
2.144120
 11
5.446320
 21
2.528680
 12
4.808320
 22
2.107600
 13
5.467880
 23
2.492160
  0
POLYLINE
  8
0
  6
CONTINUOUS
 66
     1
 40
0.000000
 41
0.000000
  0
VERTEX
  8
0
  6
CONTINUOUS
 10
4.786320
 20
2.144120
  0
VERTEX
  8
0
  6
CONTINUOUS
 10
5.446320
 20
2.528680
  0
VERTEX
  8
0
  6
CONTINUOUS
 10
5.467880
 20
2.492160
  0
VERTEX
  8
0
  6
CONTINUOUS
 10
4.808320
 20
2.107600
  0
VERTEX
  8
0
  6
CONTINUOUS
 10
4.786320
 20
2.144120
  0
SEQEND
  8
0
  0
SOLID
  8
0
 62
    15
 10
4.808320
 20
2.107600
 11
5.467880
 21
2.492160
 12
4.822840
 22
2.070640
 13
5.482400
 23
2.455200
  0
POLYLINE
  8
0
  6
CONTINUOUS
 66
     1
 40
0.000000
 41
0.000000
  0
VERTEX
  8
0
  6
CONTINUOUS
 10
4.808320
 20
2.107600
  0
VERTEX
  8
0
  6
CONTINUOUS
 10
5.467880
 20
2.492160
  0
VERTEX
  8
0
  6
CONTINUOUS
 10
5.482400
 20
2.455200
  0
VERTEX
  8
0
  6
CONTINUOUS
 10
4.822840
 20
2.070640
  0
VERTEX
  8
0
  6
CONTINUOUS
 10
4.808320
 20
2.107600
  0
SEQEND
  8
0
  0
SOLID
  8
0
 62
    15
 10
4.822840
 20
2.070640
 11
5.482400
 21
2.455200
 12
4.829000
 22
2.033240
 13
5.488560
 23
2.417800
  0
POLYLINE
  8
0
  6
CONTINUOUS
 66
     1
 40
0.000000
 41
0.000000
  0
VERTEX
  8
0
  6
CONTINUOUS
 10
4.822840
 20
2.070640
  0
VERTEX
  8
0
  6
CONTINUOUS
 10
5.482400
 20
2.455200
  0
VERTEX
  8
0
  6
CONTINUOUS
 10
5.488560
 20
2.417800
  0
VERTEX
  8
0
  6
CONTINUOUS
 10
4.829000
 20
2.033240
  0
VERTEX
  8
0
  6
CONTINUOUS
 10
4.822840
 20
2.070640
  0
SEQEND
  8
0
  0
SOLID
  8
0
 62
    15
 10
4.829000
 20
2.033240
 11
5.488560
 21
2.417800
 12
4.826800
 22
1.995400
 13
5.486360
 23
2.379960
  0
POLYLINE
  8
0
  6
CONTINUOUS
 66
     1
 40
0.000000
 41
0.000000
  0
VERTEX
  8
0
  6
CONTINUOUS
 10
4.829000
 20
2.033240
  0
VERTEX
  8
0
  6
CONTINUOUS
 10
5.488560
 20
2.417800
  0
VERTEX
  8
0
  6
CONTINUOUS
 10
5.486360
 20
2.379960
  0
VERTEX
  8
0
  6
CONTINUOUS
 10
4.826800
 20
1.995400
  0
VERTEX
  8
0
  6
CONTINUOUS
 10
4.829000
 20
2.033240
  0
SEQEND
  8
0
  0
SOLID
  8
0
 62
    15
 10
4.826800
 20
1.995400
 11
5.486360
 21
2.379960
 12
4.814920
 22
1.956680
 13
5.474920
 23
2.341240
  0
POLYLINE
  8
0
  6
CONTINUOUS
 66
     1
 40
0.000000
 41
0.000000
  0
VERTEX
  8
0
  6
CONTINUOUS
 10
4.826800
 20
1.995400
  0
VERTEX
  8
0
  6
CONTINUOUS
 10
5.486360
 20
2.379960
  0
VERTEX
  8
0
  6
CONTINUOUS
 10
5.474920
 20
2.341240
  0
VERTEX
  8
0
  6
CONTINUOUS
 10
4.814920
 20
1.956680
  0
VERTEX
  8
0
  6
CONTINUOUS
 10
4.826800
 20
1.995400
  0
SEQEND
  8
0
  0
SOLID
  8
0
 62
    15
 10
4.814920
 20
1.956680
 11
5.474920
 21
2.341240
 12
4.793360
 22
1.917960
 13
5.452920
 23
2.302520
  0
POLYLINE
  8
0
  6
CONTINUOUS
 66
     1
 40
0.000000
 41
0.000000
  0
VERTEX
  8
0
  6
CONTINUOUS
 10
4.814920
 20
1.956680
  0
VERTEX
  8
0
  6
CONTINUOUS
 10
5.474920
 20
2.341240
  0
VERTEX
  8
0
  6
CONTINUOUS
 10
5.452920
 20
2.302520
  0
VERTEX
  8
0
  6
CONTINUOUS
 10
4.793360
 20
1.917960
  0
VERTEX
  8
0
  6
CONTINUOUS
 10
4.814920
 20
1.956680
  0
SEQEND
  8
0
  0
SOLID
  8
0
 62
    15
 10
4.793360
 20
1.917960
 11
5.452920
 21
2.302520
 12
4.760800
 22
1.878360
 13
5.420360
 23
2.263360
  0
POLYLINE
  8
0
  6
CONTINUOUS
 66
     1
 40
0.000000
 41
0.000000
  0
VERTEX
  8
0
  6
CONTINUOUS
 10
4.793360
 20
1.917960
  0
VERTEX
  8
0
  6
CONTINUOUS
 10
5.452920
 20
2.302520
  0
VERTEX
  8
0
  6
CONTINUOUS
 10
5.420360
 20
2.263360
  0
VERTEX
  8
0
  6
CONTINUOUS
 10
4.760800
 20
1.878360
  0
VERTEX
  8
0
  6
CONTINUOUS
 10
4.793360
 20
1.917960
  0
SEQEND
  8
0
  0
SOLID
  8
0
 62
    15
 10
4.760800
 20
1.878360
 11
5.420360
 21
2.263360
 12
4.716800
 22
1.839200
 13
5.376360
 23
2.223760
  0
POLYLINE
  8
0
  6
CONTINUOUS
 66
     1
 40
0.000000
 41
0.000000
  0
VERTEX
  8
0
  6
CONTINUOUS
 10
4.760800
 20
1.878360
  0
VERTEX
  8
0
  6
CONTINUOUS
 10
5.420360
 20
2.263360
  0
VERTEX
  8
0
  6
CONTINUOUS
 10
5.376360
 20
2.223760
  0
VERTEX
  8
0
  6
CONTINUOUS
 10
4.716800
 20
1.839200
  0
VERTEX
  8
0
  6
CONTINUOUS
 10
4.760800
 20
1.878360
  0
SEQEND
  8
0
  0
SOLID
  8
0
 62
    15
 10
4.716800
 20
1.839200
 11
5.376360
 21
2.223760
 12
4.660480
 22
1.799600
 13
5.320040
 23
2.184160
  0
POLYLINE
  8
0
  6
CONTINUOUS
 66
     1
 40
0.000000
 41
0.000000
  0
VERTEX
  8
0
  6
CONTINUOUS
 10
4.716800
 20
1.839200
  0
VERTEX
  8
0
  6
CONTINUOUS
 10
5.376360
 20
2.223760
  0
VERTEX
  8
0
  6
CONTINUOUS
 10
5.320040
 20
2.184160
  0
VERTEX
  8
0
  6
CONTINUOUS
 10
4.660480
 20
1.799600
  0
VERTEX
  8
0
  6
CONTINUOUS
 10
4.716800
 20
1.839200
  0
SEQEND
  8
0
  0
SOLID
  8
0
 62
    15
 10
4.660480
 20
1.799600
 11
5.320040
 21
2.184160
 12
4.660480
 22
1.705880
 13
5.320040
 23
2.090880
  0
POLYLINE
  8
0
  6
CONTINUOUS
 66
     1
 40
0.000000
 41
0.000000
  0
VERTEX
  8
0
  6
CONTINUOUS
 10
4.660480
 20
1.799600
  0
VERTEX
  8
0
  6
CONTINUOUS
 10
5.320040
 20
2.184160
  0
VERTEX
  8
0
  6
CONTINUOUS
 10
5.320040
 20
2.090880
  0
VERTEX
  8
0
  6
CONTINUOUS
 10
4.660480
 20
1.705880
  0
VERTEX
  8
0
  6
CONTINUOUS
 10
4.660480
 20
1.799600
  0
SEQEND
  8
0
  0
SOLID
  8
0
 62
    15
 10
4.660480
 20
1.705880
 11
5.320040
 21
2.090880
 12
4.858040
 22
1.705880
 13
5.517600
 23
2.090880
  0
POLYLINE
  8
0
  6
CONTINUOUS
 66
     1
 40
0.000000
 41
0.000000
  0
VERTEX
  8
0
  6
CONTINUOUS
 10
4.660480
 20
1.705880
  0
VERTEX
  8
0
  6
CONTINUOUS
 10
5.320040
 20
2.090880
  0
VERTEX
  8
0
  6
CONTINUOUS
 10
5.517600
 20
2.090880
  0
VERTEX
  8
0
  6
CONTINUOUS
 10
4.858040
 20
1.705880
  0
VERTEX
  8
0
  6
CONTINUOUS
 10
4.660480
 20
1.705880
  0
SEQEND
  8
0
  0
SOLID
  8
0
 62
    15
 10
4.858040
 20
1.705880
 11
5.517600
 21
2.090880
 12
4.858040
 22
0.856680
 13
5.517600
 23
1.241240
  0
POLYLINE
  8
0
  6
CONTINUOUS
 66
     1
 40
0.000000
 41
0.000000
  0
VERTEX
  8
0
  6
CONTINUOUS
 10
4.858040
 20
1.705880
  0
VERTEX
  8
0
  6
CONTINUOUS
 10
5.517600
 20
2.090880
  0
VERTEX
  8
0
  6
CONTINUOUS
 10
5.517600
 20
1.241240
  0
VERTEX
  8
0
  6
CONTINUOUS
 10
4.858040
 20
0.856680
  0
VERTEX
  8
0
  6
CONTINUOUS
 10
4.858040
 20
1.705880
  0
SEQEND
  8
0
  0
SOLID
  8
0
 62
    15
 10
4.057680
 20
3.020600
 11
4.717680
 21
3.405160
 12
4.196720
 22
3.020600
 13
4.856280
 23
3.405160
  0
POLYLINE
  8
0
  6
CONTINUOUS
 66
     1
 40
0.000000
 41
0.000000
  0
VERTEX
  8
0
  6
CONTINUOUS
 10
4.057680
 20
3.020600
  0
VERTEX
  8
0
  6
CONTINUOUS
 10
4.717680
 20
3.405160
  0
VERTEX
  8
0
  6
CONTINUOUS
 10
4.856280
 20
3.405160
  0
VERTEX
  8
0
  6
CONTINUOUS
 10
4.196720
 20
3.020600
  0
VERTEX
  8
0
  6
CONTINUOUS
 10
4.057680
 20
3.020600
  0
SEQEND
  8
0
  0
SOLID
  8
0
 62
    15
 10
4.196720
 20
3.020600
 11
4.856280
 21
3.405160
 12
4.196720
 22
2.910160
 13
4.856280
 23
3.294720
  0
POLYLINE
  8
0
  6
CONTINUOUS
 66
     1
 40
0.000000
 41
0.000000
  0
VERTEX
  8
0
  6
CONTINUOUS
 10
4.196720
 20
3.020600
  0
VERTEX
  8
0
  6
CONTINUOUS
 10
4.856280
 20
3.405160
  0
VERTEX
  8
0
  6
CONTINUOUS
 10
4.856280
 20
3.294720
  0
VERTEX
  8
0
  6
CONTINUOUS
 10
4.196720
 20
2.910160
  0
VERTEX
  8
0
  6
CONTINUOUS
 10
4.196720
 20
3.020600
  0
SEQEND
  8
0
  0
SOLID
  8
0
 62
    15
 10
4.196720
 20
2.910160
 11
4.856280
 21
3.294720
 12
4.195400
 22
2.907520
 13
4.854960
 23
3.292080
  0
POLYLINE
  8
0
  6
CONTINUOUS
 66
     1
 40
0.000000
 41
0.000000
  0
VERTEX
  8
0
  6
CONTINUOUS
 10
4.196720
 20
2.910160
  0
VERTEX
  8
0
  6
CONTINUOUS
 10
4.856280
 20
3.294720
  0
VERTEX
  8
0
  6
CONTINUOUS
 10
4.854960
 20
3.292080
  0
VERTEX
  8
0
  6
CONTINUOUS
 10
4.195400
 20
2.907520
  0
VERTEX
  8
0
  6
CONTINUOUS
 10
4.196720
 20
2.910160
  0
SEQEND
  8
0
  0
POLYLINE
  8
0
  6
CONTINUOUS
 66
     1
 40
0.000000
 41
0.000000
  0
VERTEX
  8
0
  6
CONTINUOUS
 10
4.195400
 20
2.907520
  0
VERTEX
  8
0
  6
CONTINUOUS
 10
4.198480
 20
2.875840
  0
VERTEX
  8
0
  6
CONTINUOUS
 10
4.202000
 20
2.842400
  0
VERTEX
  8
0
  6
CONTINUOUS
 10
4.212120
 20
2.773320
  0
VERTEX
  8
0
  6
CONTINUOUS
 10
4.227520
 20
2.701600
  0
VERTEX
  8
0
  6
CONTINUOUS
 10
4.251280
 20
2.629440
  0
VERTEX
  8
0
  6
CONTINUOUS
 10
4.286040
 20
2.558600
  0
VERTEX
  8
0
  6
CONTINUOUS
 10
4.308480
 20
2.524280
  0
VERTEX
  8
0
  6
CONTINUOUS
 10
4.334880
 20
2.490840
  0
VERTEX
  8
0
  6
CONTINUOUS
 10
4.365680
 20
2.459160
  0
VERTEX
  8
0
  6
CONTINUOUS
 10
4.400440
 20
2.428800
  0
VERTEX
  8
0
  6
CONTINUOUS
 10
4.440480
 20
2.400640
  0
VERTEX
  8
0
  6
CONTINUOUS
 10
4.485800
 20
2.374240
  0
VERTEX
  8
0
  6
CONTINUOUS
 10
4.591400
 20
2.313520
  0
VERTEX
  8
0
  6
CONTINUOUS
 10
4.639360
 20
2.281400
  0
VERTEX
  8
0
  6
CONTINUOUS
 10
4.683800
 20
2.248400
  0
VERTEX
  8
0
  6
CONTINUOUS
 10
4.723400
 20
2.214520
  0
VERTEX
  8
0
  6
CONTINUOUS
 10
4.758160
 20
2.179760
  0
VERTEX
  8
0
  6
CONTINUOUS
 10
4.786320
 20
2.144120
  0
VERTEX
  8
0
  6
CONTINUOUS
 10
4.808320
 20
2.107600
  0
VERTEX
  8
0
  6
CONTINUOUS
 10
4.822840
 20
2.070640
  0
VERTEX
  8
0
  6
CONTINUOUS
 10
4.829000
 20
2.033240
  0
VERTEX
  8
0
  6
CONTINUOUS
 10
4.826800
 20
1.995400
  0
VERTEX
  8
0
  6
CONTINUOUS
 10
4.814920
 20
1.956680
  0
VERTEX
  8
0
  6
CONTINUOUS
 10
4.793360
 20
1.917960
  0
VERTEX
  8
0
  6
CONTINUOUS
 10
4.760800
 20
1.878360
  0
VERTEX
  8
0
  6
CONTINUOUS
 10
4.716800
 20
1.839200
  0
VERTEX
  8
0
  6
CONTINUOUS
 10
4.660480
 20
1.799600
  0
VERTEX
  8
0
  6
CONTINUOUS
 10
4.660480
 20
1.705880
  0
VERTEX
  8
0
  6
CONTINUOUS
 10
4.858040
 20
1.705880
  0
VERTEX
  8
0
  6
CONTINUOUS
 10
4.858040
 20
0.856680
  0
VERTEX
  8
0
  6
CONTINUOUS
 10
4.057680
 20
0.856680
  0
VERTEX
  8
0
  6
CONTINUOUS
 10
4.057680
 20
3.020600
  0
VERTEX
  8
0
  6
CONTINUOUS
 10
4.196720
 20
3.020600
  0
VERTEX
  8
0
  6
CONTINUOUS
 10
4.196720
 20
2.910160
  0
VERTEX
  8
0
  6
CONTINUOUS
 10
4.195400
 20
2.907520
  0
SEQEND
  8
0
  0
TEXT
  8
0
 10
4.538160
 20
0.605880
 40
0.138157
  1
BA  24
 41
1.000000
  7
SN0
 71
     0
 72
     5
 11
5.036130
 21
0.605880
  0
TEXT
  8
0
 10
4.197600
 20
0.414480
 40
0.138157
  1
13/16" x 2-3/16"
 41
1.000000
  7
SN0
 71
     0
 72
     5
 11
5.374549
 21
0.414480
  0
TEXT
  8
0
 10
7.581200
 20
3.377000
 40
0.138157
  1
base
 41
1.000000
  7
SN0
 71
     0
 72
     5
 11
7.941276
 21
3.377000
  0
TEXT
  8
0
 10
7.669200
 20
3.185600
 40
0.138157
  1
24
 41
1.000000
  7
SN0
 71
     0
 72
     5
 11
7.854094
 21
3.185600
  0
ENDSEC
  0
EOF
