  0
SECTION
  2
HEADER
  9
$ACADVER
  1
AC1006
  9
$EXTMIN
 10
3.872000
 20
0.317680
  9
$EXTMAX
 10
8.127680
 20
2.955040
  9
$LTSCALE
 40
0.044000
  9
$PDMODE
 70
    35
  9
$PDSIZE
 40
0.035200
  0
ENDSEC
  0
SECTION
  2
TABLES
  0
TABLE
  2
LTYPE
 70
     9
  0
LTYPE
  2
CONTINUOUS
 70
    64
  3
Solid line
 72
    65
 73
     0
 40
0.000000
  0
LTYPE
  2
DASHED
 70
    64
  3
__ __ __ __ __ __ __ __ __ __ __ __ __ __ __
 72
    65
 73
     2
 40
0.000330
 49
0.000220
 49
-0.000110
  0
LTYPE
  2
HIDDEN
 70
    64
  3
 _ _ _ _ _ _ _ _ _ _ _ _ _ _ _ _ _ _ _ _ _ _
 72
    65
 73
     2
 40
0.000165
 49
0.000110
 49
-0.000055
  0
LTYPE
  2
CENTER
 70
    64
  3
____ _ ____ _ ____ _ ____ _ ____ _ ____ _ ____
 72
    65
 73
     4
 40
0.000880
 49
0.000550
 49
-0.000110
 49
0.000110
 49
-0.000110
  0
LTYPE
  2
PHANTOM
 70
    64
  3
_____ _ _ _____ _ _ _____ _ _ _____ _ _ ____
 72
    65
 73
     6
 40
0.001100
 49
0.000550
 49
-0.000110
 49
0.000110
 49
-0.000110
 49
0.000110
 49
-0.000110
  0
LTYPE
  2
DOT
 70
    64
  3
...............................................
 72
    65
 73
     2
 40
0.000110
 49
0.000000
 49
-0.000110
  0
LTYPE
  2
DASHDOT
 70
    64
  3
__ . __ . __ . __ . __ . __ . __ . __ . __ . __
 72
    65
 73
     4
 40
0.000440
 49
0.000220
 49
-0.000110
 49
0.000000
 49
-0.000110
  0
LTYPE
  2
BORDER
 70
    64
  3
__ __ . __ __ . __ __ . __ __ . __ __ . __ __
 72
    65
 73
     6
 40
0.000770
 49
0.000220
 49
-0.000110
 49
0.000220
 49
-0.000110
 49
0.000000
 49
-0.000110
  0
LTYPE
  2
DIVIDE
 70
    64
  3
__ . . __ . . __ . . __ . . __ . . __ . . __
 72
    65
 73
     6
 40
0.000550
 49
0.000220
 49
-0.000110
 49
0.000000
 49
-0.000110
 49
0.000000
 49
-0.000110
  0
LTYPE
  2
DOTDOT
 70
    64
  3
 . .  . .  . .  . .  . .  . . 
 72
    65
 73
     5
 40
0.000242
 49
-0.000110
 49
0.000000
 49
-0.000110
 49
0.000000
 49
-0.000110
  0
ENDTAB
  0
TABLE
  2
STYLE
 70
     2
  0
STYLE
 70
     0
  2
SN0
 40
0.000000
 41
0.000440
 50
0.000000
 71
     0
 42
0.000000
  3
ROMAND
  0
STYLE
 70
    68
  2
SV0
 40
0.000000
 41
0.000440
 50
0.000000
 71
     0
 42
0.000000
  3
ROMAND
  0
ENDTAB
  0
TABLE
  2
LAYER
 70
     3
  0
LAYER
  2
FOREGROUND
 70
    64
 62
     7
  6
CONTINUOUS
  0
LAYER
  2
BACKGROUND
 70
    65
 62
    -7
  6
CONTINUOUS
  0
LAYER
  2
0
 70
    64
 62
     7
  6
CONTINUOUS
  0
ENDTAB
  0
ENDSEC
  0
SECTION
  2
ENTITIES
  0
POLYLINE
  8
FOREGROUND
  6
CONTINUOUS
 66
     1
 40
0.000000
 41
0.000000
  0
VERTEX
  8
FOREGROUND
  6
CONTINUOUS
 10
0.000000
 20
3.272720
  0
VERTEX
  8
FOREGROUND
  6
CONTINUOUS
 10
8.499920
 20
3.272720
  0
VERTEX
  8
FOREGROUND
  6
CONTINUOUS
 10
8.499920
 20
-7.727280
  0
VERTEX
  8
FOREGROUND
  6
CONTINUOUS
 10
0.000000
 20
-7.727280
  0
VERTEX
  8
FOREGROUND
  6
CONTINUOUS
 10
0.000000
 20
3.272720
  0
SEQEND
  8
0
  0
POLYLINE
  8
FOREGROUND
  6
CONTINUOUS
 66
     1
 40
0.000000
 41
0.000000
  0
VERTEX
  8
FOREGROUND
  6
CONTINUOUS
 10
0.000000
 20
3.272720
  0
VERTEX
  8
FOREGROUND
  6
CONTINUOUS
 10
8.499920
 20
3.272720
  0
VERTEX
  8
FOREGROUND
  6
CONTINUOUS
 10
8.499920
 20
-7.727280
  0
VERTEX
  8
FOREGROUND
  6
CONTINUOUS
 10
0.000000
 20
-7.727280
  0
VERTEX
  8
FOREGROUND
  6
CONTINUOUS
 10
0.000000
 20
3.272720
  0
SEQEND
  8
0
  0
POLYLINE
  8
0
  6
CONTINUOUS
 66
     1
 40
0.013200
 41
0.013200
  0
VERTEX
  8
0
  6
CONTINUOUS
 10
4.204640
 20
2.324080
  0
VERTEX
  8
0
  6
CONTINUOUS
 10
4.185280
 20
2.297680
  0
VERTEX
  8
0
  6
CONTINUOUS
 10
4.160200
 20
2.255880
  0
VERTEX
  8
0
  6
CONTINUOUS
 10
4.146120
 20
2.226840
  0
VERTEX
  8
0
  6
CONTINUOUS
 10
4.130720
 20
2.181520
  0
VERTEX
  8
0
  6
CONTINUOUS
 10
4.123680
 20
2.150280
  0
VERTEX
  8
0
  6
CONTINUOUS
 10
4.120160
 20
2.118600
  0
VERTEX
  8
0
  6
CONTINUOUS
 10
4.119720
 20
2.086040
  0
VERTEX
  8
0
  6
CONTINUOUS
 10
4.123240
 20
2.053040
  0
VERTEX
  8
0
  6
CONTINUOUS
 10
4.130720
 20
2.019600
  0
VERTEX
  8
0
  6
CONTINUOUS
 10
4.142600
 20
1.986160
  0
VERTEX
  8
0
  6
CONTINUOUS
 10
4.158880
 20
1.952280
  0
VERTEX
  8
0
  6
CONTINUOUS
 10
4.179560
 20
1.917960
  0
VERTEX
  8
0
  6
CONTINUOUS
 10
4.220040
 20
1.866480
  0
VERTEX
  8
0
  6
CONTINUOUS
 10
4.272840
 20
1.815000
  0
VERTEX
  8
0
  6
CONTINUOUS
 10
4.315080
 20
1.782440
  0
VERTEX
  8
0
  6
CONTINUOUS
 10
4.351160
 20
1.749000
  0
VERTEX
  8
0
  6
CONTINUOUS
 10
4.381520
 20
1.715560
  0
VERTEX
  8
0
  6
CONTINUOUS
 10
4.406600
 20
1.681680
  0
VERTEX
  8
0
  6
CONTINUOUS
 10
4.425960
 20
1.648240
  0
VERTEX
  8
0
  6
CONTINUOUS
 10
4.439600
 20
1.614360
  0
VERTEX
  8
0
  6
CONTINUOUS
 10
4.444440
 20
1.597640
  0
VERTEX
  8
0
  6
CONTINUOUS
 10
4.449720
 20
1.564200
  0
VERTEX
  8
0
  6
CONTINUOUS
 10
4.450600
 20
1.547480
  0
VERTEX
  8
0
  6
CONTINUOUS
 10
4.447520
 20
1.514480
  0
VERTEX
  8
0
  6
CONTINUOUS
 10
4.444440
 20
1.498200
  0
VERTEX
  8
0
  6
CONTINUOUS
 10
4.433440
 20
1.465640
  0
VERTEX
  8
0
  6
CONTINUOUS
 10
4.417600
 20
1.433960
  0
VERTEX
  8
0
  6
CONTINUOUS
 10
4.396480
 20
1.403160
  0
VERTEX
  8
0
  6
CONTINUOUS
 10
4.370080
 20
1.373240
  0
VERTEX
  8
0
  6
CONTINUOUS
 10
4.338840
 20
1.344200
  0
VERTEX
  8
0
  6
CONTINUOUS
 10
4.279440
 20
1.300200
  0
VERTEX
  8
0
  6
CONTINUOUS
 10
4.279440
 20
1.277760
  0
VERTEX
  8
0
  6
CONTINUOUS
 10
4.511320
 20
1.277320
  0
VERTEX
  8
0
  6
CONTINUOUS
 10
4.508680
 20
1.272040
  0
VERTEX
  8
0
  6
CONTINUOUS
 10
4.450160
 20
0.925320
  0
VERTEX
  8
0
  6
CONTINUOUS
 10
3.872880
 20
0.925760
  0
VERTEX
  8
0
  6
CONTINUOUS
 10
3.872880
 20
2.620200
  0
VERTEX
  8
0
  6
CONTINUOUS
 10
4.052840
 20
2.620200
  0
VERTEX
  8
0
  6
CONTINUOUS
 10
4.055480
 20
2.617560
  0
VERTEX
  8
0
  6
CONTINUOUS
 10
4.204640
 20
2.332000
  0
VERTEX
  8
0
  6
CONTINUOUS
 10
4.204640
 20
2.324080
  0
SEQEND
  8
0
  0
SOLID
  8
0
 62
     7
 10
5.881920
 20
1.523720
 11
6.512000
 21
1.885840
 12
5.895560
 22
1.489840
 13
6.525640
 23
1.851960
  0
POLYLINE
  8
0
  6
CONTINUOUS
 66
     1
 40
0.000000
 41
0.000000
  0
VERTEX
  8
0
  6
CONTINUOUS
 10
5.881920
 20
1.523720
  0
VERTEX
  8
0
  6
CONTINUOUS
 10
6.512000
 20
1.885840
  0
VERTEX
  8
0
  6
CONTINUOUS
 10
6.525640
 20
1.851960
  0
VERTEX
  8
0
  6
CONTINUOUS
 10
5.895560
 20
1.489840
  0
VERTEX
  8
0
  6
CONTINUOUS
 10
5.881920
 20
1.523720
  0
SEQEND
  8
0
  0
SOLID
  8
0
 62
    15
 10
5.624080
 20
2.145440
 11
6.254160
 21
2.508000
 12
5.596360
 22
2.087360
 13
6.226440
 23
2.449480
  0
POLYLINE
  8
0
  6
CONTINUOUS
 66
     1
 40
0.000000
 41
0.000000
  0
VERTEX
  8
0
  6
CONTINUOUS
 10
5.624080
 20
2.145440
  0
VERTEX
  8
0
  6
CONTINUOUS
 10
6.254160
 20
2.508000
  0
VERTEX
  8
0
  6
CONTINUOUS
 10
6.226440
 20
2.449480
  0
VERTEX
  8
0
  6
CONTINUOUS
 10
5.596360
 20
2.087360
  0
VERTEX
  8
0
  6
CONTINUOUS
 10
5.624080
 20
2.145440
  0
SEQEND
  8
0
  0
SOLID
  8
0
 62
    15
 10
5.596360
 20
2.087360
 11
6.226440
 21
2.449480
 12
5.586680
 22
2.057000
 13
6.216320
 23
2.419120
  0
POLYLINE
  8
0
  6
CONTINUOUS
 66
     1
 40
0.000000
 41
0.000000
  0
VERTEX
  8
0
  6
CONTINUOUS
 10
5.596360
 20
2.087360
  0
VERTEX
  8
0
  6
CONTINUOUS
 10
6.226440
 20
2.449480
  0
VERTEX
  8
0
  6
CONTINUOUS
 10
6.216320
 20
2.419120
  0
VERTEX
  8
0
  6
CONTINUOUS
 10
5.586680
 20
2.057000
  0
VERTEX
  8
0
  6
CONTINUOUS
 10
5.596360
 20
2.087360
  0
SEQEND
  8
0
  0
SOLID
  8
0
 62
    15
 10
5.586680
 20
2.057000
 11
6.216320
 21
2.419120
 12
5.579640
 22
2.025760
 13
6.209720
 23
2.388320
  0
POLYLINE
  8
0
  6
CONTINUOUS
 66
     1
 40
0.000000
 41
0.000000
  0
VERTEX
  8
0
  6
CONTINUOUS
 10
5.586680
 20
2.057000
  0
VERTEX
  8
0
  6
CONTINUOUS
 10
6.216320
 20
2.419120
  0
VERTEX
  8
0
  6
CONTINUOUS
 10
6.209720
 20
2.388320
  0
VERTEX
  8
0
  6
CONTINUOUS
 10
5.579640
 20
2.025760
  0
VERTEX
  8
0
  6
CONTINUOUS
 10
5.586680
 20
2.057000
  0
SEQEND
  8
0
  0
SOLID
  8
0
 62
    15
 10
5.579640
 20
2.025760
 11
6.209720
 21
2.388320
 12
5.576120
 22
1.994080
 13
6.206200
 23
2.356200
  0
POLYLINE
  8
0
  6
CONTINUOUS
 66
     1
 40
0.000000
 41
0.000000
  0
VERTEX
  8
0
  6
CONTINUOUS
 10
5.579640
 20
2.025760
  0
VERTEX
  8
0
  6
CONTINUOUS
 10
6.209720
 20
2.388320
  0
VERTEX
  8
0
  6
CONTINUOUS
 10
6.206200
 20
2.356200
  0
VERTEX
  8
0
  6
CONTINUOUS
 10
5.576120
 20
1.994080
  0
VERTEX
  8
0
  6
CONTINUOUS
 10
5.579640
 20
2.025760
  0
SEQEND
  8
0
  0
SOLID
  8
0
 62
    15
 10
5.576120
 20
1.994080
 11
6.206200
 21
2.356200
 12
5.575680
 22
1.961520
 13
6.205760
 23
2.324080
  0
POLYLINE
  8
0
  6
CONTINUOUS
 66
     1
 40
0.000000
 41
0.000000
  0
VERTEX
  8
0
  6
CONTINUOUS
 10
5.576120
 20
1.994080
  0
VERTEX
  8
0
  6
CONTINUOUS
 10
6.206200
 20
2.356200
  0
VERTEX
  8
0
  6
CONTINUOUS
 10
6.205760
 20
2.324080
  0
VERTEX
  8
0
  6
CONTINUOUS
 10
5.575680
 20
1.961520
  0
VERTEX
  8
0
  6
CONTINUOUS
 10
5.576120
 20
1.994080
  0
SEQEND
  8
0
  0
SOLID
  8
0
 62
    15
 10
5.575680
 20
1.961520
 11
6.205760
 21
2.324080
 12
5.579200
 22
1.928520
 13
6.209280
 23
2.291080
  0
POLYLINE
  8
0
  6
CONTINUOUS
 66
     1
 40
0.000000
 41
0.000000
  0
VERTEX
  8
0
  6
CONTINUOUS
 10
5.575680
 20
1.961520
  0
VERTEX
  8
0
  6
CONTINUOUS
 10
6.205760
 20
2.324080
  0
VERTEX
  8
0
  6
CONTINUOUS
 10
6.209280
 20
2.291080
  0
VERTEX
  8
0
  6
CONTINUOUS
 10
5.579200
 20
1.928520
  0
VERTEX
  8
0
  6
CONTINUOUS
 10
5.575680
 20
1.961520
  0
SEQEND
  8
0
  0
SOLID
  8
0
 62
     7
 10
5.579200
 20
1.928520
 11
6.209280
 21
2.291080
 12
5.586680
 22
1.895080
 13
6.216760
 23
2.257640
  0
POLYLINE
  8
0
  6
CONTINUOUS
 66
     1
 40
0.000000
 41
0.000000
  0
VERTEX
  8
0
  6
CONTINUOUS
 10
5.579200
 20
1.928520
  0
VERTEX
  8
0
  6
CONTINUOUS
 10
6.209280
 20
2.291080
  0
VERTEX
  8
0
  6
CONTINUOUS
 10
6.216760
 20
2.257640
  0
VERTEX
  8
0
  6
CONTINUOUS
 10
5.586680
 20
1.895080
  0
VERTEX
  8
0
  6
CONTINUOUS
 10
5.579200
 20
1.928520
  0
SEQEND
  8
0
  0
SOLID
  8
0
 62
     7
 10
5.586680
 20
1.895080
 11
6.216760
 21
2.257640
 12
5.598560
 22
1.861640
 13
6.228640
 23
2.223760
  0
POLYLINE
  8
0
  6
CONTINUOUS
 66
     1
 40
0.000000
 41
0.000000
  0
VERTEX
  8
0
  6
CONTINUOUS
 10
5.586680
 20
1.895080
  0
VERTEX
  8
0
  6
CONTINUOUS
 10
6.216760
 20
2.257640
  0
VERTEX
  8
0
  6
CONTINUOUS
 10
6.228640
 20
2.223760
  0
VERTEX
  8
0
  6
CONTINUOUS
 10
5.598560
 20
1.861640
  0
VERTEX
  8
0
  6
CONTINUOUS
 10
5.586680
 20
1.895080
  0
SEQEND
  8
0
  0
SOLID
  8
0
 62
     7
 10
5.598560
 20
1.861640
 11
6.228640
 21
2.223760
 12
5.614400
 22
1.827760
 13
6.244480
 23
2.189880
  0
POLYLINE
  8
0
  6
CONTINUOUS
 66
     1
 40
0.000000
 41
0.000000
  0
VERTEX
  8
0
  6
CONTINUOUS
 10
5.598560
 20
1.861640
  0
VERTEX
  8
0
  6
CONTINUOUS
 10
6.228640
 20
2.223760
  0
VERTEX
  8
0
  6
CONTINUOUS
 10
6.244480
 20
2.189880
  0
VERTEX
  8
0
  6
CONTINUOUS
 10
5.614400
 20
1.827760
  0
VERTEX
  8
0
  6
CONTINUOUS
 10
5.598560
 20
1.861640
  0
SEQEND
  8
0
  0
SOLID
  8
0
 62
     7
 10
5.614400
 20
1.827760
 11
6.244480
 21
2.189880
 12
5.635520
 22
1.793440
 13
6.265600
 23
2.155560
  0
POLYLINE
  8
0
  6
CONTINUOUS
 66
     1
 40
0.000000
 41
0.000000
  0
VERTEX
  8
0
  6
CONTINUOUS
 10
5.614400
 20
1.827760
  0
VERTEX
  8
0
  6
CONTINUOUS
 10
6.244480
 20
2.189880
  0
VERTEX
  8
0
  6
CONTINUOUS
 10
6.265600
 20
2.155560
  0
VERTEX
  8
0
  6
CONTINUOUS
 10
5.635520
 20
1.793440
  0
VERTEX
  8
0
  6
CONTINUOUS
 10
5.614400
 20
1.827760
  0
SEQEND
  8
0
  0
SOLID
  8
0
 62
     7
 10
5.635520
 20
1.793440
 11
6.265600
 21
2.155560
 12
5.661480
 22
1.759120
 13
6.291120
 23
2.121240
  0
POLYLINE
  8
0
  6
CONTINUOUS
 66
     1
 40
0.000000
 41
0.000000
  0
VERTEX
  8
0
  6
CONTINUOUS
 10
5.635520
 20
1.793440
  0
VERTEX
  8
0
  6
CONTINUOUS
 10
6.265600
 20
2.155560
  0
VERTEX
  8
0
  6
CONTINUOUS
 10
6.291120
 20
2.121240
  0
VERTEX
  8
0
  6
CONTINUOUS
 10
5.661480
 20
1.759120
  0
VERTEX
  8
0
  6
CONTINUOUS
 10
5.635520
 20
1.793440
  0
SEQEND
  8
0
  0
SOLID
  8
0
 62
     7
 10
5.661480
 20
1.759120
 11
6.291120
 21
2.121240
 12
5.692280
 22
1.724800
 13
6.322360
 23
2.086920
  0
POLYLINE
  8
0
  6
CONTINUOUS
 66
     1
 40
0.000000
 41
0.000000
  0
VERTEX
  8
0
  6
CONTINUOUS
 10
5.661480
 20
1.759120
  0
VERTEX
  8
0
  6
CONTINUOUS
 10
6.291120
 20
2.121240
  0
VERTEX
  8
0
  6
CONTINUOUS
 10
6.322360
 20
2.086920
  0
VERTEX
  8
0
  6
CONTINUOUS
 10
5.692280
 20
1.724800
  0
VERTEX
  8
0
  6
CONTINUOUS
 10
5.661480
 20
1.759120
  0
SEQEND
  8
0
  0
SOLID
  8
0
 62
     7
 10
5.692280
 20
1.724800
 11
6.322360
 21
2.086920
 12
5.728800
 22
1.690480
 13
6.358880
 23
2.052600
  0
POLYLINE
  8
0
  6
CONTINUOUS
 66
     1
 40
0.000000
 41
0.000000
  0
VERTEX
  8
0
  6
CONTINUOUS
 10
5.692280
 20
1.724800
  0
VERTEX
  8
0
  6
CONTINUOUS
 10
6.322360
 20
2.086920
  0
VERTEX
  8
0
  6
CONTINUOUS
 10
6.358880
 20
2.052600
  0
VERTEX
  8
0
  6
CONTINUOUS
 10
5.728800
 20
1.690480
  0
VERTEX
  8
0
  6
CONTINUOUS
 10
5.692280
 20
1.724800
  0
SEQEND
  8
0
  0
SOLID
  8
0
 62
    15
 10
5.728800
 20
1.690480
 11
6.358880
 21
2.052600
 12
5.771040
 22
1.657480
 13
6.400680
 23
2.020040
  0
POLYLINE
  8
0
  6
CONTINUOUS
 66
     1
 40
0.000000
 41
0.000000
  0
VERTEX
  8
0
  6
CONTINUOUS
 10
5.728800
 20
1.690480
  0
VERTEX
  8
0
  6
CONTINUOUS
 10
6.358880
 20
2.052600
  0
VERTEX
  8
0
  6
CONTINUOUS
 10
6.400680
 20
2.020040
  0
VERTEX
  8
0
  6
CONTINUOUS
 10
5.771040
 20
1.657480
  0
VERTEX
  8
0
  6
CONTINUOUS
 10
5.728800
 20
1.690480
  0
SEQEND
  8
0
  0
SOLID
  8
0
 62
     7
 10
5.771040
 20
1.657480
 11
6.400680
 21
2.020040
 12
5.807120
 22
1.624480
 13
6.437200
 23
1.986600
  0
POLYLINE
  8
0
  6
CONTINUOUS
 66
     1
 40
0.000000
 41
0.000000
  0
VERTEX
  8
0
  6
CONTINUOUS
 10
5.771040
 20
1.657480
  0
VERTEX
  8
0
  6
CONTINUOUS
 10
6.400680
 20
2.020040
  0
VERTEX
  8
0
  6
CONTINUOUS
 10
6.437200
 20
1.986600
  0
VERTEX
  8
0
  6
CONTINUOUS
 10
5.807120
 20
1.624480
  0
VERTEX
  8
0
  6
CONTINUOUS
 10
5.771040
 20
1.657480
  0
SEQEND
  8
0
  0
SOLID
  8
0
 62
     7
 10
5.807120
 20
1.624480
 11
6.437200
 21
1.986600
 12
5.837480
 22
1.591040
 13
6.467560
 23
1.953160
  0
POLYLINE
  8
0
  6
CONTINUOUS
 66
     1
 40
0.000000
 41
0.000000
  0
VERTEX
  8
0
  6
CONTINUOUS
 10
5.807120
 20
1.624480
  0
VERTEX
  8
0
  6
CONTINUOUS
 10
6.437200
 20
1.986600
  0
VERTEX
  8
0
  6
CONTINUOUS
 10
6.467560
 20
1.953160
  0
VERTEX
  8
0
  6
CONTINUOUS
 10
5.837480
 20
1.591040
  0
VERTEX
  8
0
  6
CONTINUOUS
 10
5.807120
 20
1.624480
  0
SEQEND
  8
0
  0
SOLID
  8
0
 62
     7
 10
5.837480
 20
1.591040
 11
6.467560
 21
1.953160
 12
5.862560
 22
1.557160
 13
6.492640
 23
1.919720
  0
POLYLINE
  8
0
  6
CONTINUOUS
 66
     1
 40
0.000000
 41
0.000000
  0
VERTEX
  8
0
  6
CONTINUOUS
 10
5.837480
 20
1.591040
  0
VERTEX
  8
0
  6
CONTINUOUS
 10
6.467560
 20
1.953160
  0
VERTEX
  8
0
  6
CONTINUOUS
 10
6.492640
 20
1.919720
  0
VERTEX
  8
0
  6
CONTINUOUS
 10
5.862560
 20
1.557160
  0
VERTEX
  8
0
  6
CONTINUOUS
 10
5.837480
 20
1.591040
  0
SEQEND
  8
0
  0
SOLID
  8
0
 62
     7
 10
5.862560
 20
1.557160
 11
6.492640
 21
1.919720
 12
5.881920
 22
1.523720
 13
6.512000
 23
1.885840
  0
POLYLINE
  8
0
  6
CONTINUOUS
 66
     1
 40
0.000000
 41
0.000000
  0
VERTEX
  8
0
  6
CONTINUOUS
 10
5.862560
 20
1.557160
  0
VERTEX
  8
0
  6
CONTINUOUS
 10
6.492640
 20
1.919720
  0
VERTEX
  8
0
  6
CONTINUOUS
 10
6.512000
 20
1.885840
  0
VERTEX
  8
0
  6
CONTINUOUS
 10
5.881920
 20
1.523720
  0
VERTEX
  8
0
  6
CONTINUOUS
 10
5.862560
 20
1.557160
  0
SEQEND
  8
0
  0
SOLID
  8
0
 62
    15
 10
5.660600
 20
2.199560
 11
6.290680
 21
2.562120
 12
5.624080
 22
2.145440
 13
6.254160
 23
2.508000
  0
POLYLINE
  8
0
  6
CONTINUOUS
 66
     1
 40
0.000000
 41
0.000000
  0
VERTEX
  8
0
  6
CONTINUOUS
 10
5.660600
 20
2.199560
  0
VERTEX
  8
0
  6
CONTINUOUS
 10
6.290680
 20
2.562120
  0
VERTEX
  8
0
  6
CONTINUOUS
 10
6.254160
 20
2.508000
  0
VERTEX
  8
0
  6
CONTINUOUS
 10
5.624080
 20
2.145440
  0
VERTEX
  8
0
  6
CONTINUOUS
 10
5.660600
 20
2.199560
  0
SEQEND
  8
0
  0
SOLID
  8
0
 62
    15
 10
5.895560
 20
1.489840
 11
6.525640
 21
1.851960
 12
5.903480
 22
1.456400
 13
6.533560
 23
1.818520
  0
POLYLINE
  8
0
  6
CONTINUOUS
 66
     1
 40
0.000000
 41
0.000000
  0
VERTEX
  8
0
  6
CONTINUOUS
 10
5.895560
 20
1.489840
  0
VERTEX
  8
0
  6
CONTINUOUS
 10
6.525640
 20
1.851960
  0
VERTEX
  8
0
  6
CONTINUOUS
 10
6.533560
 20
1.818520
  0
VERTEX
  8
0
  6
CONTINUOUS
 10
5.903480
 20
1.456400
  0
VERTEX
  8
0
  6
CONTINUOUS
 10
5.895560
 20
1.489840
  0
SEQEND
  8
0
  0
SOLID
  8
0
 62
    15
 10
5.903480
 20
1.456400
 11
6.533560
 21
1.818520
 12
5.906560
 22
1.422960
 13
6.536200
 23
1.785080
  0
POLYLINE
  8
0
  6
CONTINUOUS
 66
     1
 40
0.000000
 41
0.000000
  0
VERTEX
  8
0
  6
CONTINUOUS
 10
5.903480
 20
1.456400
  0
VERTEX
  8
0
  6
CONTINUOUS
 10
6.533560
 20
1.818520
  0
VERTEX
  8
0
  6
CONTINUOUS
 10
6.536200
 20
1.785080
  0
VERTEX
  8
0
  6
CONTINUOUS
 10
5.906560
 20
1.422960
  0
VERTEX
  8
0
  6
CONTINUOUS
 10
5.903480
 20
1.456400
  0
SEQEND
  8
0
  0
SOLID
  8
0
 62
    15
 10
5.906560
 20
1.422960
 11
6.536200
 21
1.785080
 12
5.903920
 22
1.389960
 13
6.533560
 23
1.752080
  0
POLYLINE
  8
0
  6
CONTINUOUS
 66
     1
 40
0.000000
 41
0.000000
  0
VERTEX
  8
0
  6
CONTINUOUS
 10
5.906560
 20
1.422960
  0
VERTEX
  8
0
  6
CONTINUOUS
 10
6.536200
 20
1.785080
  0
VERTEX
  8
0
  6
CONTINUOUS
 10
6.533560
 20
1.752080
  0
VERTEX
  8
0
  6
CONTINUOUS
 10
5.903920
 20
1.389960
  0
VERTEX
  8
0
  6
CONTINUOUS
 10
5.906560
 20
1.422960
  0
SEQEND
  8
0
  0
SOLID
  8
0
 62
    15
 10
5.903920
 20
1.389960
 11
6.533560
 21
1.752080
 12
5.895560
 22
1.357400
 13
6.525640
 23
1.719520
  0
POLYLINE
  8
0
  6
CONTINUOUS
 66
     1
 40
0.000000
 41
0.000000
  0
VERTEX
  8
0
  6
CONTINUOUS
 10
5.903920
 20
1.389960
  0
VERTEX
  8
0
  6
CONTINUOUS
 10
6.533560
 20
1.752080
  0
VERTEX
  8
0
  6
CONTINUOUS
 10
6.525640
 20
1.719520
  0
VERTEX
  8
0
  6
CONTINUOUS
 10
5.895560
 20
1.357400
  0
VERTEX
  8
0
  6
CONTINUOUS
 10
5.903920
 20
1.389960
  0
SEQEND
  8
0
  0
SOLID
  8
0
 62
    15
 10
5.895560
 20
1.357400
 11
6.525640
 21
1.719520
 12
5.882360
 22
1.325280
 13
6.512440
 23
1.687840
  0
POLYLINE
  8
0
  6
CONTINUOUS
 66
     1
 40
0.000000
 41
0.000000
  0
VERTEX
  8
0
  6
CONTINUOUS
 10
5.895560
 20
1.357400
  0
VERTEX
  8
0
  6
CONTINUOUS
 10
6.525640
 20
1.719520
  0
VERTEX
  8
0
  6
CONTINUOUS
 10
6.512440
 20
1.687840
  0
VERTEX
  8
0
  6
CONTINUOUS
 10
5.882360
 20
1.325280
  0
VERTEX
  8
0
  6
CONTINUOUS
 10
5.895560
 20
1.357400
  0
SEQEND
  8
0
  0
SOLID
  8
0
 62
    15
 10
5.882360
 20
1.325280
 11
6.512440
 21
1.687840
 12
5.863880
 22
1.294040
 13
6.493960
 23
1.656600
  0
POLYLINE
  8
0
  6
CONTINUOUS
 66
     1
 40
0.000000
 41
0.000000
  0
VERTEX
  8
0
  6
CONTINUOUS
 10
5.882360
 20
1.325280
  0
VERTEX
  8
0
  6
CONTINUOUS
 10
6.512440
 20
1.687840
  0
VERTEX
  8
0
  6
CONTINUOUS
 10
6.493960
 20
1.656600
  0
VERTEX
  8
0
  6
CONTINUOUS
 10
5.863880
 20
1.294040
  0
VERTEX
  8
0
  6
CONTINUOUS
 10
5.882360
 20
1.325280
  0
SEQEND
  8
0
  0
SOLID
  8
0
 62
    15
 10
5.863880
 20
1.294040
 11
6.493960
 21
1.656600
 12
5.840120
 22
1.263680
 13
6.470200
 23
1.626240
  0
POLYLINE
  8
0
  6
CONTINUOUS
 66
     1
 40
0.000000
 41
0.000000
  0
VERTEX
  8
0
  6
CONTINUOUS
 10
5.863880
 20
1.294040
  0
VERTEX
  8
0
  6
CONTINUOUS
 10
6.493960
 20
1.656600
  0
VERTEX
  8
0
  6
CONTINUOUS
 10
6.470200
 20
1.626240
  0
VERTEX
  8
0
  6
CONTINUOUS
 10
5.840120
 20
1.263680
  0
VERTEX
  8
0
  6
CONTINUOUS
 10
5.863880
 20
1.294040
  0
SEQEND
  8
0
  0
SOLID
  8
0
 62
    15
 10
5.840120
 20
1.263680
 11
6.470200
 21
1.626240
 12
5.811080
 22
1.234200
 13
6.441160
 23
1.596760
  0
POLYLINE
  8
0
  6
CONTINUOUS
 66
     1
 40
0.000000
 41
0.000000
  0
VERTEX
  8
0
  6
CONTINUOUS
 10
5.840120
 20
1.263680
  0
VERTEX
  8
0
  6
CONTINUOUS
 10
6.470200
 20
1.626240
  0
VERTEX
  8
0
  6
CONTINUOUS
 10
6.441160
 20
1.596760
  0
VERTEX
  8
0
  6
CONTINUOUS
 10
5.811080
 20
1.234200
  0
VERTEX
  8
0
  6
CONTINUOUS
 10
5.840120
 20
1.263680
  0
SEQEND
  8
0
  0
SOLID
  8
0
 62
    15
 10
5.811080
 20
1.234200
 11
6.441160
 21
1.596760
 12
5.777200
 22
1.205600
 13
6.407280
 23
1.568160
  0
POLYLINE
  8
0
  6
CONTINUOUS
 66
     1
 40
0.000000
 41
0.000000
  0
VERTEX
  8
0
  6
CONTINUOUS
 10
5.811080
 20
1.234200
  0
VERTEX
  8
0
  6
CONTINUOUS
 10
6.441160
 20
1.596760
  0
VERTEX
  8
0
  6
CONTINUOUS
 10
6.407280
 20
1.568160
  0
VERTEX
  8
0
  6
CONTINUOUS
 10
5.777200
 20
1.205600
  0
VERTEX
  8
0
  6
CONTINUOUS
 10
5.811080
 20
1.234200
  0
SEQEND
  8
0
  0
SOLID
  8
0
 62
    15
 10
5.777200
 20
1.205600
 11
6.407280
 21
1.568160
 12
5.738040
 22
1.178320
 13
6.368120
 23
1.540880
  0
POLYLINE
  8
0
  6
CONTINUOUS
 66
     1
 40
0.000000
 41
0.000000
  0
VERTEX
  8
0
  6
CONTINUOUS
 10
5.777200
 20
1.205600
  0
VERTEX
  8
0
  6
CONTINUOUS
 10
6.407280
 20
1.568160
  0
VERTEX
  8
0
  6
CONTINUOUS
 10
6.368120
 20
1.540880
  0
VERTEX
  8
0
  6
CONTINUOUS
 10
5.738040
 20
1.178320
  0
VERTEX
  8
0
  6
CONTINUOUS
 10
5.777200
 20
1.205600
  0
SEQEND
  8
0
  0
SOLID
  8
0
 62
    15
 10
5.738040
 20
1.178320
 11
6.368120
 21
1.540880
 12
5.735400
 22
1.175680
 13
6.365480
 23
1.538240
  0
POLYLINE
  8
0
  6
CONTINUOUS
 66
     1
 40
0.000000
 41
0.000000
  0
VERTEX
  8
0
  6
CONTINUOUS
 10
5.738040
 20
1.178320
  0
VERTEX
  8
0
  6
CONTINUOUS
 10
6.368120
 20
1.540880
  0
VERTEX
  8
0
  6
CONTINUOUS
 10
6.365480
 20
1.538240
  0
VERTEX
  8
0
  6
CONTINUOUS
 10
5.735400
 20
1.175680
  0
VERTEX
  8
0
  6
CONTINUOUS
 10
5.738040
 20
1.178320
  0
SEQEND
  8
0
  0
SOLID
  8
0
 62
    15
 10
5.735400
 20
1.175680
 11
6.365480
 21
1.538240
 12
5.735400
 22
1.153240
 13
6.365480
 23
1.515360
  0
POLYLINE
  8
0
  6
CONTINUOUS
 66
     1
 40
0.000000
 41
0.000000
  0
VERTEX
  8
0
  6
CONTINUOUS
 10
5.735400
 20
1.175680
  0
VERTEX
  8
0
  6
CONTINUOUS
 10
6.365480
 20
1.538240
  0
VERTEX
  8
0
  6
CONTINUOUS
 10
6.365480
 20
1.515360
  0
VERTEX
  8
0
  6
CONTINUOUS
 10
5.735400
 20
1.153240
  0
VERTEX
  8
0
  6
CONTINUOUS
 10
5.735400
 20
1.175680
  0
SEQEND
  8
0
  0
SOLID
  8
0
 62
    15
 10
5.735400
 20
1.153240
 11
6.365480
 21
1.515360
 12
5.967280
 22
1.153240
 13
6.597360
 23
1.515360
  0
POLYLINE
  8
0
  6
CONTINUOUS
 66
     1
 40
0.000000
 41
0.000000
  0
VERTEX
  8
0
  6
CONTINUOUS
 10
5.735400
 20
1.153240
  0
VERTEX
  8
0
  6
CONTINUOUS
 10
6.365480
 20
1.515360
  0
VERTEX
  8
0
  6
CONTINUOUS
 10
6.597360
 20
1.515360
  0
VERTEX
  8
0
  6
CONTINUOUS
 10
5.967280
 20
1.153240
  0
VERTEX
  8
0
  6
CONTINUOUS
 10
5.735400
 20
1.153240
  0
SEQEND
  8
0
  0
SOLID
  8
0
 62
    15
 10
5.967280
 20
1.153240
 11
6.597360
 21
1.515360
 12
5.964640
 22
1.147520
 13
6.594720
 23
1.510080
  0
POLYLINE
  8
0
  6
CONTINUOUS
 66
     1
 40
0.000000
 41
0.000000
  0
VERTEX
  8
0
  6
CONTINUOUS
 10
5.967280
 20
1.153240
  0
VERTEX
  8
0
  6
CONTINUOUS
 10
6.597360
 20
1.515360
  0
VERTEX
  8
0
  6
CONTINUOUS
 10
6.594720
 20
1.510080
  0
VERTEX
  8
0
  6
CONTINUOUS
 10
5.964640
 20
1.147520
  0
VERTEX
  8
0
  6
CONTINUOUS
 10
5.967280
 20
1.153240
  0
SEQEND
  8
0
  0
SOLID
  8
0
 62
    15
 10
5.964640
 20
1.147520
 11
6.594720
 21
1.510080
 12
5.906120
 22
0.801240
 13
6.536200
 23
1.163360
  0
POLYLINE
  8
0
  6
CONTINUOUS
 66
     1
 40
0.000000
 41
0.000000
  0
VERTEX
  8
0
  6
CONTINUOUS
 10
5.964640
 20
1.147520
  0
VERTEX
  8
0
  6
CONTINUOUS
 10
6.594720
 20
1.510080
  0
VERTEX
  8
0
  6
CONTINUOUS
 10
6.536200
 20
1.163360
  0
VERTEX
  8
0
  6
CONTINUOUS
 10
5.906120
 20
0.801240
  0
VERTEX
  8
0
  6
CONTINUOUS
 10
5.964640
 20
1.147520
  0
SEQEND
  8
0
  0
SOLID
  8
0
 62
    15
 10
5.328840
 20
2.495680
 11
5.958920
 21
2.858240
 12
5.508800
 22
2.495680
 13
6.138880
 23
2.858240
  0
POLYLINE
  8
0
  6
CONTINUOUS
 66
     1
 40
0.000000
 41
0.000000
  0
VERTEX
  8
0
  6
CONTINUOUS
 10
5.328840
 20
2.495680
  0
VERTEX
  8
0
  6
CONTINUOUS
 10
5.958920
 20
2.858240
  0
VERTEX
  8
0
  6
CONTINUOUS
 10
6.138880
 20
2.858240
  0
VERTEX
  8
0
  6
CONTINUOUS
 10
5.508800
 20
2.495680
  0
VERTEX
  8
0
  6
CONTINUOUS
 10
5.328840
 20
2.495680
  0
SEQEND
  8
0
  0
SOLID
  8
0
 62
    15
 10
5.508800
 20
2.495680
 11
6.138880
 21
2.858240
 12
5.511440
 22
2.493040
 13
6.141520
 23
2.855160
  0
POLYLINE
  8
0
  6
CONTINUOUS
 66
     1
 40
0.000000
 41
0.000000
  0
VERTEX
  8
0
  6
CONTINUOUS
 10
5.508800
 20
2.495680
  0
VERTEX
  8
0
  6
CONTINUOUS
 10
6.138880
 20
2.858240
  0
VERTEX
  8
0
  6
CONTINUOUS
 10
6.141520
 20
2.855160
  0
VERTEX
  8
0
  6
CONTINUOUS
 10
5.511440
 20
2.493040
  0
VERTEX
  8
0
  6
CONTINUOUS
 10
5.508800
 20
2.495680
  0
SEQEND
  8
0
  0
SOLID
  8
0
 62
     7
 10
5.511440
 20
2.493040
 11
6.141520
 21
2.855160
 12
5.660600
 22
2.207920
 13
6.290680
 23
2.570040
  0
POLYLINE
  8
0
  6
CONTINUOUS
 66
     1
 40
0.000000
 41
0.000000
  0
VERTEX
  8
0
  6
CONTINUOUS
 10
5.511440
 20
2.493040
  0
VERTEX
  8
0
  6
CONTINUOUS
 10
6.141520
 20
2.855160
  0
VERTEX
  8
0
  6
CONTINUOUS
 10
6.290680
 20
2.570040
  0
VERTEX
  8
0
  6
CONTINUOUS
 10
5.660600
 20
2.207920
  0
VERTEX
  8
0
  6
CONTINUOUS
 10
5.511440
 20
2.493040
  0
SEQEND
  8
0
  0
SOLID
  8
0
 62
    15
 10
5.660600
 20
2.207920
 11
6.290680
 21
2.570040
 12
5.660600
 22
2.199560
 13
6.290680
 23
2.562120
  0
POLYLINE
  8
0
  6
CONTINUOUS
 66
     1
 40
0.000000
 41
0.000000
  0
VERTEX
  8
0
  6
CONTINUOUS
 10
5.660600
 20
2.207920
  0
VERTEX
  8
0
  6
CONTINUOUS
 10
6.290680
 20
2.570040
  0
VERTEX
  8
0
  6
CONTINUOUS
 10
6.290680
 20
2.562120
  0
VERTEX
  8
0
  6
CONTINUOUS
 10
5.660600
 20
2.199560
  0
VERTEX
  8
0
  6
CONTINUOUS
 10
5.660600
 20
2.207920
  0
SEQEND
  8
0
  0
POLYLINE
  8
0
  6
CONTINUOUS
 66
     1
 40
0.000000
 41
0.000000
  0
VERTEX
  8
0
  6
CONTINUOUS
 10
5.660600
 20
2.199560
  0
VERTEX
  8
0
  6
CONTINUOUS
 10
5.624080
 20
2.145440
  0
VERTEX
  8
0
  6
CONTINUOUS
 10
5.596360
 20
2.087360
  0
VERTEX
  8
0
  6
CONTINUOUS
 10
5.586680
 20
2.057000
  0
VERTEX
  8
0
  6
CONTINUOUS
 10
5.579640
 20
2.025760
  0
VERTEX
  8
0
  6
CONTINUOUS
 10
5.576120
 20
1.994080
  0
VERTEX
  8
0
  6
CONTINUOUS
 10
5.575680
 20
1.961520
  0
VERTEX
  8
0
  6
CONTINUOUS
 10
5.579200
 20
1.928520
  0
VERTEX
  8
0
  6
CONTINUOUS
 10
5.586680
 20
1.895080
  0
VERTEX
  8
0
  6
CONTINUOUS
 10
5.598560
 20
1.861640
  0
VERTEX
  8
0
  6
CONTINUOUS
 10
5.614400
 20
1.827760
  0
VERTEX
  8
0
  6
CONTINUOUS
 10
5.635520
 20
1.793440
  0
VERTEX
  8
0
  6
CONTINUOUS
 10
5.661480
 20
1.759120
  0
VERTEX
  8
0
  6
CONTINUOUS
 10
5.692280
 20
1.724800
  0
VERTEX
  8
0
  6
CONTINUOUS
 10
5.728800
 20
1.690480
  0
VERTEX
  8
0
  6
CONTINUOUS
 10
5.771040
 20
1.657480
  0
VERTEX
  8
0
  6
CONTINUOUS
 10
5.807120
 20
1.624480
  0
VERTEX
  8
0
  6
CONTINUOUS
 10
5.837480
 20
1.591040
  0
VERTEX
  8
0
  6
CONTINUOUS
 10
5.862560
 20
1.557160
  0
VERTEX
  8
0
  6
CONTINUOUS
 10
5.881920
 20
1.523720
  0
VERTEX
  8
0
  6
CONTINUOUS
 10
5.895560
 20
1.489840
  0
VERTEX
  8
0
  6
CONTINUOUS
 10
5.903480
 20
1.456400
  0
VERTEX
  8
0
  6
CONTINUOUS
 10
5.906560
 20
1.422960
  0
VERTEX
  8
0
  6
CONTINUOUS
 10
5.903920
 20
1.389960
  0
VERTEX
  8
0
  6
CONTINUOUS
 10
5.895560
 20
1.357400
  0
VERTEX
  8
0
  6
CONTINUOUS
 10
5.882360
 20
1.325280
  0
VERTEX
  8
0
  6
CONTINUOUS
 10
5.863880
 20
1.294040
  0
VERTEX
  8
0
  6
CONTINUOUS
 10
5.840120
 20
1.263680
  0
VERTEX
  8
0
  6
CONTINUOUS
 10
5.811080
 20
1.234200
  0
VERTEX
  8
0
  6
CONTINUOUS
 10
5.777200
 20
1.205600
  0
VERTEX
  8
0
  6
CONTINUOUS
 10
5.738040
 20
1.178320
  0
VERTEX
  8
0
  6
CONTINUOUS
 10
5.735400
 20
1.175680
  0
VERTEX
  8
0
  6
CONTINUOUS
 10
5.735400
 20
1.153240
  0
VERTEX
  8
0
  6
CONTINUOUS
 10
5.967280
 20
1.153240
  0
VERTEX
  8
0
  6
CONTINUOUS
 10
5.964640
 20
1.147520
  0
VERTEX
  8
0
  6
CONTINUOUS
 10
5.906120
 20
0.801240
  0
VERTEX
  8
0
  6
CONTINUOUS
 10
5.328840
 20
0.801240
  0
VERTEX
  8
0
  6
CONTINUOUS
 10
5.328840
 20
2.495680
  0
VERTEX
  8
0
  6
CONTINUOUS
 10
5.508800
 20
2.495680
  0
VERTEX
  8
0
  6
CONTINUOUS
 10
5.511440
 20
2.493040
  0
VERTEX
  8
0
  6
CONTINUOUS
 10
5.660600
 20
2.207920
  0
VERTEX
  8
0
  6
CONTINUOUS
 10
5.660600
 20
2.199560
  0
SEQEND
  8
0
  0
TEXT
  8
0
 10
5.712080
 20
0.552640
 40
0.138102
  1
BA  22
 41
1.000000
  7
SN0
 71
     0
 72
     5
 11
6.209569
 21
0.552640
  0
TEXT
  8
0
 10
5.510120
 20
0.361240
 40
0.138102
  1
5/8" x 1-3/4"
 41
1.000000
  7
SN0
 71
     0
 72
     5
 11
6.409345
 21
0.361240
  0
TEXT
  8
0
 10
7.454480
 20
2.802800
 40
0.138102
  1
base cap
 41
1.000000
  7
SN0
 71
     0
 72
     5
 11
8.126877
 21
2.802800
  0
TEXT
  8
0
 10
7.699120
 20
2.611400
 40
0.138102
  1
22
 41
1.000000
  7
SN0
 71
     0
 72
     5
 11
7.883817
 21
2.611400
  0
ENDSEC
  0
EOF
