  0
SECTION
  2
HEADER
  9
$ACADVER
  1
AC1006
  9
$EXTMIN
 10
2.750880
 20
0.308440
  9
$EXTMAX
 10
8.106560
 20
3.236200
  9
$LTSCALE
 40
0.044000
  9
$PDMODE
 70
    35
  9
$PDSIZE
 40
0.035200
  0
ENDSEC
  0
SECTION
  2
TABLES
  0
TABLE
  2
LTYPE
 70
     9
  0
LTYPE
  2
CONTINUOUS
 70
    64
  3
Solid line
 72
    65
 73
     0
 40
0.000000
  0
LTYPE
  2
DASHED
 70
    64
  3
__ __ __ __ __ __ __ __ __ __ __ __ __ __ __
 72
    65
 73
     2
 40
0.000330
 49
0.000220
 49
-0.000110
  0
LTYPE
  2
HIDDEN
 70
    64
  3
 _ _ _ _ _ _ _ _ _ _ _ _ _ _ _ _ _ _ _ _ _ _
 72
    65
 73
     2
 40
0.000165
 49
0.000110
 49
-0.000055
  0
LTYPE
  2
CENTER
 70
    64
  3
____ _ ____ _ ____ _ ____ _ ____ _ ____ _ ____
 72
    65
 73
     4
 40
0.000880
 49
0.000550
 49
-0.000110
 49
0.000110
 49
-0.000110
  0
LTYPE
  2
PHANTOM
 70
    64
  3
_____ _ _ _____ _ _ _____ _ _ _____ _ _ ____
 72
    65
 73
     6
 40
0.001100
 49
0.000550
 49
-0.000110
 49
0.000110
 49
-0.000110
 49
0.000110
 49
-0.000110
  0
LTYPE
  2
DOT
 70
    64
  3
...............................................
 72
    65
 73
     2
 40
0.000110
 49
0.000000
 49
-0.000110
  0
LTYPE
  2
DASHDOT
 70
    64
  3
__ . __ . __ . __ . __ . __ . __ . __ . __ . __
 72
    65
 73
     4
 40
0.000440
 49
0.000220
 49
-0.000110
 49
0.000000
 49
-0.000110
  0
LTYPE
  2
BORDER
 70
    64
  3
__ __ . __ __ . __ __ . __ __ . __ __ . __ __
 72
    65
 73
     6
 40
0.000770
 49
0.000220
 49
-0.000110
 49
0.000220
 49
-0.000110
 49
0.000000
 49
-0.000110
  0
LTYPE
  2
DIVIDE
 70
    64
  3
__ . . __ . . __ . . __ . . __ . . __ . . __
 72
    65
 73
     6
 40
0.000550
 49
0.000220
 49
-0.000110
 49
0.000000
 49
-0.000110
 49
0.000000
 49
-0.000110
  0
LTYPE
  2
DOTDOT
 70
    64
  3
 . .  . .  . .  . .  . .  . . 
 72
    65
 73
     5
 40
0.000242
 49
-0.000110
 49
0.000000
 49
-0.000110
 49
0.000000
 49
-0.000110
  0
ENDTAB
  0
TABLE
  2
STYLE
 70
     2
  0
STYLE
 70
     0
  2
SN0
 40
0.000000
 41
0.000440
 50
0.000000
 71
     0
 42
0.000000
  3
ROMAND
  0
STYLE
 70
    68
  2
SV0
 40
0.000000
 41
0.000440
 50
0.000000
 71
     0
 42
0.000000
  3
ROMAND
  0
ENDTAB
  0
TABLE
  2
LAYER
 70
     3
  0
LAYER
  2
FOREGROUND
 70
    64
 62
     7
  6
CONTINUOUS
  0
LAYER
  2
BACKGROUND
 70
    65
 62
    -7
  6
CONTINUOUS
  0
LAYER
  2
0
 70
    64
 62
     7
  6
CONTINUOUS
  0
ENDTAB
  0
ENDSEC
  0
SECTION
  2
ENTITIES
  0
POLYLINE
  8
FOREGROUND
  6
CONTINUOUS
 66
     1
 40
0.000000
 41
0.000000
  0
VERTEX
  8
FOREGROUND
  6
CONTINUOUS
 10
0.000000
 20
3.544640
  0
VERTEX
  8
FOREGROUND
  6
CONTINUOUS
 10
8.499920
 20
3.544640
  0
VERTEX
  8
FOREGROUND
  6
CONTINUOUS
 10
8.499920
 20
-7.455360
  0
VERTEX
  8
FOREGROUND
  6
CONTINUOUS
 10
0.000000
 20
-7.455360
  0
VERTEX
  8
FOREGROUND
  6
CONTINUOUS
 10
0.000000
 20
3.544640
  0
SEQEND
  8
0
  0
POLYLINE
  8
FOREGROUND
  6
CONTINUOUS
 66
     1
 40
0.000000
 41
0.000000
  0
VERTEX
  8
FOREGROUND
  6
CONTINUOUS
 10
0.000000
 20
3.544640
  0
VERTEX
  8
FOREGROUND
  6
CONTINUOUS
 10
8.499920
 20
3.544640
  0
VERTEX
  8
FOREGROUND
  6
CONTINUOUS
 10
8.499920
 20
-7.455360
  0
VERTEX
  8
FOREGROUND
  6
CONTINUOUS
 10
0.000000
 20
-7.455360
  0
VERTEX
  8
FOREGROUND
  6
CONTINUOUS
 10
0.000000
 20
3.544640
  0
SEQEND
  8
0
  0
POLYLINE
  8
0
  6
CONTINUOUS
 66
     1
 40
0.014080
 41
0.014080
  0
VERTEX
  8
0
  6
CONTINUOUS
 10
4.347200
 20
2.601720
  0
VERTEX
  8
0
  6
CONTINUOUS
 10
4.364800
 20
2.553760
  0
VERTEX
  8
0
  6
CONTINUOUS
 10
4.378440
 20
2.525160
  0
VERTEX
  8
0
  6
CONTINUOUS
 10
4.395160
 20
2.500080
  0
VERTEX
  8
0
  6
CONTINUOUS
 10
4.416720
 20
2.478520
  0
VERTEX
  8
0
  6
CONTINUOUS
 10
4.443560
 20
2.461800
  0
VERTEX
  8
0
  6
CONTINUOUS
 10
4.477880
 20
2.450360
  0
VERTEX
  8
0
  6
CONTINUOUS
 10
4.509120
 20
2.445960
  0
VERTEX
  8
0
  6
CONTINUOUS
 10
4.545640
 20
2.444640
  0
VERTEX
  8
0
  6
CONTINUOUS
 10
4.545640
 20
2.359280
  0
VERTEX
  8
0
  6
CONTINUOUS
 10
3.883000
 20
2.359280
  0
VERTEX
  8
0
  6
CONTINUOUS
 10
3.883000
 20
1.604680
  0
VERTEX
  8
0
  6
CONTINUOUS
 10
2.768480
 20
1.604680
  0
VERTEX
  8
0
  6
CONTINUOUS
 10
2.769800
 20
1.606000
  0
VERTEX
  8
0
  6
CONTINUOUS
 10
2.769800
 20
1.944800
  0
VERTEX
  8
0
  6
CONTINUOUS
 10
2.768480
 20
1.947440
  0
VERTEX
  8
0
  6
CONTINUOUS
 10
2.768480
 20
3.055360
  0
VERTEX
  8
0
  6
CONTINUOUS
 10
3.213760
 20
3.055360
  0
VERTEX
  8
0
  6
CONTINUOUS
 10
3.213760
 20
2.935240
  0
VERTEX
  8
0
  6
CONTINUOUS
 10
3.309680
 20
2.935240
  0
VERTEX
  8
0
  6
CONTINUOUS
 10
3.324640
 20
2.964720
  0
VERTEX
  8
0
  6
CONTINUOUS
 10
3.341800
 20
2.989800
  0
VERTEX
  8
0
  6
CONTINUOUS
 10
3.360280
 20
3.010920
  0
VERTEX
  8
0
  6
CONTINUOUS
 10
3.380080
 20
3.027640
  0
VERTEX
  8
0
  6
CONTINUOUS
 10
3.401200
 20
3.040400
  0
VERTEX
  8
0
  6
CONTINUOUS
 10
3.434200
 20
3.052280
  0
VERTEX
  8
0
  6
CONTINUOUS
 10
3.456640
 20
3.055360
  0
VERTEX
  8
0
  6
CONTINUOUS
 10
3.479520
 20
3.054480
  0
VERTEX
  8
0
  6
CONTINUOUS
 10
3.501960
 20
3.050080
  0
VERTEX
  8
0
  6
CONTINUOUS
 10
3.524400
 20
3.041720
  0
VERTEX
  8
0
  6
CONTINUOUS
 10
3.545960
 20
3.029840
  0
VERTEX
  8
0
  6
CONTINUOUS
 10
3.576760
 20
3.005200
  0
VERTEX
  8
0
  6
CONTINUOUS
 10
3.595680
 20
2.984520
  0
VERTEX
  8
0
  6
CONTINUOUS
 10
3.612840
 20
2.960320
  0
VERTEX
  8
0
  6
CONTINUOUS
 10
3.628240
 20
2.932600
  0
VERTEX
  8
0
  6
CONTINUOUS
 10
3.663880
 20
2.900480
  0
VERTEX
  8
0
  6
CONTINUOUS
 10
3.697320
 20
2.876720
  0
VERTEX
  8
0
  6
CONTINUOUS
 10
3.729440
 20
2.860000
  0
VERTEX
  8
0
  6
CONTINUOUS
 10
3.762440
 20
2.849000
  0
VERTEX
  8
0
  6
CONTINUOUS
 10
3.797640
 20
2.841960
  0
VERTEX
  8
0
  6
CONTINUOUS
 10
3.857920
 20
2.836680
  0
VERTEX
  8
0
  6
CONTINUOUS
 10
3.932280
 20
2.834040
  0
VERTEX
  8
0
  6
CONTINUOUS
 10
3.954280
 20
2.837120
  0
VERTEX
  8
0
  6
CONTINUOUS
 10
3.970120
 20
2.834480
  0
VERTEX
  8
0
  6
CONTINUOUS
 10
3.981560
 20
2.826560
  0
VERTEX
  8
0
  6
CONTINUOUS
 10
3.989040
 20
2.814240
  0
VERTEX
  8
0
  6
CONTINUOUS
 10
3.993440
 20
2.799280
  0
VERTEX
  8
0
  6
CONTINUOUS
 10
3.996520
 20
2.782560
  0
VERTEX
  8
0
  6
CONTINUOUS
 10
4.000480
 20
2.746040
  0
VERTEX
  8
0
  6
CONTINUOUS
 10
4.002680
 20
2.736360
  0
VERTEX
  8
0
  6
CONTINUOUS
 10
4.012800
 20
2.719200
  0
VERTEX
  8
0
  6
CONTINUOUS
 10
4.027320
 20
2.706000
  0
VERTEX
  8
0
  6
CONTINUOUS
 10
4.045360
 20
2.697640
  0
VERTEX
  8
0
  6
CONTINUOUS
 10
4.064720
 20
2.694560
  0
VERTEX
  8
0
  6
CONTINUOUS
 10
4.083200
 20
2.697640
  0
VERTEX
  8
0
  6
CONTINUOUS
 10
4.092000
 20
2.701160
  0
VERTEX
  8
0
  6
CONTINUOUS
 10
4.106520
 20
2.713920
  0
VERTEX
  8
0
  6
CONTINUOUS
 10
4.114440
 20
2.728440
  0
VERTEX
  8
0
  6
CONTINUOUS
 10
4.120160
 20
2.744280
  0
VERTEX
  8
0
  6
CONTINUOUS
 10
4.126320
 20
2.753960
  0
VERTEX
  8
0
  6
CONTINUOUS
 10
4.134680
 20
2.762760
  0
VERTEX
  8
0
  6
CONTINUOUS
 10
4.144360
 20
2.770240
  0
VERTEX
  8
0
  6
CONTINUOUS
 10
4.155360
 20
2.775960
  0
VERTEX
  8
0
  6
CONTINUOUS
 10
4.167680
 20
2.780360
  0
VERTEX
  8
0
  6
CONTINUOUS
 10
4.180000
 20
2.782560
  0
VERTEX
  8
0
  6
CONTINUOUS
 10
4.199800
 20
2.781680
  0
VERTEX
  8
0
  6
CONTINUOUS
 10
4.212560
 20
2.778160
  0
VERTEX
  8
0
  6
CONTINUOUS
 10
4.224880
 20
2.771560
  0
VERTEX
  8
0
  6
CONTINUOUS
 10
4.241600
 20
2.755280
  0
VERTEX
  8
0
  6
CONTINUOUS
 10
4.251280
 20
2.740320
  0
VERTEX
  8
0
  6
CONTINUOUS
 10
4.263160
 20
2.710400
  0
VERTEX
  8
0
  6
CONTINUOUS
 10
4.269760
 20
2.671240
  0
VERTEX
  8
0
  6
CONTINUOUS
 10
4.269760
 20
2.600840
  0
VERTEX
  8
0
  6
CONTINUOUS
 10
4.340160
 20
2.600400
  0
VERTEX
  8
0
  6
CONTINUOUS
 10
4.347200
 20
2.601720
  0
SEQEND
  8
0
  0
SOLID
  8
0
 62
    15
 10
6.222040
 20
2.019600
 11
6.218960
 21
2.760120
 12
6.266480
 22
2.017400
 13
6.263400
 23
2.757920
  0
POLYLINE
  8
0
  6
CONTINUOUS
 66
     1
 40
0.000000
 41
0.000000
  0
VERTEX
  8
0
  6
CONTINUOUS
 10
6.222040
 20
2.019600
  0
VERTEX
  8
0
  6
CONTINUOUS
 10
6.218960
 20
2.760120
  0
VERTEX
  8
0
  6
CONTINUOUS
 10
6.263400
 20
2.757920
  0
VERTEX
  8
0
  6
CONTINUOUS
 10
6.266480
 20
2.017400
  0
VERTEX
  8
0
  6
CONTINUOUS
 10
6.222040
 20
2.019600
  0
SEQEND
  8
0
  0
SOLID
  8
0
 62
    15
 10
6.757080
 20
1.721280
 11
6.753560
 21
2.461800
 12
6.790960
 22
1.670680
 13
6.787440
 23
2.411200
  0
POLYLINE
  8
0
  6
CONTINUOUS
 66
     1
 40
0.000000
 41
0.000000
  0
VERTEX
  8
0
  6
CONTINUOUS
 10
6.757080
 20
1.721280
  0
VERTEX
  8
0
  6
CONTINUOUS
 10
6.753560
 20
2.461800
  0
VERTEX
  8
0
  6
CONTINUOUS
 10
6.787440
 20
2.411200
  0
VERTEX
  8
0
  6
CONTINUOUS
 10
6.790960
 20
1.670680
  0
VERTEX
  8
0
  6
CONTINUOUS
 10
6.757080
 20
1.721280
  0
SEQEND
  8
0
  0
SOLID
  8
0
 62
    15
 10
6.790960
 20
1.670680
 11
6.787440
 21
2.411200
 12
6.815160
 22
1.651320
 13
6.811640
 23
2.391840
  0
POLYLINE
  8
0
  6
CONTINUOUS
 66
     1
 40
0.000000
 41
0.000000
  0
VERTEX
  8
0
  6
CONTINUOUS
 10
6.790960
 20
1.670680
  0
VERTEX
  8
0
  6
CONTINUOUS
 10
6.787440
 20
2.411200
  0
VERTEX
  8
0
  6
CONTINUOUS
 10
6.811640
 20
2.391840
  0
VERTEX
  8
0
  6
CONTINUOUS
 10
6.815160
 20
1.651320
  0
VERTEX
  8
0
  6
CONTINUOUS
 10
6.790960
 20
1.670680
  0
SEQEND
  8
0
  0
SOLID
  8
0
 62
    15
 10
6.815160
 20
1.651320
 11
6.811640
 21
2.391840
 12
6.845520
 22
1.637240
 13
6.842000
 23
2.377760
  0
POLYLINE
  8
0
  6
CONTINUOUS
 66
     1
 40
0.000000
 41
0.000000
  0
VERTEX
  8
0
  6
CONTINUOUS
 10
6.815160
 20
1.651320
  0
VERTEX
  8
0
  6
CONTINUOUS
 10
6.811640
 20
2.391840
  0
VERTEX
  8
0
  6
CONTINUOUS
 10
6.842000
 20
2.377760
  0
VERTEX
  8
0
  6
CONTINUOUS
 10
6.845520
 20
1.637240
  0
VERTEX
  8
0
  6
CONTINUOUS
 10
6.815160
 20
1.651320
  0
SEQEND
  8
0
  0
SOLID
  8
0
 62
    15
 10
6.845520
 20
1.637240
 11
6.842000
 21
2.377760
 12
6.883800
 22
1.628880
 13
6.880280
 23
2.369400
  0
POLYLINE
  8
0
  6
CONTINUOUS
 66
     1
 40
0.000000
 41
0.000000
  0
VERTEX
  8
0
  6
CONTINUOUS
 10
6.845520
 20
1.637240
  0
VERTEX
  8
0
  6
CONTINUOUS
 10
6.842000
 20
2.377760
  0
VERTEX
  8
0
  6
CONTINUOUS
 10
6.880280
 20
2.369400
  0
VERTEX
  8
0
  6
CONTINUOUS
 10
6.883800
 20
1.628880
  0
VERTEX
  8
0
  6
CONTINUOUS
 10
6.845520
 20
1.637240
  0
SEQEND
  8
0
  0
SOLID
  8
0
 62
    15
 10
6.883800
 20
1.628880
 11
6.880280
 21
2.369400
 12
6.931320
 22
1.626240
 13
6.927800
 23
2.366760
  0
POLYLINE
  8
0
  6
CONTINUOUS
 66
     1
 40
0.000000
 41
0.000000
  0
VERTEX
  8
0
  6
CONTINUOUS
 10
6.883800
 20
1.628880
  0
VERTEX
  8
0
  6
CONTINUOUS
 10
6.880280
 20
2.369400
  0
VERTEX
  8
0
  6
CONTINUOUS
 10
6.927800
 20
2.366760
  0
VERTEX
  8
0
  6
CONTINUOUS
 10
6.931320
 20
1.626240
  0
VERTEX
  8
0
  6
CONTINUOUS
 10
6.883800
 20
1.628880
  0
SEQEND
  8
0
  0
SOLID
  8
0
 62
    15
 10
5.153720
 20
0.786280
 11
5.150640
 21
1.526800
 12
5.155480
 22
0.787600
 13
5.151960
 23
1.528120
  0
POLYLINE
  8
0
  6
CONTINUOUS
 66
     1
 40
0.000000
 41
0.000000
  0
VERTEX
  8
0
  6
CONTINUOUS
 10
5.153720
 20
0.786280
  0
VERTEX
  8
0
  6
CONTINUOUS
 10
5.150640
 20
1.526800
  0
VERTEX
  8
0
  6
CONTINUOUS
 10
5.151960
 20
1.528120
  0
VERTEX
  8
0
  6
CONTINUOUS
 10
5.155480
 20
0.787600
  0
VERTEX
  8
0
  6
CONTINUOUS
 10
5.153720
 20
0.786280
  0
SEQEND
  8
0
  0
SOLID
  8
0
 62
    15
 10
5.153720
 20
1.129040
 11
5.150640
 21
1.869560
 12
5.153720
 22
2.236960
 13
5.150640
 23
2.977480
  0
POLYLINE
  8
0
  6
CONTINUOUS
 66
     1
 40
0.000000
 41
0.000000
  0
VERTEX
  8
0
  6
CONTINUOUS
 10
5.153720
 20
1.129040
  0
VERTEX
  8
0
  6
CONTINUOUS
 10
5.150640
 20
1.869560
  0
VERTEX
  8
0
  6
CONTINUOUS
 10
5.150640
 20
2.977480
  0
VERTEX
  8
0
  6
CONTINUOUS
 10
5.153720
 20
2.236960
  0
VERTEX
  8
0
  6
CONTINUOUS
 10
5.153720
 20
1.129040
  0
SEQEND
  8
0
  0
SOLID
  8
0
 62
    15
 10
5.155480
 20
0.787600
 11
5.151960
 21
1.528120
 12
5.155480
 22
1.126400
 13
5.151960
 23
1.866920
  0
POLYLINE
  8
0
  6
CONTINUOUS
 66
     1
 40
0.000000
 41
0.000000
  0
VERTEX
  8
0
  6
CONTINUOUS
 10
5.155480
 20
0.787600
  0
VERTEX
  8
0
  6
CONTINUOUS
 10
5.151960
 20
1.528120
  0
VERTEX
  8
0
  6
CONTINUOUS
 10
5.151960
 20
1.866920
  0
VERTEX
  8
0
  6
CONTINUOUS
 10
5.155480
 20
1.126400
  0
VERTEX
  8
0
  6
CONTINUOUS
 10
5.155480
 20
0.787600
  0
SEQEND
  8
0
  0
SOLID
  8
0
 62
    15
 10
5.599440
 20
2.117280
 11
5.595920
 21
2.857800
 12
5.695360
 22
2.117280
 13
5.691840
 23
2.857800
  0
POLYLINE
  8
0
  6
CONTINUOUS
 66
     1
 40
0.000000
 41
0.000000
  0
VERTEX
  8
0
  6
CONTINUOUS
 10
5.599440
 20
2.117280
  0
VERTEX
  8
0
  6
CONTINUOUS
 10
5.595920
 20
2.857800
  0
VERTEX
  8
0
  6
CONTINUOUS
 10
5.691840
 20
2.857800
  0
VERTEX
  8
0
  6
CONTINUOUS
 10
5.695360
 20
2.117280
  0
VERTEX
  8
0
  6
CONTINUOUS
 10
5.599440
 20
2.117280
  0
SEQEND
  8
0
  0
SOLID
  8
0
 62
    15
 10
5.153720
 20
2.236960
 11
5.150640
 21
2.977480
 12
5.599440
 22
2.236960
 13
5.595920
 23
2.977480
  0
POLYLINE
  8
0
  6
CONTINUOUS
 66
     1
 40
0.000000
 41
0.000000
  0
VERTEX
  8
0
  6
CONTINUOUS
 10
5.153720
 20
2.236960
  0
VERTEX
  8
0
  6
CONTINUOUS
 10
5.150640
 20
2.977480
  0
VERTEX
  8
0
  6
CONTINUOUS
 10
5.595920
 20
2.977480
  0
VERTEX
  8
0
  6
CONTINUOUS
 10
5.599440
 20
2.236960
  0
VERTEX
  8
0
  6
CONTINUOUS
 10
5.153720
 20
2.236960
  0
SEQEND
  8
0
  0
SOLID
  8
0
 62
    15
 10
5.695360
 20
2.117280
 11
5.691840
 21
2.857800
 12
5.727040
 22
2.171400
 13
5.723960
 23
2.912360
  0
POLYLINE
  8
0
  6
CONTINUOUS
 66
     1
 40
0.000000
 41
0.000000
  0
VERTEX
  8
0
  6
CONTINUOUS
 10
5.695360
 20
2.117280
  0
VERTEX
  8
0
  6
CONTINUOUS
 10
5.691840
 20
2.857800
  0
VERTEX
  8
0
  6
CONTINUOUS
 10
5.723960
 20
2.912360
  0
VERTEX
  8
0
  6
CONTINUOUS
 10
5.727040
 20
2.171400
  0
VERTEX
  8
0
  6
CONTINUOUS
 10
5.695360
 20
2.117280
  0
SEQEND
  8
0
  0
SOLID
  8
0
 62
    15
 10
5.727040
 20
2.171400
 11
5.723960
 21
2.912360
 12
5.765760
 22
2.209680
 13
5.762240
 23
2.950200
  0
POLYLINE
  8
0
  6
CONTINUOUS
 66
     1
 40
0.000000
 41
0.000000
  0
VERTEX
  8
0
  6
CONTINUOUS
 10
5.727040
 20
2.171400
  0
VERTEX
  8
0
  6
CONTINUOUS
 10
5.723960
 20
2.912360
  0
VERTEX
  8
0
  6
CONTINUOUS
 10
5.762240
 20
2.950200
  0
VERTEX
  8
0
  6
CONTINUOUS
 10
5.765760
 20
2.209680
  0
VERTEX
  8
0
  6
CONTINUOUS
 10
5.727040
 20
2.171400
  0
SEQEND
  8
0
  0
SOLID
  8
0
 62
    15
 10
5.765760
 20
2.209680
 11
5.762240
 21
2.950200
 12
5.808440
 22
2.231240
 13
5.805360
 23
2.971760
  0
POLYLINE
  8
0
  6
CONTINUOUS
 66
     1
 40
0.000000
 41
0.000000
  0
VERTEX
  8
0
  6
CONTINUOUS
 10
5.765760
 20
2.209680
  0
VERTEX
  8
0
  6
CONTINUOUS
 10
5.762240
 20
2.950200
  0
VERTEX
  8
0
  6
CONTINUOUS
 10
5.805360
 20
2.971760
  0
VERTEX
  8
0
  6
CONTINUOUS
 10
5.808440
 20
2.231240
  0
VERTEX
  8
0
  6
CONTINUOUS
 10
5.765760
 20
2.209680
  0
SEQEND
  8
0
  0
SOLID
  8
0
 62
    15
 10
5.808440
 20
2.231240
 11
5.805360
 21
2.971760
 12
5.853760
 22
2.237400
 13
5.850240
 23
2.977920
  0
POLYLINE
  8
0
  6
CONTINUOUS
 66
     1
 40
0.000000
 41
0.000000
  0
VERTEX
  8
0
  6
CONTINUOUS
 10
5.808440
 20
2.231240
  0
VERTEX
  8
0
  6
CONTINUOUS
 10
5.805360
 20
2.971760
  0
VERTEX
  8
0
  6
CONTINUOUS
 10
5.850240
 20
2.977920
  0
VERTEX
  8
0
  6
CONTINUOUS
 10
5.853760
 20
2.237400
  0
VERTEX
  8
0
  6
CONTINUOUS
 10
5.808440
 20
2.231240
  0
SEQEND
  8
0
  0
SOLID
  8
0
 62
    15
 10
5.853760
 20
2.237400
 11
5.850240
 21
2.977920
 12
5.898640
 22
2.228160
 13
5.895560
 23
2.968680
  0
POLYLINE
  8
0
  6
CONTINUOUS
 66
     1
 40
0.000000
 41
0.000000
  0
VERTEX
  8
0
  6
CONTINUOUS
 10
5.853760
 20
2.237400
  0
VERTEX
  8
0
  6
CONTINUOUS
 10
5.850240
 20
2.977920
  0
VERTEX
  8
0
  6
CONTINUOUS
 10
5.895560
 20
2.968680
  0
VERTEX
  8
0
  6
CONTINUOUS
 10
5.898640
 20
2.228160
  0
VERTEX
  8
0
  6
CONTINUOUS
 10
5.853760
 20
2.237400
  0
SEQEND
  8
0
  0
SOLID
  8
0
 62
    15
 10
5.898640
 20
2.228160
 11
5.895560
 21
2.968680
 12
5.942200
 22
2.204400
 13
5.938680
 23
2.944920
  0
POLYLINE
  8
0
  6
CONTINUOUS
 66
     1
 40
0.000000
 41
0.000000
  0
VERTEX
  8
0
  6
CONTINUOUS
 10
5.898640
 20
2.228160
  0
VERTEX
  8
0
  6
CONTINUOUS
 10
5.895560
 20
2.968680
  0
VERTEX
  8
0
  6
CONTINUOUS
 10
5.938680
 20
2.944920
  0
VERTEX
  8
0
  6
CONTINUOUS
 10
5.942200
 20
2.204400
  0
VERTEX
  8
0
  6
CONTINUOUS
 10
5.898640
 20
2.228160
  0
SEQEND
  8
0
  0
SOLID
  8
0
 62
    15
 10
5.942200
 20
2.204400
 11
5.938680
 21
2.944920
 12
5.981360
 22
2.166120
 13
5.977840
 23
2.906640
  0
POLYLINE
  8
0
  6
CONTINUOUS
 66
     1
 40
0.000000
 41
0.000000
  0
VERTEX
  8
0
  6
CONTINUOUS
 10
5.942200
 20
2.204400
  0
VERTEX
  8
0
  6
CONTINUOUS
 10
5.938680
 20
2.944920
  0
VERTEX
  8
0
  6
CONTINUOUS
 10
5.977840
 20
2.906640
  0
VERTEX
  8
0
  6
CONTINUOUS
 10
5.981360
 20
2.166120
  0
VERTEX
  8
0
  6
CONTINUOUS
 10
5.942200
 20
2.204400
  0
SEQEND
  8
0
  0
SOLID
  8
0
 62
    15
 10
5.981360
 20
2.166120
 11
5.977840
 21
2.906640
 12
6.013920
 22
2.114640
 13
6.010840
 23
2.855160
  0
POLYLINE
  8
0
  6
CONTINUOUS
 66
     1
 40
0.000000
 41
0.000000
  0
VERTEX
  8
0
  6
CONTINUOUS
 10
5.981360
 20
2.166120
  0
VERTEX
  8
0
  6
CONTINUOUS
 10
5.977840
 20
2.906640
  0
VERTEX
  8
0
  6
CONTINUOUS
 10
6.010840
 20
2.855160
  0
VERTEX
  8
0
  6
CONTINUOUS
 10
6.013920
 20
2.114640
  0
VERTEX
  8
0
  6
CONTINUOUS
 10
5.981360
 20
2.166120
  0
SEQEND
  8
0
  0
SOLID
  8
0
 62
    15
 10
6.013920
 20
2.114640
 11
6.010840
 21
2.855160
 12
6.049560
 22
2.082520
 13
6.046480
 23
2.823040
  0
POLYLINE
  8
0
  6
CONTINUOUS
 66
     1
 40
0.000000
 41
0.000000
  0
VERTEX
  8
0
  6
CONTINUOUS
 10
6.013920
 20
2.114640
  0
VERTEX
  8
0
  6
CONTINUOUS
 10
6.010840
 20
2.855160
  0
VERTEX
  8
0
  6
CONTINUOUS
 10
6.046480
 20
2.823040
  0
VERTEX
  8
0
  6
CONTINUOUS
 10
6.049560
 20
2.082520
  0
VERTEX
  8
0
  6
CONTINUOUS
 10
6.013920
 20
2.114640
  0
SEQEND
  8
0
  0
SOLID
  8
0
 62
    15
 10
6.049560
 20
2.082520
 11
6.046480
 21
2.823040
 12
6.083000
 22
2.058760
 13
6.079480
 23
2.799280
  0
POLYLINE
  8
0
  6
CONTINUOUS
 66
     1
 40
0.000000
 41
0.000000
  0
VERTEX
  8
0
  6
CONTINUOUS
 10
6.049560
 20
2.082520
  0
VERTEX
  8
0
  6
CONTINUOUS
 10
6.046480
 20
2.823040
  0
VERTEX
  8
0
  6
CONTINUOUS
 10
6.079480
 20
2.799280
  0
VERTEX
  8
0
  6
CONTINUOUS
 10
6.083000
 20
2.058760
  0
VERTEX
  8
0
  6
CONTINUOUS
 10
6.049560
 20
2.082520
  0
SEQEND
  8
0
  0
SOLID
  8
0
 62
    15
 10
6.083000
 20
2.058760
 11
6.079480
 21
2.799280
 12
6.148120
 22
2.030600
 13
6.144600
 23
2.771120
  0
POLYLINE
  8
0
  6
CONTINUOUS
 66
     1
 40
0.000000
 41
0.000000
  0
VERTEX
  8
0
  6
CONTINUOUS
 10
6.083000
 20
2.058760
  0
VERTEX
  8
0
  6
CONTINUOUS
 10
6.079480
 20
2.799280
  0
VERTEX
  8
0
  6
CONTINUOUS
 10
6.144600
 20
2.771120
  0
VERTEX
  8
0
  6
CONTINUOUS
 10
6.148120
 20
2.030600
  0
VERTEX
  8
0
  6
CONTINUOUS
 10
6.083000
 20
2.058760
  0
SEQEND
  8
0
  0
SOLID
  8
0
 62
    15
 10
6.148120
 20
2.030600
 11
6.144600
 21
2.771120
 12
6.222040
 22
2.019600
 13
6.218960
 23
2.760120
  0
POLYLINE
  8
0
  6
CONTINUOUS
 66
     1
 40
0.000000
 41
0.000000
  0
VERTEX
  8
0
  6
CONTINUOUS
 10
6.148120
 20
2.030600
  0
VERTEX
  8
0
  6
CONTINUOUS
 10
6.144600
 20
2.771120
  0
VERTEX
  8
0
  6
CONTINUOUS
 10
6.218960
 20
2.760120
  0
VERTEX
  8
0
  6
CONTINUOUS
 10
6.222040
 20
2.019600
  0
VERTEX
  8
0
  6
CONTINUOUS
 10
6.148120
 20
2.030600
  0
SEQEND
  8
0
  0
SOLID
  8
0
 62
    15
 10
6.732440
 20
1.783760
 11
6.729360
 21
2.524280
 12
6.757080
 22
1.721280
 13
6.753560
 23
2.461800
  0
POLYLINE
  8
0
  6
CONTINUOUS
 66
     1
 40
0.000000
 41
0.000000
  0
VERTEX
  8
0
  6
CONTINUOUS
 10
6.732440
 20
1.783760
  0
VERTEX
  8
0
  6
CONTINUOUS
 10
6.729360
 20
2.524280
  0
VERTEX
  8
0
  6
CONTINUOUS
 10
6.753560
 20
2.461800
  0
VERTEX
  8
0
  6
CONTINUOUS
 10
6.757080
 20
1.721280
  0
VERTEX
  8
0
  6
CONTINUOUS
 10
6.732440
 20
1.783760
  0
SEQEND
  8
0
  0
SOLID
  8
0
 62
    15
 10
6.266480
 20
2.017400
 11
6.263400
 21
2.757920
 12
6.317960
 22
2.015640
 13
6.314440
 23
2.756160
  0
POLYLINE
  8
0
  6
CONTINUOUS
 66
     1
 40
0.000000
 41
0.000000
  0
VERTEX
  8
0
  6
CONTINUOUS
 10
6.266480
 20
2.017400
  0
VERTEX
  8
0
  6
CONTINUOUS
 10
6.263400
 20
2.757920
  0
VERTEX
  8
0
  6
CONTINUOUS
 10
6.314440
 20
2.756160
  0
VERTEX
  8
0
  6
CONTINUOUS
 10
6.317960
 20
2.015640
  0
VERTEX
  8
0
  6
CONTINUOUS
 10
6.266480
 20
2.017400
  0
SEQEND
  8
0
  0
SOLID
  8
0
 62
    15
 10
6.317960
 20
2.015640
 11
6.314440
 21
2.756160
 12
6.339960
 22
2.018720
 13
6.336440
 23
2.759680
  0
POLYLINE
  8
0
  6
CONTINUOUS
 66
     1
 40
0.000000
 41
0.000000
  0
VERTEX
  8
0
  6
CONTINUOUS
 10
6.317960
 20
2.015640
  0
VERTEX
  8
0
  6
CONTINUOUS
 10
6.314440
 20
2.756160
  0
VERTEX
  8
0
  6
CONTINUOUS
 10
6.336440
 20
2.759680
  0
VERTEX
  8
0
  6
CONTINUOUS
 10
6.339960
 20
2.018720
  0
VERTEX
  8
0
  6
CONTINUOUS
 10
6.317960
 20
2.015640
  0
SEQEND
  8
0
  0
SOLID
  8
0
 62
    15
 10
6.339960
 20
2.018720
 11
6.336440
 21
2.759680
 12
6.355800
 22
2.016080
 13
6.352280
 23
2.756600
  0
POLYLINE
  8
0
  6
CONTINUOUS
 66
     1
 40
0.000000
 41
0.000000
  0
VERTEX
  8
0
  6
CONTINUOUS
 10
6.339960
 20
2.018720
  0
VERTEX
  8
0
  6
CONTINUOUS
 10
6.336440
 20
2.759680
  0
VERTEX
  8
0
  6
CONTINUOUS
 10
6.352280
 20
2.756600
  0
VERTEX
  8
0
  6
CONTINUOUS
 10
6.355800
 20
2.016080
  0
VERTEX
  8
0
  6
CONTINUOUS
 10
6.339960
 20
2.018720
  0
SEQEND
  8
0
  0
SOLID
  8
0
 62
    15
 10
6.355800
 20
2.016080
 11
6.352280
 21
2.756600
 12
6.374280
 22
1.996280
 13
6.371200
 23
2.736800
  0
POLYLINE
  8
0
  6
CONTINUOUS
 66
     1
 40
0.000000
 41
0.000000
  0
VERTEX
  8
0
  6
CONTINUOUS
 10
6.355800
 20
2.016080
  0
VERTEX
  8
0
  6
CONTINUOUS
 10
6.352280
 20
2.756600
  0
VERTEX
  8
0
  6
CONTINUOUS
 10
6.371200
 20
2.736800
  0
VERTEX
  8
0
  6
CONTINUOUS
 10
6.374280
 20
1.996280
  0
VERTEX
  8
0
  6
CONTINUOUS
 10
6.355800
 20
2.016080
  0
SEQEND
  8
0
  0
SOLID
  8
0
 62
    15
 10
6.374280
 20
1.996280
 11
6.371200
 21
2.736800
 12
6.381760
 22
1.964160
 13
6.378680
 23
2.704680
  0
POLYLINE
  8
0
  6
CONTINUOUS
 66
     1
 40
0.000000
 41
0.000000
  0
VERTEX
  8
0
  6
CONTINUOUS
 10
6.374280
 20
1.996280
  0
VERTEX
  8
0
  6
CONTINUOUS
 10
6.371200
 20
2.736800
  0
VERTEX
  8
0
  6
CONTINUOUS
 10
6.378680
 20
2.704680
  0
VERTEX
  8
0
  6
CONTINUOUS
 10
6.381760
 20
1.964160
  0
VERTEX
  8
0
  6
CONTINUOUS
 10
6.374280
 20
1.996280
  0
SEQEND
  8
0
  0
SOLID
  8
0
 62
    15
 10
6.381760
 20
1.964160
 11
6.378680
 21
2.704680
 12
6.383080
 22
1.955360
 13
6.379560
 23
2.695880
  0
POLYLINE
  8
0
  6
CONTINUOUS
 66
     1
 40
0.000000
 41
0.000000
  0
VERTEX
  8
0
  6
CONTINUOUS
 10
6.381760
 20
1.964160
  0
VERTEX
  8
0
  6
CONTINUOUS
 10
6.378680
 20
2.704680
  0
VERTEX
  8
0
  6
CONTINUOUS
 10
6.379560
 20
2.695880
  0
VERTEX
  8
0
  6
CONTINUOUS
 10
6.383080
 20
1.955360
  0
VERTEX
  8
0
  6
CONTINUOUS
 10
6.381760
 20
1.964160
  0
SEQEND
  8
0
  0
SOLID
  8
0
 62
    15
 10
6.383080
 20
1.955360
 11
6.379560
 21
2.695880
 12
6.383960
 22
1.946120
 13
6.380440
 23
2.686640
  0
POLYLINE
  8
0
  6
CONTINUOUS
 66
     1
 40
0.000000
 41
0.000000
  0
VERTEX
  8
0
  6
CONTINUOUS
 10
6.383080
 20
1.955360
  0
VERTEX
  8
0
  6
CONTINUOUS
 10
6.379560
 20
2.695880
  0
VERTEX
  8
0
  6
CONTINUOUS
 10
6.380440
 20
2.686640
  0
VERTEX
  8
0
  6
CONTINUOUS
 10
6.383960
 20
1.946120
  0
VERTEX
  8
0
  6
CONTINUOUS
 10
6.383080
 20
1.955360
  0
SEQEND
  8
0
  0
SOLID
  8
0
 62
    15
 10
6.383960
 20
1.946120
 11
6.380440
 21
2.686640
 12
6.386160
 22
1.927640
 13
6.382640
 23
2.668160
  0
POLYLINE
  8
0
  6
CONTINUOUS
 66
     1
 40
0.000000
 41
0.000000
  0
VERTEX
  8
0
  6
CONTINUOUS
 10
6.383960
 20
1.946120
  0
VERTEX
  8
0
  6
CONTINUOUS
 10
6.380440
 20
2.686640
  0
VERTEX
  8
0
  6
CONTINUOUS
 10
6.382640
 20
2.668160
  0
VERTEX
  8
0
  6
CONTINUOUS
 10
6.386160
 20
1.927640
  0
VERTEX
  8
0
  6
CONTINUOUS
 10
6.383960
 20
1.946120
  0
SEQEND
  8
0
  0
SOLID
  8
0
 62
    15
 10
6.386160
 20
1.927640
 11
6.382640
 21
2.668160
 12
6.392320
 22
1.908720
 13
6.389240
 23
2.649680
  0
POLYLINE
  8
0
  6
CONTINUOUS
 66
     1
 40
0.000000
 41
0.000000
  0
VERTEX
  8
0
  6
CONTINUOUS
 10
6.386160
 20
1.927640
  0
VERTEX
  8
0
  6
CONTINUOUS
 10
6.382640
 20
2.668160
  0
VERTEX
  8
0
  6
CONTINUOUS
 10
6.389240
 20
2.649680
  0
VERTEX
  8
0
  6
CONTINUOUS
 10
6.392320
 20
1.908720
  0
VERTEX
  8
0
  6
CONTINUOUS
 10
6.386160
 20
1.927640
  0
SEQEND
  8
0
  0
SOLID
  8
0
 62
    15
 10
6.392320
 20
1.908720
 11
6.389240
 21
2.649680
 12
6.405080
 22
1.893760
 13
6.401560
 23
2.634280
  0
POLYLINE
  8
0
  6
CONTINUOUS
 66
     1
 40
0.000000
 41
0.000000
  0
VERTEX
  8
0
  6
CONTINUOUS
 10
6.392320
 20
1.908720
  0
VERTEX
  8
0
  6
CONTINUOUS
 10
6.389240
 20
2.649680
  0
VERTEX
  8
0
  6
CONTINUOUS
 10
6.401560
 20
2.634280
  0
VERTEX
  8
0
  6
CONTINUOUS
 10
6.405080
 20
1.893760
  0
VERTEX
  8
0
  6
CONTINUOUS
 10
6.392320
 20
1.908720
  0
SEQEND
  8
0
  0
SOLID
  8
0
 62
    15
 10
6.405080
 20
1.893760
 11
6.401560
 21
2.634280
 12
6.440280
 22
1.877480
 13
6.437200
 23
2.618000
  0
POLYLINE
  8
0
  6
CONTINUOUS
 66
     1
 40
0.000000
 41
0.000000
  0
VERTEX
  8
0
  6
CONTINUOUS
 10
6.405080
 20
1.893760
  0
VERTEX
  8
0
  6
CONTINUOUS
 10
6.401560
 20
2.634280
  0
VERTEX
  8
0
  6
CONTINUOUS
 10
6.437200
 20
2.618000
  0
VERTEX
  8
0
  6
CONTINUOUS
 10
6.440280
 20
1.877480
  0
VERTEX
  8
0
  6
CONTINUOUS
 10
6.405080
 20
1.893760
  0
SEQEND
  8
0
  0
SOLID
  8
0
 62
    15
 10
6.440280
 20
1.877480
 11
6.437200
 21
2.618000
 12
6.477680
 22
1.882760
 13
6.474160
 23
2.623280
  0
POLYLINE
  8
0
  6
CONTINUOUS
 66
     1
 40
0.000000
 41
0.000000
  0
VERTEX
  8
0
  6
CONTINUOUS
 10
6.440280
 20
1.877480
  0
VERTEX
  8
0
  6
CONTINUOUS
 10
6.437200
 20
2.618000
  0
VERTEX
  8
0
  6
CONTINUOUS
 10
6.474160
 20
2.623280
  0
VERTEX
  8
0
  6
CONTINUOUS
 10
6.477680
 20
1.882760
  0
VERTEX
  8
0
  6
CONTINUOUS
 10
6.440280
 20
1.877480
  0
SEQEND
  8
0
  0
SOLID
  8
0
 62
    15
 10
6.477680
 20
1.882760
 11
6.474160
 21
2.623280
 12
6.492200
 22
1.895520
 13
6.489120
 23
2.636040
  0
POLYLINE
  8
0
  6
CONTINUOUS
 66
     1
 40
0.000000
 41
0.000000
  0
VERTEX
  8
0
  6
CONTINUOUS
 10
6.477680
 20
1.882760
  0
VERTEX
  8
0
  6
CONTINUOUS
 10
6.474160
 20
2.623280
  0
VERTEX
  8
0
  6
CONTINUOUS
 10
6.489120
 20
2.636040
  0
VERTEX
  8
0
  6
CONTINUOUS
 10
6.492200
 20
1.895520
  0
VERTEX
  8
0
  6
CONTINUOUS
 10
6.477680
 20
1.882760
  0
SEQEND
  8
0
  0
SOLID
  8
0
 62
    15
 10
6.492200
 20
1.895520
 11
6.489120
 21
2.636040
 12
6.501880
 22
1.915760
 13
6.498800
 23
2.656280
  0
POLYLINE
  8
0
  6
CONTINUOUS
 66
     1
 40
0.000000
 41
0.000000
  0
VERTEX
  8
0
  6
CONTINUOUS
 10
6.492200
 20
1.895520
  0
VERTEX
  8
0
  6
CONTINUOUS
 10
6.489120
 20
2.636040
  0
VERTEX
  8
0
  6
CONTINUOUS
 10
6.498800
 20
2.656280
  0
VERTEX
  8
0
  6
CONTINUOUS
 10
6.501880
 20
1.915760
  0
VERTEX
  8
0
  6
CONTINUOUS
 10
6.492200
 20
1.895520
  0
SEQEND
  8
0
  0
SOLID
  8
0
 62
    15
 10
6.501880
 20
1.915760
 11
6.498800
 21
2.656280
 12
6.512000
 22
1.935560
 13
6.508920
 23
2.676080
  0
POLYLINE
  8
0
  6
CONTINUOUS
 66
     1
 40
0.000000
 41
0.000000
  0
VERTEX
  8
0
  6
CONTINUOUS
 10
6.501880
 20
1.915760
  0
VERTEX
  8
0
  6
CONTINUOUS
 10
6.498800
 20
2.656280
  0
VERTEX
  8
0
  6
CONTINUOUS
 10
6.508920
 20
2.676080
  0
VERTEX
  8
0
  6
CONTINUOUS
 10
6.512000
 20
1.935560
  0
VERTEX
  8
0
  6
CONTINUOUS
 10
6.501880
 20
1.915760
  0
SEQEND
  8
0
  0
SOLID
  8
0
 62
    15
 10
6.512000
 20
1.935560
 11
6.508920
 21
2.676080
 12
6.530040
 22
1.951840
 13
6.526520
 23
2.692360
  0
POLYLINE
  8
0
  6
CONTINUOUS
 66
     1
 40
0.000000
 41
0.000000
  0
VERTEX
  8
0
  6
CONTINUOUS
 10
6.512000
 20
1.935560
  0
VERTEX
  8
0
  6
CONTINUOUS
 10
6.508920
 20
2.676080
  0
VERTEX
  8
0
  6
CONTINUOUS
 10
6.526520
 20
2.692360
  0
VERTEX
  8
0
  6
CONTINUOUS
 10
6.530040
 20
1.951840
  0
VERTEX
  8
0
  6
CONTINUOUS
 10
6.512000
 20
1.935560
  0
SEQEND
  8
0
  0
SOLID
  8
0
 62
    15
 10
6.530040
 20
1.951840
 11
6.526520
 21
2.692360
 12
6.552920
 22
1.961960
 13
6.549840
 23
2.702480
  0
POLYLINE
  8
0
  6
CONTINUOUS
 66
     1
 40
0.000000
 41
0.000000
  0
VERTEX
  8
0
  6
CONTINUOUS
 10
6.530040
 20
1.951840
  0
VERTEX
  8
0
  6
CONTINUOUS
 10
6.526520
 20
2.692360
  0
VERTEX
  8
0
  6
CONTINUOUS
 10
6.549840
 20
2.702480
  0
VERTEX
  8
0
  6
CONTINUOUS
 10
6.552920
 20
1.961960
  0
VERTEX
  8
0
  6
CONTINUOUS
 10
6.530040
 20
1.951840
  0
SEQEND
  8
0
  0
SOLID
  8
0
 62
    15
 10
6.552920
 20
1.961960
 11
6.549840
 21
2.702480
 12
6.578440
 22
1.964600
 13
6.575360
 23
2.705120
  0
POLYLINE
  8
0
  6
CONTINUOUS
 66
     1
 40
0.000000
 41
0.000000
  0
VERTEX
  8
0
  6
CONTINUOUS
 10
6.552920
 20
1.961960
  0
VERTEX
  8
0
  6
CONTINUOUS
 10
6.549840
 20
2.702480
  0
VERTEX
  8
0
  6
CONTINUOUS
 10
6.575360
 20
2.705120
  0
VERTEX
  8
0
  6
CONTINUOUS
 10
6.578440
 20
1.964600
  0
VERTEX
  8
0
  6
CONTINUOUS
 10
6.552920
 20
1.961960
  0
SEQEND
  8
0
  0
SOLID
  8
0
 62
    15
 10
6.578440
 20
1.964600
 11
6.575360
 21
2.705120
 12
6.604400
 22
1.956680
 13
6.600880
 23
2.697200
  0
POLYLINE
  8
0
  6
CONTINUOUS
 66
     1
 40
0.000000
 41
0.000000
  0
VERTEX
  8
0
  6
CONTINUOUS
 10
6.578440
 20
1.964600
  0
VERTEX
  8
0
  6
CONTINUOUS
 10
6.575360
 20
2.705120
  0
VERTEX
  8
0
  6
CONTINUOUS
 10
6.600880
 20
2.697200
  0
VERTEX
  8
0
  6
CONTINUOUS
 10
6.604400
 20
1.956680
  0
VERTEX
  8
0
  6
CONTINUOUS
 10
6.578440
 20
1.964600
  0
SEQEND
  8
0
  0
SOLID
  8
0
 62
    15
 10
6.604400
 20
1.956680
 11
6.600880
 21
2.697200
 12
6.627280
 22
1.937320
 13
6.623760
 23
2.677840
  0
POLYLINE
  8
0
  6
CONTINUOUS
 66
     1
 40
0.000000
 41
0.000000
  0
VERTEX
  8
0
  6
CONTINUOUS
 10
6.604400
 20
1.956680
  0
VERTEX
  8
0
  6
CONTINUOUS
 10
6.600880
 20
2.697200
  0
VERTEX
  8
0
  6
CONTINUOUS
 10
6.623760
 20
2.677840
  0
VERTEX
  8
0
  6
CONTINUOUS
 10
6.627280
 20
1.937320
  0
VERTEX
  8
0
  6
CONTINUOUS
 10
6.604400
 20
1.956680
  0
SEQEND
  8
0
  0
SOLID
  8
0
 62
    15
 10
6.627280
 20
1.937320
 11
6.623760
 21
2.677840
 12
6.644880
 22
1.903440
 13
6.641800
 23
2.643960
  0
POLYLINE
  8
0
  6
CONTINUOUS
 66
     1
 40
0.000000
 41
0.000000
  0
VERTEX
  8
0
  6
CONTINUOUS
 10
6.627280
 20
1.937320
  0
VERTEX
  8
0
  6
CONTINUOUS
 10
6.623760
 20
2.677840
  0
VERTEX
  8
0
  6
CONTINUOUS
 10
6.641800
 20
2.643960
  0
VERTEX
  8
0
  6
CONTINUOUS
 10
6.644880
 20
1.903440
  0
VERTEX
  8
0
  6
CONTINUOUS
 10
6.627280
 20
1.937320
  0
SEQEND
  8
0
  0
SOLID
  8
0
 62
    15
 10
6.655440
 20
1.783760
 11
6.651920
 21
2.524280
 12
6.732440
 22
1.783760
 13
6.729360
 23
2.524280
  0
POLYLINE
  8
0
  6
CONTINUOUS
 66
     1
 40
0.000000
 41
0.000000
  0
VERTEX
  8
0
  6
CONTINUOUS
 10
6.655440
 20
1.783760
  0
VERTEX
  8
0
  6
CONTINUOUS
 10
6.651920
 20
2.524280
  0
VERTEX
  8
0
  6
CONTINUOUS
 10
6.729360
 20
2.524280
  0
VERTEX
  8
0
  6
CONTINUOUS
 10
6.732440
 20
1.783760
  0
VERTEX
  8
0
  6
CONTINUOUS
 10
6.655440
 20
1.783760
  0
SEQEND
  8
0
  0
SOLID
  8
0
 62
    15
 10
6.644880
 20
1.903440
 11
6.641800
 21
2.643960
 12
6.655440
 22
1.853280
 13
6.651920
 23
2.593800
  0
POLYLINE
  8
0
  6
CONTINUOUS
 66
     1
 40
0.000000
 41
0.000000
  0
VERTEX
  8
0
  6
CONTINUOUS
 10
6.644880
 20
1.903440
  0
VERTEX
  8
0
  6
CONTINUOUS
 10
6.641800
 20
2.643960
  0
VERTEX
  8
0
  6
CONTINUOUS
 10
6.651920
 20
2.593800
  0
VERTEX
  8
0
  6
CONTINUOUS
 10
6.655440
 20
1.853280
  0
VERTEX
  8
0
  6
CONTINUOUS
 10
6.644880
 20
1.903440
  0
SEQEND
  8
0
  0
POLYLINE
  8
0
  6
CONTINUOUS
 66
     1
 40
0.000000
 41
0.000000
  0
VERTEX
  8
0
  6
CONTINUOUS
 10
6.732440
 20
1.783760
  0
VERTEX
  8
0
  6
CONTINUOUS
 10
6.757080
 20
1.721280
  0
VERTEX
  8
0
  6
CONTINUOUS
 10
6.790960
 20
1.670680
  0
VERTEX
  8
0
  6
CONTINUOUS
 10
6.815160
 20
1.651320
  0
VERTEX
  8
0
  6
CONTINUOUS
 10
6.845520
 20
1.637240
  0
VERTEX
  8
0
  6
CONTINUOUS
 10
6.883800
 20
1.628880
  0
VERTEX
  8
0
  6
CONTINUOUS
 10
6.931320
 20
1.626240
  0
VERTEX
  8
0
  6
CONTINUOUS
 10
6.931320
 20
1.540880
  0
VERTEX
  8
0
  6
CONTINUOUS
 10
6.268680
 20
1.540880
  0
VERTEX
  8
0
  6
CONTINUOUS
 10
6.268680
 20
0.786280
  0
VERTEX
  8
0
  6
CONTINUOUS
 10
5.153720
 20
0.786280
  0
VERTEX
  8
0
  6
CONTINUOUS
 10
5.155480
 20
0.787600
  0
VERTEX
  8
0
  6
CONTINUOUS
 10
5.155480
 20
1.126400
  0
VERTEX
  8
0
  6
CONTINUOUS
 10
5.153720
 20
1.129040
  0
VERTEX
  8
0
  6
CONTINUOUS
 10
5.153720
 20
2.236960
  0
VERTEX
  8
0
  6
CONTINUOUS
 10
5.599440
 20
2.236960
  0
VERTEX
  8
0
  6
CONTINUOUS
 10
5.599440
 20
2.117280
  0
VERTEX
  8
0
  6
CONTINUOUS
 10
5.695360
 20
2.117280
  0
VERTEX
  8
0
  6
CONTINUOUS
 10
5.727040
 20
2.171400
  0
VERTEX
  8
0
  6
CONTINUOUS
 10
5.765760
 20
2.209680
  0
VERTEX
  8
0
  6
CONTINUOUS
 10
5.808440
 20
2.231240
  0
VERTEX
  8
0
  6
CONTINUOUS
 10
5.853760
 20
2.237400
  0
VERTEX
  8
0
  6
CONTINUOUS
 10
5.898640
 20
2.228160
  0
VERTEX
  8
0
  6
CONTINUOUS
 10
5.942200
 20
2.204400
  0
VERTEX
  8
0
  6
CONTINUOUS
 10
5.981360
 20
2.166120
  0
VERTEX
  8
0
  6
CONTINUOUS
 10
6.013920
 20
2.114640
  0
VERTEX
  8
0
  6
CONTINUOUS
 10
6.049560
 20
2.082520
  0
VERTEX
  8
0
  6
CONTINUOUS
 10
6.083000
 20
2.058760
  0
VERTEX
  8
0
  6
CONTINUOUS
 10
6.148120
 20
2.030600
  0
VERTEX
  8
0
  6
CONTINUOUS
 10
6.222040
 20
2.019600
  0
VERTEX
  8
0
  6
CONTINUOUS
 10
6.317960
 20
2.015640
  0
VERTEX
  8
0
  6
CONTINUOUS
 10
6.339960
 20
2.018720
  0
VERTEX
  8
0
  6
CONTINUOUS
 10
6.355800
 20
2.016080
  0
VERTEX
  8
0
  6
CONTINUOUS
 10
6.374280
 20
1.996280
  0
VERTEX
  8
0
  6
CONTINUOUS
 10
6.383080
 20
1.955360
  0
VERTEX
  8
0
  6
CONTINUOUS
 10
6.386160
 20
1.927640
  0
VERTEX
  8
0
  6
CONTINUOUS
 10
6.392320
 20
1.908720
  0
VERTEX
  8
0
  6
CONTINUOUS
 10
6.405080
 20
1.893760
  0
VERTEX
  8
0
  6
CONTINUOUS
 10
6.440280
 20
1.877480
  0
VERTEX
  8
0
  6
CONTINUOUS
 10
6.477680
 20
1.882760
  0
VERTEX
  8
0
  6
CONTINUOUS
 10
6.492200
 20
1.895520
  0
VERTEX
  8
0
  6
CONTINUOUS
 10
6.512000
 20
1.935560
  0
VERTEX
  8
0
  6
CONTINUOUS
 10
6.530040
 20
1.951840
  0
VERTEX
  8
0
  6
CONTINUOUS
 10
6.552920
 20
1.961960
  0
VERTEX
  8
0
  6
CONTINUOUS
 10
6.578440
 20
1.964600
  0
VERTEX
  8
0
  6
CONTINUOUS
 10
6.604400
 20
1.956680
  0
VERTEX
  8
0
  6
CONTINUOUS
 10
6.627280
 20
1.937320
  0
VERTEX
  8
0
  6
CONTINUOUS
 10
6.644880
 20
1.903440
  0
VERTEX
  8
0
  6
CONTINUOUS
 10
6.655440
 20
1.853280
  0
VERTEX
  8
0
  6
CONTINUOUS
 10
6.655440
 20
1.783760
  0
VERTEX
  8
0
  6
CONTINUOUS
 10
6.732440
 20
1.783760
  0
SEQEND
  8
0
  0
TEXT
  8
0
 10
5.791720
 20
0.542960
 40
0.138204
  1
BA  21
 41
1.000000
  7
SN0
 71
     0
 72
     5
 11
6.290602
 21
0.542960
  0
TEXT
  8
0
 10
5.515840
 20
0.351120
 40
0.138204
  1
1-1/2" x 1-3/4"
 41
1.000000
  7
SN0
 71
     0
 72
     5
 11
6.565821
 21
0.351120
  0
TEXT
  8
0
 10
7.340080
 20
3.085280
 40
0.138204
  1
back band
 41
1.000000
  7
SN0
 71
     0
 72
     5
 11
8.106746
 21
3.085280
  0
TEXT
  8
0
 10
7.630480
 20
2.893440
 40
0.138204
  1
21
 41
1.000000
  7
SN0
 71
     0
 72
     5
 11
7.815519
 21
2.893440
  0
ENDSEC
  0
EOF
