  0
SECTION
  2
HEADER
  9
$ACADVER
  1
AC1006
  9
$EXTMIN
 10
4.310240
 20
0.294800
  9
$EXTMAX
 10
8.162880
 20
2.674320
  9
$LTSCALE
 40
0.044000
  9
$PDMODE
 70
    35
  9
$PDSIZE
 40
0.035200
  0
ENDSEC
  0
SECTION
  2
TABLES
  0
TABLE
  2
LTYPE
 70
     9
  0
LTYPE
  2
CONTINUOUS
 70
    64
  3
Solid line
 72
    65
 73
     0
 40
0.000000
  0
LTYPE
  2
DASHED
 70
    64
  3
__ __ __ __ __ __ __ __ __ __ __ __ __ __ __
 72
    65
 73
     2
 40
0.000330
 49
0.000220
 49
-0.000110
  0
LTYPE
  2
HIDDEN
 70
    64
  3
 _ _ _ _ _ _ _ _ _ _ _ _ _ _ _ _ _ _ _ _ _ _
 72
    65
 73
     2
 40
0.000165
 49
0.000110
 49
-0.000055
  0
LTYPE
  2
CENTER
 70
    64
  3
____ _ ____ _ ____ _ ____ _ ____ _ ____ _ ____
 72
    65
 73
     4
 40
0.000880
 49
0.000550
 49
-0.000110
 49
0.000110
 49
-0.000110
  0
LTYPE
  2
PHANTOM
 70
    64
  3
_____ _ _ _____ _ _ _____ _ _ _____ _ _ ____
 72
    65
 73
     6
 40
0.001100
 49
0.000550
 49
-0.000110
 49
0.000110
 49
-0.000110
 49
0.000110
 49
-0.000110
  0
LTYPE
  2
DOT
 70
    64
  3
...............................................
 72
    65
 73
     2
 40
0.000110
 49
0.000000
 49
-0.000110
  0
LTYPE
  2
DASHDOT
 70
    64
  3
__ . __ . __ . __ . __ . __ . __ . __ . __ . __
 72
    65
 73
     4
 40
0.000440
 49
0.000220
 49
-0.000110
 49
0.000000
 49
-0.000110
  0
LTYPE
  2
BORDER
 70
    64
  3
__ __ . __ __ . __ __ . __ __ . __ __ . __ __
 72
    65
 73
     6
 40
0.000770
 49
0.000220
 49
-0.000110
 49
0.000220
 49
-0.000110
 49
0.000000
 49
-0.000110
  0
LTYPE
  2
DIVIDE
 70
    64
  3
__ . . __ . . __ . . __ . . __ . . __ . . __
 72
    65
 73
     6
 40
0.000550
 49
0.000220
 49
-0.000110
 49
0.000000
 49
-0.000110
 49
0.000000
 49
-0.000110
  0
LTYPE
  2
DOTDOT
 70
    64
  3
 . .  . .  . .  . .  . .  . . 
 72
    65
 73
     5
 40
0.000242
 49
-0.000110
 49
0.000000
 49
-0.000110
 49
0.000000
 49
-0.000110
  0
ENDTAB
  0
TABLE
  2
STYLE
 70
     2
  0
STYLE
 70
     0
  2
SN0
 40
0.000000
 41
0.000440
 50
0.000000
 71
     0
 42
0.000000
  3
ROMAND
  0
STYLE
 70
    68
  2
SV0
 40
0.000000
 41
0.000440
 50
0.000000
 71
     0
 42
0.000000
  3
ROMAND
  0
ENDTAB
  0
TABLE
  2
LAYER
 70
     3
  0
LAYER
  2
FOREGROUND
 70
    64
 62
     7
  6
CONTINUOUS
  0
LAYER
  2
BACKGROUND
 70
    65
 62
    -7
  6
CONTINUOUS
  0
LAYER
  2
0
 70
    64
 62
     7
  6
CONTINUOUS
  0
ENDTAB
  0
ENDSEC
  0
SECTION
  2
ENTITIES
  0
POLYLINE
  8
FOREGROUND
  6
CONTINUOUS
 66
     1
 40
0.000000
 41
0.000000
  0
VERTEX
  8
FOREGROUND
  6
CONTINUOUS
 10
0.000000
 20
2.969120
  0
VERTEX
  8
FOREGROUND
  6
CONTINUOUS
 10
8.499920
 20
2.969120
  0
VERTEX
  8
FOREGROUND
  6
CONTINUOUS
 10
8.499920
 20
-8.030880
  0
VERTEX
  8
FOREGROUND
  6
CONTINUOUS
 10
0.000000
 20
-8.030880
  0
VERTEX
  8
FOREGROUND
  6
CONTINUOUS
 10
0.000000
 20
2.969120
  0
SEQEND
  8
0
  0
POLYLINE
  8
FOREGROUND
  6
CONTINUOUS
 66
     1
 40
0.000000
 41
0.000000
  0
VERTEX
  8
FOREGROUND
  6
CONTINUOUS
 10
0.000000
 20
2.969120
  0
VERTEX
  8
FOREGROUND
  6
CONTINUOUS
 10
8.499920
 20
2.969120
  0
VERTEX
  8
FOREGROUND
  6
CONTINUOUS
 10
8.499920
 20
-8.030880
  0
VERTEX
  8
FOREGROUND
  6
CONTINUOUS
 10
0.000000
 20
-8.030880
  0
VERTEX
  8
FOREGROUND
  6
CONTINUOUS
 10
0.000000
 20
2.969120
  0
SEQEND
  8
0
  0
POLYLINE
  8
0
  6
CONTINUOUS
 66
     1
 40
0.013200
 41
0.013200
  0
VERTEX
  8
0
  6
CONTINUOUS
 10
6.542800
 20
2.199120
  0
VERTEX
  8
0
  6
CONTINUOUS
 10
6.527442
 20
2.179525
  0
VERTEX
  8
0
  6
CONTINUOUS
 10
6.515142
 20
2.160176
  0
VERTEX
  8
0
  6
CONTINUOUS
 10
6.505741
 20
2.141090
  0
VERTEX
  8
0
  6
CONTINUOUS
 10
6.499077
 20
2.122284
  0
VERTEX
  8
0
  6
CONTINUOUS
 10
6.494991
 20
2.103774
  0
VERTEX
  8
0
  6
CONTINUOUS
 10
6.493323
 20
2.085579
  0
VERTEX
  8
0
  6
CONTINUOUS
 10
6.493913
 20
2.067714
  0
VERTEX
  8
0
  6
CONTINUOUS
 10
6.496601
 20
2.050197
  0
VERTEX
  8
0
  6
CONTINUOUS
 10
6.501228
 20
2.033046
  0
VERTEX
  8
0
  6
CONTINUOUS
 10
6.507633
 20
2.016276
  0
VERTEX
  8
0
  6
CONTINUOUS
 10
6.515655
 20
1.999905
  0
VERTEX
  8
0
  6
CONTINUOUS
 10
6.525137
 20
1.983949
  0
VERTEX
  8
0
  6
CONTINUOUS
 10
6.535916
 20
1.968427
  0
VERTEX
  8
0
  6
CONTINUOUS
 10
6.547834
 20
1.953355
  0
VERTEX
  8
0
  6
CONTINUOUS
 10
6.560730
 20
1.938750
  0
VERTEX
  8
0
  6
CONTINUOUS
 10
6.574445
 20
1.924629
  0
VERTEX
  8
0
  6
CONTINUOUS
 10
6.588818
 20
1.911009
  0
VERTEX
  8
0
  6
CONTINUOUS
 10
6.603689
 20
1.897907
  0
VERTEX
  8
0
  6
CONTINUOUS
 10
6.618899
 20
1.885339
  0
VERTEX
  8
0
  6
CONTINUOUS
 10
6.634287
 20
1.873324
  0
VERTEX
  8
0
  6
CONTINUOUS
 10
6.649694
 20
1.861878
  0
VERTEX
  8
0
  6
CONTINUOUS
 10
6.664960
 20
1.851019
  0
VERTEX
  8
0
  6
CONTINUOUS
 10
6.679925
 20
1.840762
  0
VERTEX
  8
0
  6
CONTINUOUS
 10
6.694428
 20
1.831125
  0
VERTEX
  8
0
  6
CONTINUOUS
 10
6.708309
 20
1.822126
  0
VERTEX
  8
0
  6
CONTINUOUS
 10
6.721410
 20
1.813780
  0
VERTEX
  8
0
  6
CONTINUOUS
 10
6.733569
 20
1.806106
  0
VERTEX
  8
0
  6
CONTINUOUS
 10
6.744627
 20
1.799120
  0
VERTEX
  8
0
  6
CONTINUOUS
 10
6.754424
 20
1.792839
  0
VERTEX
  8
0
  6
CONTINUOUS
 10
6.762800
 20
1.787280
  0
SEQEND
  8
0
  0
POLYLINE
  8
0
  6
CONTINUOUS
 66
     1
 40
0.013200
 41
0.013200
  0
VERTEX
  8
0
  6
CONTINUOUS
 10
6.762800
 20
1.787280
  0
VERTEX
  8
0
  6
CONTINUOUS
 10
6.769385
 20
1.785033
  0
VERTEX
  8
0
  6
CONTINUOUS
 10
6.776604
 20
1.782091
  0
VERTEX
  8
0
  6
CONTINUOUS
 10
6.784407
 20
1.778471
  0
VERTEX
  8
0
  6
CONTINUOUS
 10
6.792744
 20
1.774193
  0
VERTEX
  8
0
  6
CONTINUOUS
 10
6.801564
 20
1.769275
  0
VERTEX
  8
0
  6
CONTINUOUS
 10
6.810818
 20
1.763736
  0
VERTEX
  8
0
  6
CONTINUOUS
 10
6.820455
 20
1.757595
  0
VERTEX
  8
0
  6
CONTINUOUS
 10
6.830426
 20
1.750869
  0
VERTEX
  8
0
  6
CONTINUOUS
 10
6.840679
 20
1.743579
  0
VERTEX
  8
0
  6
CONTINUOUS
 10
6.851165
 20
1.735741
  0
VERTEX
  8
0
  6
CONTINUOUS
 10
6.861834
 20
1.727376
  0
VERTEX
  8
0
  6
CONTINUOUS
 10
6.872636
 20
1.718501
  0
VERTEX
  8
0
  6
CONTINUOUS
 10
6.883520
 20
1.709135
  0
VERTEX
  8
0
  6
CONTINUOUS
 10
6.894436
 20
1.699297
  0
VERTEX
  8
0
  6
CONTINUOUS
 10
6.905334
 20
1.689005
  0
VERTEX
  8
0
  6
CONTINUOUS
 10
6.916164
 20
1.678278
  0
VERTEX
  8
0
  6
CONTINUOUS
 10
6.926876
 20
1.667135
  0
VERTEX
  8
0
  6
CONTINUOUS
 10
6.937420
 20
1.655594
  0
VERTEX
  8
0
  6
CONTINUOUS
 10
6.947746
 20
1.643675
  0
VERTEX
  8
0
  6
CONTINUOUS
 10
6.957802
 20
1.631394
  0
VERTEX
  8
0
  6
CONTINUOUS
 10
6.967540
 20
1.618772
  0
VERTEX
  8
0
  6
CONTINUOUS
 10
6.976909
 20
1.605826
  0
VERTEX
  8
0
  6
CONTINUOUS
 10
6.985859
 20
1.592576
  0
VERTEX
  8
0
  6
CONTINUOUS
 10
6.994340
 20
1.579040
  0
VERTEX
  8
0
  6
CONTINUOUS
 10
7.002301
 20
1.565236
  0
VERTEX
  8
0
  6
CONTINUOUS
 10
7.009693
 20
1.551184
  0
VERTEX
  8
0
  6
CONTINUOUS
 10
7.016466
 20
1.536901
  0
VERTEX
  8
0
  6
CONTINUOUS
 10
7.022568
 20
1.522407
  0
VERTEX
  8
0
  6
CONTINUOUS
 10
7.027950
 20
1.507720
  0
VERTEX
  8
0
  6
CONTINUOUS
 10
7.032563
 20
1.492858
  0
VERTEX
  8
0
  6
CONTINUOUS
 10
7.036355
 20
1.477841
  0
VERTEX
  8
0
  6
CONTINUOUS
 10
7.039277
 20
1.462687
  0
VERTEX
  8
0
  6
CONTINUOUS
 10
7.041278
 20
1.447414
  0
VERTEX
  8
0
  6
CONTINUOUS
 10
7.042309
 20
1.432042
  0
VERTEX
  8
0
  6
CONTINUOUS
 10
7.042318
 20
1.416588
  0
VERTEX
  8
0
  6
CONTINUOUS
 10
7.041257
 20
1.401072
  0
VERTEX
  8
0
  6
CONTINUOUS
 10
7.039074
 20
1.385512
  0
VERTEX
  8
0
  6
CONTINUOUS
 10
7.035721
 20
1.369926
  0
VERTEX
  8
0
  6
CONTINUOUS
 10
7.031146
 20
1.354334
  0
VERTEX
  8
0
  6
CONTINUOUS
 10
7.025299
 20
1.338753
  0
VERTEX
  8
0
  6
CONTINUOUS
 10
7.018130
 20
1.323203
  0
VERTEX
  8
0
  6
CONTINUOUS
 10
7.009590
 20
1.307702
  0
VERTEX
  8
0
  6
CONTINUOUS
 10
6.999628
 20
1.292269
  0
VERTEX
  8
0
  6
CONTINUOUS
 10
6.988193
 20
1.276923
  0
VERTEX
  8
0
  6
CONTINUOUS
 10
6.975236
 20
1.261681
  0
VERTEX
  8
0
  6
CONTINUOUS
 10
6.960707
 20
1.246563
  0
VERTEX
  8
0
  6
CONTINUOUS
 10
6.944555
 20
1.231587
  0
VERTEX
  8
0
  6
CONTINUOUS
 10
6.926730
 20
1.216771
  0
VERTEX
  8
0
  6
CONTINUOUS
 10
6.907183
 20
1.202136
  0
VERTEX
  8
0
  6
CONTINUOUS
 10
6.885862
 20
1.187698
  0
VERTEX
  8
0
  6
CONTINUOUS
 10
6.862718
 20
1.173477
  0
VERTEX
  8
0
  6
CONTINUOUS
 10
6.837701
 20
1.159492
  0
VERTEX
  8
0
  6
CONTINUOUS
 10
6.810760
 20
1.145760
  0
SEQEND
  8
0
  0
POLYLINE
  8
0
  6
CONTINUOUS
 66
     1
 40
0.013200
 41
0.013200
  0
VERTEX
  8
0
  6
CONTINUOUS
 10
6.810760
 20
1.145760
  0
VERTEX
  8
0
  6
CONTINUOUS
 10
6.810760
 20
1.060400
  0
SEQEND
  8
0
  0
POLYLINE
  8
0
  6
CONTINUOUS
 66
     1
 40
0.013200
 41
0.013200
  0
VERTEX
  8
0
  6
CONTINUOUS
 10
6.810760
 20
1.060400
  0
VERTEX
  8
0
  6
CONTINUOUS
 10
6.197400
 20
1.060400
  0
SEQEND
  8
0
  0
POLYLINE
  8
0
  6
CONTINUOUS
 66
     1
 40
0.013200
 41
0.013200
  0
VERTEX
  8
0
  6
CONTINUOUS
 10
6.197400
 20
1.060400
  0
VERTEX
  8
0
  6
CONTINUOUS
 10
6.197400
 20
2.489960
  0
SEQEND
  8
0
  0
POLYLINE
  8
0
  6
CONTINUOUS
 66
     1
 40
0.013200
 41
0.013200
  0
VERTEX
  8
0
  6
CONTINUOUS
 10
6.197400
 20
2.489960
  0
VERTEX
  8
0
  6
CONTINUOUS
 10
6.412120
 20
2.489960
  0
SEQEND
  8
0
  0
POLYLINE
  8
0
  6
CONTINUOUS
 66
     1
 40
0.013200
 41
0.013200
  0
VERTEX
  8
0
  6
CONTINUOUS
 10
6.414760
 20
2.489960
  0
VERTEX
  8
0
  6
CONTINUOUS
 10
6.542800
 20
2.199120
  0
SEQEND
  8
0
  0
TEXT
  8
0
 10
6.315760
 20
1.131240
 40
0.160693
  1
20
 41
1.000000
  7
SN0
 71
     0
 72
     5
 11
6.530737
 21
1.131240
  0
SOLID
  8
0
 62
     7
 10
4.964080
 20
1.443640
 11
5.613960
 21
1.803560
 12
4.999720
 22
1.413720
 13
5.649600
 23
1.774080
  0
POLYLINE
  8
0
  6
CONTINUOUS
 66
     1
 40
0.000000
 41
0.000000
  0
VERTEX
  8
0
  6
CONTINUOUS
 10
4.964080
 20
1.443640
  0
VERTEX
  8
0
  6
CONTINUOUS
 10
5.613960
 20
1.803560
  0
VERTEX
  8
0
  6
CONTINUOUS
 10
5.649600
 20
1.774080
  0
VERTEX
  8
0
  6
CONTINUOUS
 10
4.999720
 20
1.413720
  0
VERTEX
  8
0
  6
CONTINUOUS
 10
4.964080
 20
1.443640
  0
SEQEND
  8
0
  0
SOLID
  8
0
 62
    15
 10
4.656080
 20
1.906520
 11
5.305960
 21
2.266440
 12
4.630120
 22
1.870000
 13
5.279560
 23
2.229920
  0
POLYLINE
  8
0
  6
CONTINUOUS
 66
     1
 40
0.000000
 41
0.000000
  0
VERTEX
  8
0
  6
CONTINUOUS
 10
4.656080
 20
1.906520
  0
VERTEX
  8
0
  6
CONTINUOUS
 10
5.305960
 20
2.266440
  0
VERTEX
  8
0
  6
CONTINUOUS
 10
5.279560
 20
2.229920
  0
VERTEX
  8
0
  6
CONTINUOUS
 10
4.630120
 20
1.870000
  0
VERTEX
  8
0
  6
CONTINUOUS
 10
4.656080
 20
1.906520
  0
SEQEND
  8
0
  0
SOLID
  8
0
 62
    15
 10
4.630120
 20
1.870000
 11
5.279560
 21
2.229920
 12
4.613840
 22
1.834360
 13
5.263720
 23
2.194280
  0
POLYLINE
  8
0
  6
CONTINUOUS
 66
     1
 40
0.000000
 41
0.000000
  0
VERTEX
  8
0
  6
CONTINUOUS
 10
4.630120
 20
1.870000
  0
VERTEX
  8
0
  6
CONTINUOUS
 10
5.279560
 20
2.229920
  0
VERTEX
  8
0
  6
CONTINUOUS
 10
5.263720
 20
2.194280
  0
VERTEX
  8
0
  6
CONTINUOUS
 10
4.613840
 20
1.834360
  0
VERTEX
  8
0
  6
CONTINUOUS
 10
4.630120
 20
1.870000
  0
SEQEND
  8
0
  0
SOLID
  8
0
 62
    15
 10
4.613840
 20
1.834360
 11
5.263720
 21
2.194280
 12
4.607240
 22
1.799600
 13
5.256680
 23
2.159520
  0
POLYLINE
  8
0
  6
CONTINUOUS
 66
     1
 40
0.000000
 41
0.000000
  0
VERTEX
  8
0
  6
CONTINUOUS
 10
4.613840
 20
1.834360
  0
VERTEX
  8
0
  6
CONTINUOUS
 10
5.263720
 20
2.194280
  0
VERTEX
  8
0
  6
CONTINUOUS
 10
5.256680
 20
2.159520
  0
VERTEX
  8
0
  6
CONTINUOUS
 10
4.607240
 20
1.799600
  0
VERTEX
  8
0
  6
CONTINUOUS
 10
4.613840
 20
1.834360
  0
SEQEND
  8
0
  0
SOLID
  8
0
 62
    15
 10
4.607240
 20
1.799600
 11
5.256680
 21
2.159520
 12
4.608560
 22
1.766160
 13
5.258000
 23
2.126080
  0
POLYLINE
  8
0
  6
CONTINUOUS
 66
     1
 40
0.000000
 41
0.000000
  0
VERTEX
  8
0
  6
CONTINUOUS
 10
4.607240
 20
1.799600
  0
VERTEX
  8
0
  6
CONTINUOUS
 10
5.256680
 20
2.159520
  0
VERTEX
  8
0
  6
CONTINUOUS
 10
5.258000
 20
2.126080
  0
VERTEX
  8
0
  6
CONTINUOUS
 10
4.608560
 20
1.766160
  0
VERTEX
  8
0
  6
CONTINUOUS
 10
4.607240
 20
1.799600
  0
SEQEND
  8
0
  0
SOLID
  8
0
 62
     7
 10
4.608560
 20
1.766160
 11
5.258000
 21
2.126080
 12
4.616920
 22
1.734040
 13
5.266800
 23
2.093960
  0
POLYLINE
  8
0
  6
CONTINUOUS
 66
     1
 40
0.000000
 41
0.000000
  0
VERTEX
  8
0
  6
CONTINUOUS
 10
4.608560
 20
1.766160
  0
VERTEX
  8
0
  6
CONTINUOUS
 10
5.258000
 20
2.126080
  0
VERTEX
  8
0
  6
CONTINUOUS
 10
5.266800
 20
2.093960
  0
VERTEX
  8
0
  6
CONTINUOUS
 10
4.616920
 20
1.734040
  0
VERTEX
  8
0
  6
CONTINUOUS
 10
4.608560
 20
1.766160
  0
SEQEND
  8
0
  0
SOLID
  8
0
 62
     7
 10
4.616920
 20
1.734040
 11
5.266800
 21
2.093960
 12
4.631440
 22
1.703240
 13
5.281320
 23
2.063160
  0
POLYLINE
  8
0
  6
CONTINUOUS
 66
     1
 40
0.000000
 41
0.000000
  0
VERTEX
  8
0
  6
CONTINUOUS
 10
4.616920
 20
1.734040
  0
VERTEX
  8
0
  6
CONTINUOUS
 10
5.266800
 20
2.093960
  0
VERTEX
  8
0
  6
CONTINUOUS
 10
5.281320
 20
2.063160
  0
VERTEX
  8
0
  6
CONTINUOUS
 10
4.631440
 20
1.703240
  0
VERTEX
  8
0
  6
CONTINUOUS
 10
4.616920
 20
1.734040
  0
SEQEND
  8
0
  0
SOLID
  8
0
 62
     7
 10
4.631440
 20
1.703240
 11
5.281320
 21
2.063160
 12
4.650800
 22
1.673760
 13
5.300680
 23
2.033680
  0
POLYLINE
  8
0
  6
CONTINUOUS
 66
     1
 40
0.000000
 41
0.000000
  0
VERTEX
  8
0
  6
CONTINUOUS
 10
4.631440
 20
1.703240
  0
VERTEX
  8
0
  6
CONTINUOUS
 10
5.281320
 20
2.063160
  0
VERTEX
  8
0
  6
CONTINUOUS
 10
5.300680
 20
2.033680
  0
VERTEX
  8
0
  6
CONTINUOUS
 10
4.650800
 20
1.673760
  0
VERTEX
  8
0
  6
CONTINUOUS
 10
4.631440
 20
1.703240
  0
SEQEND
  8
0
  0
SOLID
  8
0
 62
     7
 10
4.650800
 20
1.673760
 11
5.300680
 21
2.033680
 12
4.674120
 22
1.646040
 13
5.324000
 23
2.005960
  0
POLYLINE
  8
0
  6
CONTINUOUS
 66
     1
 40
0.000000
 41
0.000000
  0
VERTEX
  8
0
  6
CONTINUOUS
 10
4.650800
 20
1.673760
  0
VERTEX
  8
0
  6
CONTINUOUS
 10
5.300680
 20
2.033680
  0
VERTEX
  8
0
  6
CONTINUOUS
 10
5.324000
 20
2.005960
  0
VERTEX
  8
0
  6
CONTINUOUS
 10
4.674120
 20
1.646040
  0
VERTEX
  8
0
  6
CONTINUOUS
 10
4.650800
 20
1.673760
  0
SEQEND
  8
0
  0
SOLID
  8
0
 62
     7
 10
4.674120
 20
1.646040
 11
5.324000
 21
2.005960
 12
4.728680
 22
1.595440
 13
5.378120
 23
1.955800
  0
POLYLINE
  8
0
  6
CONTINUOUS
 66
     1
 40
0.000000
 41
0.000000
  0
VERTEX
  8
0
  6
CONTINUOUS
 10
4.674120
 20
1.646040
  0
VERTEX
  8
0
  6
CONTINUOUS
 10
5.324000
 20
2.005960
  0
VERTEX
  8
0
  6
CONTINUOUS
 10
5.378120
 20
1.955800
  0
VERTEX
  8
0
  6
CONTINUOUS
 10
4.728680
 20
1.595440
  0
VERTEX
  8
0
  6
CONTINUOUS
 10
4.674120
 20
1.646040
  0
SEQEND
  8
0
  0
SOLID
  8
0
 62
     7
 10
4.728680
 20
1.595440
 11
5.378120
 21
1.955800
 12
4.785880
 22
1.552760
 13
5.435760
 23
1.913120
  0
POLYLINE
  8
0
  6
CONTINUOUS
 66
     1
 40
0.000000
 41
0.000000
  0
VERTEX
  8
0
  6
CONTINUOUS
 10
4.728680
 20
1.595440
  0
VERTEX
  8
0
  6
CONTINUOUS
 10
5.378120
 20
1.955800
  0
VERTEX
  8
0
  6
CONTINUOUS
 10
5.435760
 20
1.913120
  0
VERTEX
  8
0
  6
CONTINUOUS
 10
4.785880
 20
1.552760
  0
VERTEX
  8
0
  6
CONTINUOUS
 10
4.728680
 20
1.595440
  0
SEQEND
  8
0
  0
SOLID
  8
0
 62
     7
 10
4.785880
 20
1.552760
 11
5.435760
 21
1.913120
 12
4.838240
 22
1.518880
 13
5.487680
 23
1.879240
  0
POLYLINE
  8
0
  6
CONTINUOUS
 66
     1
 40
0.000000
 41
0.000000
  0
VERTEX
  8
0
  6
CONTINUOUS
 10
4.785880
 20
1.552760
  0
VERTEX
  8
0
  6
CONTINUOUS
 10
5.435760
 20
1.913120
  0
VERTEX
  8
0
  6
CONTINUOUS
 10
5.487680
 20
1.879240
  0
VERTEX
  8
0
  6
CONTINUOUS
 10
4.838240
 20
1.518880
  0
VERTEX
  8
0
  6
CONTINUOUS
 10
4.785880
 20
1.552760
  0
SEQEND
  8
0
  0
SOLID
  8
0
 62
     7
 10
4.838240
 20
1.518880
 11
5.487680
 21
1.879240
 12
4.859360
 22
1.505240
 13
5.509240
 23
1.865600
  0
POLYLINE
  8
0
  6
CONTINUOUS
 66
     1
 40
0.000000
 41
0.000000
  0
VERTEX
  8
0
  6
CONTINUOUS
 10
4.838240
 20
1.518880
  0
VERTEX
  8
0
  6
CONTINUOUS
 10
5.487680
 20
1.879240
  0
VERTEX
  8
0
  6
CONTINUOUS
 10
5.509240
 20
1.865600
  0
VERTEX
  8
0
  6
CONTINUOUS
 10
4.859360
 20
1.505240
  0
VERTEX
  8
0
  6
CONTINUOUS
 10
4.838240
 20
1.518880
  0
SEQEND
  8
0
  0
SOLID
  8
0
 62
     7
 10
4.859360
 20
1.505240
 11
5.509240
 21
1.865600
 12
4.876080
 22
1.494240
 13
5.525960
 23
1.854600
  0
POLYLINE
  8
0
  6
CONTINUOUS
 66
     1
 40
0.000000
 41
0.000000
  0
VERTEX
  8
0
  6
CONTINUOUS
 10
4.859360
 20
1.505240
  0
VERTEX
  8
0
  6
CONTINUOUS
 10
5.509240
 20
1.865600
  0
VERTEX
  8
0
  6
CONTINUOUS
 10
5.525960
 20
1.854600
  0
VERTEX
  8
0
  6
CONTINUOUS
 10
4.876080
 20
1.494240
  0
VERTEX
  8
0
  6
CONTINUOUS
 10
4.859360
 20
1.505240
  0
SEQEND
  8
0
  0
SOLID
  8
0
 62
    15
 10
4.876080
 20
1.494240
 11
5.525960
 21
1.854600
 12
4.900720
 22
1.484560
 13
5.550160
 23
1.844480
  0
POLYLINE
  8
0
  6
CONTINUOUS
 66
     1
 40
0.000000
 41
0.000000
  0
VERTEX
  8
0
  6
CONTINUOUS
 10
4.876080
 20
1.494240
  0
VERTEX
  8
0
  6
CONTINUOUS
 10
5.525960
 20
1.854600
  0
VERTEX
  8
0
  6
CONTINUOUS
 10
5.550160
 20
1.844480
  0
VERTEX
  8
0
  6
CONTINUOUS
 10
4.900720
 20
1.484560
  0
VERTEX
  8
0
  6
CONTINUOUS
 10
4.876080
 20
1.494240
  0
SEQEND
  8
0
  0
SOLID
  8
0
 62
     7
 10
4.900720
 20
1.484560
 11
5.550160
 21
1.844480
 12
4.930200
 22
1.466960
 13
5.580080
 23
1.827320
  0
POLYLINE
  8
0
  6
CONTINUOUS
 66
     1
 40
0.000000
 41
0.000000
  0
VERTEX
  8
0
  6
CONTINUOUS
 10
4.900720
 20
1.484560
  0
VERTEX
  8
0
  6
CONTINUOUS
 10
5.550160
 20
1.844480
  0
VERTEX
  8
0
  6
CONTINUOUS
 10
5.580080
 20
1.827320
  0
VERTEX
  8
0
  6
CONTINUOUS
 10
4.930200
 20
1.466960
  0
VERTEX
  8
0
  6
CONTINUOUS
 10
4.900720
 20
1.484560
  0
SEQEND
  8
0
  0
SOLID
  8
0
 62
     7
 10
4.930200
 20
1.466960
 11
5.580080
 21
1.827320
 12
4.964080
 22
1.443640
 13
5.613960
 23
1.803560
  0
POLYLINE
  8
0
  6
CONTINUOUS
 66
     1
 40
0.000000
 41
0.000000
  0
VERTEX
  8
0
  6
CONTINUOUS
 10
4.930200
 20
1.466960
  0
VERTEX
  8
0
  6
CONTINUOUS
 10
5.580080
 20
1.827320
  0
VERTEX
  8
0
  6
CONTINUOUS
 10
5.613960
 20
1.803560
  0
VERTEX
  8
0
  6
CONTINUOUS
 10
4.964080
 20
1.443640
  0
VERTEX
  8
0
  6
CONTINUOUS
 10
4.930200
 20
1.466960
  0
SEQEND
  8
0
  0
SOLID
  8
0
 62
     7
 10
4.528480
 20
2.196920
 11
5.177920
 21
2.557280
 12
4.656080
 22
1.906520
 13
5.305960
 23
2.266440
  0
POLYLINE
  8
0
  6
CONTINUOUS
 66
     1
 40
0.000000
 41
0.000000
  0
VERTEX
  8
0
  6
CONTINUOUS
 10
4.528480
 20
2.196920
  0
VERTEX
  8
0
  6
CONTINUOUS
 10
5.177920
 20
2.557280
  0
VERTEX
  8
0
  6
CONTINUOUS
 10
5.305960
 20
2.266440
  0
VERTEX
  8
0
  6
CONTINUOUS
 10
4.656080
 20
1.906520
  0
VERTEX
  8
0
  6
CONTINUOUS
 10
4.528480
 20
2.196920
  0
SEQEND
  8
0
  0
SOLID
  8
0
 62
     7
 10
4.999720
 20
1.413720
 11
5.649600
 21
1.774080
 12
5.035800
 22
1.379400
 13
5.685680
 23
1.739320
  0
POLYLINE
  8
0
  6
CONTINUOUS
 66
     1
 40
0.000000
 41
0.000000
  0
VERTEX
  8
0
  6
CONTINUOUS
 10
4.999720
 20
1.413720
  0
VERTEX
  8
0
  6
CONTINUOUS
 10
5.649600
 20
1.774080
  0
VERTEX
  8
0
  6
CONTINUOUS
 10
5.685680
 20
1.739320
  0
VERTEX
  8
0
  6
CONTINUOUS
 10
5.035800
 20
1.379400
  0
VERTEX
  8
0
  6
CONTINUOUS
 10
4.999720
 20
1.413720
  0
SEQEND
  8
0
  0
SOLID
  8
0
 62
     7
 10
5.035800
 20
1.379400
 11
5.685680
 21
1.739320
 12
5.070120
 22
1.340240
 13
5.720000
 23
1.700160
  0
POLYLINE
  8
0
  6
CONTINUOUS
 66
     1
 40
0.000000
 41
0.000000
  0
VERTEX
  8
0
  6
CONTINUOUS
 10
5.035800
 20
1.379400
  0
VERTEX
  8
0
  6
CONTINUOUS
 10
5.685680
 20
1.739320
  0
VERTEX
  8
0
  6
CONTINUOUS
 10
5.720000
 20
1.700160
  0
VERTEX
  8
0
  6
CONTINUOUS
 10
5.070120
 20
1.340240
  0
VERTEX
  8
0
  6
CONTINUOUS
 10
5.035800
 20
1.379400
  0
SEQEND
  8
0
  0
SOLID
  8
0
 62
     7
 10
5.070120
 20
1.340240
 11
5.720000
 21
1.700160
 12
5.100920
 22
1.297120
 13
5.750800
 23
1.657480
  0
POLYLINE
  8
0
  6
CONTINUOUS
 66
     1
 40
0.000000
 41
0.000000
  0
VERTEX
  8
0
  6
CONTINUOUS
 10
5.070120
 20
1.340240
  0
VERTEX
  8
0
  6
CONTINUOUS
 10
5.720000
 20
1.700160
  0
VERTEX
  8
0
  6
CONTINUOUS
 10
5.750800
 20
1.657480
  0
VERTEX
  8
0
  6
CONTINUOUS
 10
5.100920
 20
1.297120
  0
VERTEX
  8
0
  6
CONTINUOUS
 10
5.070120
 20
1.340240
  0
SEQEND
  8
0
  0
SOLID
  8
0
 62
     7
 10
5.100920
 20
1.297120
 11
5.750800
 21
1.657480
 12
5.126880
 22
1.251360
 13
5.776320
 23
1.611280
  0
POLYLINE
  8
0
  6
CONTINUOUS
 66
     1
 40
0.000000
 41
0.000000
  0
VERTEX
  8
0
  6
CONTINUOUS
 10
5.100920
 20
1.297120
  0
VERTEX
  8
0
  6
CONTINUOUS
 10
5.750800
 20
1.657480
  0
VERTEX
  8
0
  6
CONTINUOUS
 10
5.776320
 20
1.611280
  0
VERTEX
  8
0
  6
CONTINUOUS
 10
5.126880
 20
1.251360
  0
VERTEX
  8
0
  6
CONTINUOUS
 10
5.100920
 20
1.297120
  0
SEQEND
  8
0
  0
SOLID
  8
0
 62
    15
 10
5.126880
 20
1.251360
 11
5.776320
 21
1.611280
 12
5.145360
 22
1.202960
 13
5.795240
 23
1.562880
  0
POLYLINE
  8
0
  6
CONTINUOUS
 66
     1
 40
0.000000
 41
0.000000
  0
VERTEX
  8
0
  6
CONTINUOUS
 10
5.126880
 20
1.251360
  0
VERTEX
  8
0
  6
CONTINUOUS
 10
5.776320
 20
1.611280
  0
VERTEX
  8
0
  6
CONTINUOUS
 10
5.795240
 20
1.562880
  0
VERTEX
  8
0
  6
CONTINUOUS
 10
5.145360
 20
1.202960
  0
VERTEX
  8
0
  6
CONTINUOUS
 10
5.126880
 20
1.251360
  0
SEQEND
  8
0
  0
SOLID
  8
0
 62
    15
 10
5.145360
 20
1.202960
 11
5.795240
 21
1.562880
 12
5.155040
 22
1.152800
 13
5.804920
 23
1.512720
  0
POLYLINE
  8
0
  6
CONTINUOUS
 66
     1
 40
0.000000
 41
0.000000
  0
VERTEX
  8
0
  6
CONTINUOUS
 10
5.145360
 20
1.202960
  0
VERTEX
  8
0
  6
CONTINUOUS
 10
5.795240
 20
1.562880
  0
VERTEX
  8
0
  6
CONTINUOUS
 10
5.804920
 20
1.512720
  0
VERTEX
  8
0
  6
CONTINUOUS
 10
5.155040
 20
1.152800
  0
VERTEX
  8
0
  6
CONTINUOUS
 10
5.145360
 20
1.202960
  0
SEQEND
  8
0
  0
SOLID
  8
0
 62
    15
 10
5.155040
 20
1.152800
 11
5.804920
 21
1.512720
 12
5.154160
 22
1.101320
 13
5.803600
 23
1.461680
  0
POLYLINE
  8
0
  6
CONTINUOUS
 66
     1
 40
0.000000
 41
0.000000
  0
VERTEX
  8
0
  6
CONTINUOUS
 10
5.155040
 20
1.152800
  0
VERTEX
  8
0
  6
CONTINUOUS
 10
5.804920
 20
1.512720
  0
VERTEX
  8
0
  6
CONTINUOUS
 10
5.803600
 20
1.461680
  0
VERTEX
  8
0
  6
CONTINUOUS
 10
5.154160
 20
1.101320
  0
VERTEX
  8
0
  6
CONTINUOUS
 10
5.155040
 20
1.152800
  0
SEQEND
  8
0
  0
SOLID
  8
0
 62
    15
 10
5.154160
 20
1.101320
 11
5.803600
 21
1.461680
 12
5.140520
 22
1.049840
 13
5.789960
 23
1.410200
  0
POLYLINE
  8
0
  6
CONTINUOUS
 66
     1
 40
0.000000
 41
0.000000
  0
VERTEX
  8
0
  6
CONTINUOUS
 10
5.154160
 20
1.101320
  0
VERTEX
  8
0
  6
CONTINUOUS
 10
5.803600
 20
1.461680
  0
VERTEX
  8
0
  6
CONTINUOUS
 10
5.789960
 20
1.410200
  0
VERTEX
  8
0
  6
CONTINUOUS
 10
5.140520
 20
1.049840
  0
VERTEX
  8
0
  6
CONTINUOUS
 10
5.154160
 20
1.101320
  0
SEQEND
  8
0
  0
SOLID
  8
0
 62
    15
 10
5.140520
 20
1.049840
 11
5.789960
 21
1.410200
 12
5.112360
 22
0.998360
 13
5.762240
 23
1.358720
  0
POLYLINE
  8
0
  6
CONTINUOUS
 66
     1
 40
0.000000
 41
0.000000
  0
VERTEX
  8
0
  6
CONTINUOUS
 10
5.140520
 20
1.049840
  0
VERTEX
  8
0
  6
CONTINUOUS
 10
5.789960
 20
1.410200
  0
VERTEX
  8
0
  6
CONTINUOUS
 10
5.762240
 20
1.358720
  0
VERTEX
  8
0
  6
CONTINUOUS
 10
5.112360
 20
0.998360
  0
VERTEX
  8
0
  6
CONTINUOUS
 10
5.140520
 20
1.049840
  0
SEQEND
  8
0
  0
SOLID
  8
0
 62
    15
 10
5.112360
 20
0.998360
 11
5.762240
 21
1.358720
 12
5.092560
 22
0.973280
 13
5.742440
 23
1.333200
  0
POLYLINE
  8
0
  6
CONTINUOUS
 66
     1
 40
0.000000
 41
0.000000
  0
VERTEX
  8
0
  6
CONTINUOUS
 10
5.112360
 20
0.998360
  0
VERTEX
  8
0
  6
CONTINUOUS
 10
5.762240
 20
1.358720
  0
VERTEX
  8
0
  6
CONTINUOUS
 10
5.742440
 20
1.333200
  0
VERTEX
  8
0
  6
CONTINUOUS
 10
5.092560
 20
0.973280
  0
VERTEX
  8
0
  6
CONTINUOUS
 10
5.112360
 20
0.998360
  0
SEQEND
  8
0
  0
SOLID
  8
0
 62
    15
 10
5.092560
 20
0.973280
 11
5.742440
 21
1.333200
 12
5.068360
 22
0.948200
 13
5.718240
 23
1.308120
  0
POLYLINE
  8
0
  6
CONTINUOUS
 66
     1
 40
0.000000
 41
0.000000
  0
VERTEX
  8
0
  6
CONTINUOUS
 10
5.092560
 20
0.973280
  0
VERTEX
  8
0
  6
CONTINUOUS
 10
5.742440
 20
1.333200
  0
VERTEX
  8
0
  6
CONTINUOUS
 10
5.718240
 20
1.308120
  0
VERTEX
  8
0
  6
CONTINUOUS
 10
5.068360
 20
0.948200
  0
VERTEX
  8
0
  6
CONTINUOUS
 10
5.092560
 20
0.973280
  0
SEQEND
  8
0
  0
SOLID
  8
0
 62
    15
 10
5.068360
 20
0.948200
 11
5.718240
 21
1.308120
 12
5.039760
 22
0.923560
 13
5.689200
 23
1.283920
  0
POLYLINE
  8
0
  6
CONTINUOUS
 66
     1
 40
0.000000
 41
0.000000
  0
VERTEX
  8
0
  6
CONTINUOUS
 10
5.068360
 20
0.948200
  0
VERTEX
  8
0
  6
CONTINUOUS
 10
5.718240
 20
1.308120
  0
VERTEX
  8
0
  6
CONTINUOUS
 10
5.689200
 20
1.283920
  0
VERTEX
  8
0
  6
CONTINUOUS
 10
5.039760
 20
0.923560
  0
VERTEX
  8
0
  6
CONTINUOUS
 10
5.068360
 20
0.948200
  0
SEQEND
  8
0
  0
SOLID
  8
0
 62
    15
 10
5.039760
 20
0.923560
 11
5.689200
 21
1.283920
 12
5.006320
 22
0.899360
 13
5.655760
 23
1.259720
  0
POLYLINE
  8
0
  6
CONTINUOUS
 66
     1
 40
0.000000
 41
0.000000
  0
VERTEX
  8
0
  6
CONTINUOUS
 10
5.039760
 20
0.923560
  0
VERTEX
  8
0
  6
CONTINUOUS
 10
5.689200
 20
1.283920
  0
VERTEX
  8
0
  6
CONTINUOUS
 10
5.655760
 20
1.259720
  0
VERTEX
  8
0
  6
CONTINUOUS
 10
5.006320
 20
0.899360
  0
VERTEX
  8
0
  6
CONTINUOUS
 10
5.039760
 20
0.923560
  0
SEQEND
  8
0
  0
SOLID
  8
0
 62
    15
 10
4.924480
 20
0.853160
 11
5.573920
 21
1.213080
 12
4.924480
 22
0.767800
 13
5.573920
 23
1.127720
  0
POLYLINE
  8
0
  6
CONTINUOUS
 66
     1
 40
0.000000
 41
0.000000
  0
VERTEX
  8
0
  6
CONTINUOUS
 10
4.924480
 20
0.853160
  0
VERTEX
  8
0
  6
CONTINUOUS
 10
5.573920
 20
1.213080
  0
VERTEX
  8
0
  6
CONTINUOUS
 10
5.573920
 20
1.127720
  0
VERTEX
  8
0
  6
CONTINUOUS
 10
4.924480
 20
0.767800
  0
VERTEX
  8
0
  6
CONTINUOUS
 10
4.924480
 20
0.853160
  0
SEQEND
  8
0
  0
SOLID
  8
0
 62
    15
 10
5.006320
 20
0.899360
 11
5.655760
 21
1.259720
 12
4.968040
 22
0.876040
 13
5.617480
 23
1.235960
  0
POLYLINE
  8
0
  6
CONTINUOUS
 66
     1
 40
0.000000
 41
0.000000
  0
VERTEX
  8
0
  6
CONTINUOUS
 10
5.006320
 20
0.899360
  0
VERTEX
  8
0
  6
CONTINUOUS
 10
5.655760
 20
1.259720
  0
VERTEX
  8
0
  6
CONTINUOUS
 10
5.617480
 20
1.235960
  0
VERTEX
  8
0
  6
CONTINUOUS
 10
4.968040
 20
0.876040
  0
VERTEX
  8
0
  6
CONTINUOUS
 10
5.006320
 20
0.899360
  0
SEQEND
  8
0
  0
SOLID
  8
0
 62
    15
 10
4.311120
 20
2.196920
 11
4.960560
 21
2.557280
 12
4.525840
 22
2.196920
 13
5.175280
 23
2.557280
  0
POLYLINE
  8
0
  6
CONTINUOUS
 66
     1
 40
0.000000
 41
0.000000
  0
VERTEX
  8
0
  6
CONTINUOUS
 10
4.311120
 20
2.196920
  0
VERTEX
  8
0
  6
CONTINUOUS
 10
4.960560
 20
2.557280
  0
VERTEX
  8
0
  6
CONTINUOUS
 10
5.175280
 20
2.557280
  0
VERTEX
  8
0
  6
CONTINUOUS
 10
4.525840
 20
2.196920
  0
VERTEX
  8
0
  6
CONTINUOUS
 10
4.311120
 20
2.196920
  0
SEQEND
  8
0
  0
SOLID
  8
0
 62
    15
 10
4.525840
 20
2.196920
 11
5.175280
 21
2.557280
 12
4.528480
 22
2.196920
 13
5.177920
 23
2.557280
  0
POLYLINE
  8
0
  6
CONTINUOUS
 66
     1
 40
0.000000
 41
0.000000
  0
VERTEX
  8
0
  6
CONTINUOUS
 10
4.525840
 20
2.196920
  0
VERTEX
  8
0
  6
CONTINUOUS
 10
5.175280
 20
2.557280
  0
VERTEX
  8
0
  6
CONTINUOUS
 10
5.177920
 20
2.557280
  0
VERTEX
  8
0
  6
CONTINUOUS
 10
4.528480
 20
2.196920
  0
VERTEX
  8
0
  6
CONTINUOUS
 10
4.525840
 20
2.196920
  0
SEQEND
  8
0
  0
POLYLINE
  8
0
  6
CONTINUOUS
 66
     1
 40
0.000000
 41
0.000000
  0
VERTEX
  8
0
  6
CONTINUOUS
 10
4.528480
 20
2.196920
  0
VERTEX
  8
0
  6
CONTINUOUS
 10
4.656080
 20
1.906520
  0
VERTEX
  8
0
  6
CONTINUOUS
 10
4.630120
 20
1.870000
  0
VERTEX
  8
0
  6
CONTINUOUS
 10
4.613840
 20
1.834360
  0
VERTEX
  8
0
  6
CONTINUOUS
 10
4.607240
 20
1.799600
  0
VERTEX
  8
0
  6
CONTINUOUS
 10
4.608560
 20
1.766160
  0
VERTEX
  8
0
  6
CONTINUOUS
 10
4.616920
 20
1.734040
  0
VERTEX
  8
0
  6
CONTINUOUS
 10
4.631440
 20
1.703240
  0
VERTEX
  8
0
  6
CONTINUOUS
 10
4.650800
 20
1.673760
  0
VERTEX
  8
0
  6
CONTINUOUS
 10
4.674120
 20
1.646040
  0
VERTEX
  8
0
  6
CONTINUOUS
 10
4.728680
 20
1.595440
  0
VERTEX
  8
0
  6
CONTINUOUS
 10
4.785880
 20
1.552760
  0
VERTEX
  8
0
  6
CONTINUOUS
 10
4.838240
 20
1.518880
  0
VERTEX
  8
0
  6
CONTINUOUS
 10
4.859360
 20
1.505240
  0
VERTEX
  8
0
  6
CONTINUOUS
 10
4.876080
 20
1.494240
  0
VERTEX
  8
0
  6
CONTINUOUS
 10
4.900720
 20
1.484560
  0
VERTEX
  8
0
  6
CONTINUOUS
 10
4.930200
 20
1.466960
  0
VERTEX
  8
0
  6
CONTINUOUS
 10
4.964080
 20
1.443640
  0
VERTEX
  8
0
  6
CONTINUOUS
 10
4.999720
 20
1.413720
  0
VERTEX
  8
0
  6
CONTINUOUS
 10
5.035800
 20
1.379400
  0
VERTEX
  8
0
  6
CONTINUOUS
 10
5.070120
 20
1.340240
  0
VERTEX
  8
0
  6
CONTINUOUS
 10
5.100920
 20
1.297120
  0
VERTEX
  8
0
  6
CONTINUOUS
 10
5.126880
 20
1.251360
  0
VERTEX
  8
0
  6
CONTINUOUS
 10
5.145360
 20
1.202960
  0
VERTEX
  8
0
  6
CONTINUOUS
 10
5.155040
 20
1.152800
  0
VERTEX
  8
0
  6
CONTINUOUS
 10
5.154160
 20
1.101320
  0
VERTEX
  8
0
  6
CONTINUOUS
 10
5.140520
 20
1.049840
  0
VERTEX
  8
0
  6
CONTINUOUS
 10
5.112360
 20
0.998360
  0
VERTEX
  8
0
  6
CONTINUOUS
 10
5.092560
 20
0.973280
  0
VERTEX
  8
0
  6
CONTINUOUS
 10
5.068360
 20
0.948200
  0
VERTEX
  8
0
  6
CONTINUOUS
 10
5.039760
 20
0.923560
  0
VERTEX
  8
0
  6
CONTINUOUS
 10
5.006320
 20
0.899360
  0
VERTEX
  8
0
  6
CONTINUOUS
 10
4.968040
 20
0.876040
  0
VERTEX
  8
0
  6
CONTINUOUS
 10
4.924480
 20
0.853160
  0
VERTEX
  8
0
  6
CONTINUOUS
 10
4.924480
 20
0.767800
  0
VERTEX
  8
0
  6
CONTINUOUS
 10
4.311120
 20
0.767800
  0
VERTEX
  8
0
  6
CONTINUOUS
 10
4.311120
 20
2.196920
  0
VERTEX
  8
0
  6
CONTINUOUS
 10
4.525840
 20
2.196920
  0
VERTEX
  8
0
  6
CONTINUOUS
 10
4.528480
 20
2.196920
  0
SEQEND
  8
0
  0
TEXT
  8
0
 10
4.808320
 20
0.530200
 40
0.138090
  1
BA  20
 41
1.000000
  7
SN0
 71
     0
 72
     5
 11
5.306081
 21
0.530200
  0
TEXT
  8
0
 10
4.513960
 20
0.338800
 40
0.138090
  1
13/16" x 1-1/2"
 41
1.000000
  7
SN0
 71
     0
 72
     5
 11
5.599056
 21
0.338800
  0
TEXT
  8
0
 10
7.488800
 20
2.523400
 40
0.138090
  1
base cap
 41
1.000000
  7
SN0
 71
     0
 72
     5
 11
8.162049
 21
2.523400
  0
TEXT
  8
0
 10
7.733000
 20
2.332000
 40
0.138090
  1
20
 41
1.000000
  7
SN0
 71
     0
 72
     5
 11
7.917927
 21
2.332000
  0
ENDSEC
  0
EOF
