  0
SECTION
  2
HEADER
  9
$ACADVER
  1
AC1006
  9
$EXTMIN
 10
4.211680
 20
0.372240
  9
$EXTMAX
 10
6.981480
 20
2.340360
  9
$LTSCALE
 40
0.044000
  9
$PDMODE
 70
    35
  9
$PDSIZE
 40
0.035200
  0
ENDSEC
  0
SECTION
  2
TABLES
  0
TABLE
  2
LTYPE
 70
     9
  0
LTYPE
  2
CONTINUOUS
 70
    64
  3
Solid line
 72
    65
 73
     0
 40
0.000000
  0
LTYPE
  2
DASHED
 70
    64
  3
__ __ __ __ __ __ __ __ __ __ __ __ __ __ __
 72
    65
 73
     2
 40
0.000330
 49
0.000220
 49
-0.000110
  0
LTYPE
  2
HIDDEN
 70
    64
  3
 _ _ _ _ _ _ _ _ _ _ _ _ _ _ _ _ _ _ _ _ _ _
 72
    65
 73
     2
 40
0.000165
 49
0.000110
 49
-0.000055
  0
LTYPE
  2
CENTER
 70
    64
  3
____ _ ____ _ ____ _ ____ _ ____ _ ____ _ ____
 72
    65
 73
     4
 40
0.000880
 49
0.000550
 49
-0.000110
 49
0.000110
 49
-0.000110
  0
LTYPE
  2
PHANTOM
 70
    64
  3
_____ _ _ _____ _ _ _____ _ _ _____ _ _ ____
 72
    65
 73
     6
 40
0.001100
 49
0.000550
 49
-0.000110
 49
0.000110
 49
-0.000110
 49
0.000110
 49
-0.000110
  0
LTYPE
  2
DOT
 70
    64
  3
...............................................
 72
    65
 73
     2
 40
0.000110
 49
0.000000
 49
-0.000110
  0
LTYPE
  2
DASHDOT
 70
    64
  3
__ . __ . __ . __ . __ . __ . __ . __ . __ . __
 72
    65
 73
     4
 40
0.000440
 49
0.000220
 49
-0.000110
 49
0.000000
 49
-0.000110
  0
LTYPE
  2
BORDER
 70
    64
  3
__ __ . __ __ . __ __ . __ __ . __ __ . __ __
 72
    65
 73
     6
 40
0.000770
 49
0.000220
 49
-0.000110
 49
0.000220
 49
-0.000110
 49
0.000000
 49
-0.000110
  0
LTYPE
  2
DIVIDE
 70
    64
  3
__ . . __ . . __ . . __ . . __ . . __ . . __
 72
    65
 73
     6
 40
0.000550
 49
0.000220
 49
-0.000110
 49
0.000000
 49
-0.000110
 49
0.000000
 49
-0.000110
  0
LTYPE
  2
DOTDOT
 70
    64
  3
 . .  . .  . .  . .  . .  . . 
 72
    65
 73
     5
 40
0.000242
 49
-0.000110
 49
0.000000
 49
-0.000110
 49
0.000000
 49
-0.000110
  0
ENDTAB
  0
TABLE
  2
STYLE
 70
     2
  0
STYLE
 70
     0
  2
SN0
 40
0.000000
 41
0.000440
 50
0.000000
 71
     0
 42
0.000000
  3
ROMAND
  0
STYLE
 70
    68
  2
SV0
 40
0.000000
 41
0.000440
 50
0.000000
 71
     0
 42
0.000000
  3
ROMAND
  0
ENDTAB
  0
TABLE
  2
LAYER
 70
     3
  0
LAYER
  2
FOREGROUND
 70
    64
 62
     7
  6
CONTINUOUS
  0
LAYER
  2
BACKGROUND
 70
    65
 62
    -7
  6
CONTINUOUS
  0
LAYER
  2
0
 70
    64
 62
     7
  6
CONTINUOUS
  0
ENDTAB
  0
ENDSEC
  0
SECTION
  2
ENTITIES
  0
POLYLINE
  8
FOREGROUND
  6
CONTINUOUS
 66
     1
 40
0.000000
 41
0.000000
  0
VERTEX
  8
FOREGROUND
  6
CONTINUOUS
 10
0.000000
 20
2.712600
  0
VERTEX
  8
FOREGROUND
  6
CONTINUOUS
 10
8.499920
 20
2.712600
  0
VERTEX
  8
FOREGROUND
  6
CONTINUOUS
 10
8.499920
 20
-8.287400
  0
VERTEX
  8
FOREGROUND
  6
CONTINUOUS
 10
0.000000
 20
-8.287400
  0
VERTEX
  8
FOREGROUND
  6
CONTINUOUS
 10
0.000000
 20
2.712600
  0
SEQEND
  8
0
  0
POLYLINE
  8
FOREGROUND
  6
CONTINUOUS
 66
     1
 40
0.000000
 41
0.000000
  0
VERTEX
  8
FOREGROUND
  6
CONTINUOUS
 10
0.000000
 20
2.712600
  0
VERTEX
  8
FOREGROUND
  6
CONTINUOUS
 10
8.499920
 20
2.712600
  0
VERTEX
  8
FOREGROUND
  6
CONTINUOUS
 10
8.499920
 20
-8.287400
  0
VERTEX
  8
FOREGROUND
  6
CONTINUOUS
 10
0.000000
 20
-8.287400
  0
VERTEX
  8
FOREGROUND
  6
CONTINUOUS
 10
0.000000
 20
2.712600
  0
SEQEND
  8
0
  0
TEXT
  8
0
 10
4.622640
 20
0.608080
 40
0.138126
  1
BA  19
 41
1.000000
  7
SN0
 71
     0
 72
     5
 11
5.120235
 21
0.608080
  0
TEXT
  8
0
 10
4.420680
 20
0.416680
 40
0.138126
  1
3/4" x 1-1/8" 
 41
1.000000
  7
SN0
 71
     0
 72
     5
 11
5.366013
 21
0.416680
  0
SOLID
  8
0
 62
    15
 10
4.451040
 20
1.538680
 11
5.093880
 21
1.161160
 12
4.449720
 22
1.538680
 13
5.092560
 23
1.161160
  0
POLYLINE
  8
0
  6
CONTINUOUS
 66
     1
 40
0.000000
 41
0.000000
  0
VERTEX
  8
0
  6
CONTINUOUS
 10
4.451040
 20
1.538680
  0
VERTEX
  8
0
  6
CONTINUOUS
 10
5.093880
 20
1.161160
  0
VERTEX
  8
0
  6
CONTINUOUS
 10
5.092560
 20
1.161160
  0
VERTEX
  8
0
  6
CONTINUOUS
 10
4.449720
 20
1.538680
  0
VERTEX
  8
0
  6
CONTINUOUS
 10
4.451040
 20
1.538680
  0
SEQEND
  8
0
  0
SOLID
  8
0
 62
    15
 10
4.940760
 20
2.042480
 11
5.583160
 21
1.664960
 12
4.937680
 22
2.041160
 13
5.580520
 23
1.663640
  0
POLYLINE
  8
0
  6
CONTINUOUS
 66
     1
 40
0.000000
 41
0.000000
  0
VERTEX
  8
0
  6
CONTINUOUS
 10
4.940760
 20
2.042480
  0
VERTEX
  8
0
  6
CONTINUOUS
 10
5.583160
 20
1.664960
  0
VERTEX
  8
0
  6
CONTINUOUS
 10
5.580520
 20
1.663640
  0
VERTEX
  8
0
  6
CONTINUOUS
 10
4.937680
 20
2.041160
  0
VERTEX
  8
0
  6
CONTINUOUS
 10
4.940760
 20
2.042480
  0
SEQEND
  8
0
  0
SOLID
  8
0
 62
    15
 10
4.937680
 20
2.041160
 11
5.580520
 21
1.663640
 12
4.896760
 22
2.031480
 13
5.539160
 23
1.653960
  0
POLYLINE
  8
0
  6
CONTINUOUS
 66
     1
 40
0.000000
 41
0.000000
  0
VERTEX
  8
0
  6
CONTINUOUS
 10
4.937680
 20
2.041160
  0
VERTEX
  8
0
  6
CONTINUOUS
 10
5.580520
 20
1.663640
  0
VERTEX
  8
0
  6
CONTINUOUS
 10
5.539160
 20
1.653960
  0
VERTEX
  8
0
  6
CONTINUOUS
 10
4.896760
 20
2.031480
  0
VERTEX
  8
0
  6
CONTINUOUS
 10
4.937680
 20
2.041160
  0
SEQEND
  8
0
  0
SOLID
  8
0
 62
    15
 10
4.896760
 20
2.031480
 11
5.539160
 21
1.653960
 12
4.859800
 22
2.020040
 13
5.502200
 23
1.642520
  0
POLYLINE
  8
0
  6
CONTINUOUS
 66
     1
 40
0.000000
 41
0.000000
  0
VERTEX
  8
0
  6
CONTINUOUS
 10
4.896760
 20
2.031480
  0
VERTEX
  8
0
  6
CONTINUOUS
 10
5.539160
 20
1.653960
  0
VERTEX
  8
0
  6
CONTINUOUS
 10
5.502200
 20
1.642520
  0
VERTEX
  8
0
  6
CONTINUOUS
 10
4.859800
 20
2.020040
  0
VERTEX
  8
0
  6
CONTINUOUS
 10
4.896760
 20
2.031480
  0
SEQEND
  8
0
  0
SOLID
  8
0
 62
    15
 10
4.859800
 20
2.020040
 11
5.502200
 21
1.642520
 12
4.827240
 22
2.007720
 13
5.469640
 23
1.630200
  0
POLYLINE
  8
0
  6
CONTINUOUS
 66
     1
 40
0.000000
 41
0.000000
  0
VERTEX
  8
0
  6
CONTINUOUS
 10
4.859800
 20
2.020040
  0
VERTEX
  8
0
  6
CONTINUOUS
 10
5.502200
 20
1.642520
  0
VERTEX
  8
0
  6
CONTINUOUS
 10
5.469640
 20
1.630200
  0
VERTEX
  8
0
  6
CONTINUOUS
 10
4.827240
 20
2.007720
  0
VERTEX
  8
0
  6
CONTINUOUS
 10
4.859800
 20
2.020040
  0
SEQEND
  8
0
  0
SOLID
  8
0
 62
    15
 10
4.827240
 20
2.007720
 11
5.469640
 21
1.630200
 12
4.798640
 22
1.994080
 13
5.441040
 23
1.616560
  0
POLYLINE
  8
0
  6
CONTINUOUS
 66
     1
 40
0.000000
 41
0.000000
  0
VERTEX
  8
0
  6
CONTINUOUS
 10
4.827240
 20
2.007720
  0
VERTEX
  8
0
  6
CONTINUOUS
 10
5.469640
 20
1.630200
  0
VERTEX
  8
0
  6
CONTINUOUS
 10
5.441040
 20
1.616560
  0
VERTEX
  8
0
  6
CONTINUOUS
 10
4.798640
 20
1.994080
  0
VERTEX
  8
0
  6
CONTINUOUS
 10
4.827240
 20
2.007720
  0
SEQEND
  8
0
  0
SOLID
  8
0
 62
    15
 10
4.798640
 20
1.994080
 11
5.441040
 21
1.616560
 12
4.773560
 22
1.979560
 13
5.416400
 23
1.602040
  0
POLYLINE
  8
0
  6
CONTINUOUS
 66
     1
 40
0.000000
 41
0.000000
  0
VERTEX
  8
0
  6
CONTINUOUS
 10
4.798640
 20
1.994080
  0
VERTEX
  8
0
  6
CONTINUOUS
 10
5.441040
 20
1.616560
  0
VERTEX
  8
0
  6
CONTINUOUS
 10
5.416400
 20
1.602040
  0
VERTEX
  8
0
  6
CONTINUOUS
 10
4.773560
 20
1.979560
  0
VERTEX
  8
0
  6
CONTINUOUS
 10
4.798640
 20
1.994080
  0
SEQEND
  8
0
  0
SOLID
  8
0
 62
    15
 10
4.773560
 20
1.979560
 11
5.416400
 21
1.602040
 12
4.752000
 22
1.963720
 13
5.394400
 23
1.586200
  0
POLYLINE
  8
0
  6
CONTINUOUS
 66
     1
 40
0.000000
 41
0.000000
  0
VERTEX
  8
0
  6
CONTINUOUS
 10
4.773560
 20
1.979560
  0
VERTEX
  8
0
  6
CONTINUOUS
 10
5.416400
 20
1.602040
  0
VERTEX
  8
0
  6
CONTINUOUS
 10
5.394400
 20
1.586200
  0
VERTEX
  8
0
  6
CONTINUOUS
 10
4.752000
 20
1.963720
  0
VERTEX
  8
0
  6
CONTINUOUS
 10
4.773560
 20
1.979560
  0
SEQEND
  8
0
  0
SOLID
  8
0
 62
     7
 10
4.752000
 20
1.963720
 11
5.394400
 21
1.586200
 12
4.717680
 22
1.929840
 13
5.360080
 23
1.552760
  0
POLYLINE
  8
0
  6
CONTINUOUS
 66
     1
 40
0.000000
 41
0.000000
  0
VERTEX
  8
0
  6
CONTINUOUS
 10
4.752000
 20
1.963720
  0
VERTEX
  8
0
  6
CONTINUOUS
 10
5.394400
 20
1.586200
  0
VERTEX
  8
0
  6
CONTINUOUS
 10
5.360080
 20
1.552760
  0
VERTEX
  8
0
  6
CONTINUOUS
 10
4.717680
 20
1.929840
  0
VERTEX
  8
0
  6
CONTINUOUS
 10
4.752000
 20
1.963720
  0
SEQEND
  8
0
  0
SOLID
  8
0
 62
     7
 10
4.717680
 20
1.929840
 11
5.360080
 21
1.552760
 12
4.693480
 22
1.893760
 13
5.335880
 23
1.516240
  0
POLYLINE
  8
0
  6
CONTINUOUS
 66
     1
 40
0.000000
 41
0.000000
  0
VERTEX
  8
0
  6
CONTINUOUS
 10
4.717680
 20
1.929840
  0
VERTEX
  8
0
  6
CONTINUOUS
 10
5.360080
 20
1.552760
  0
VERTEX
  8
0
  6
CONTINUOUS
 10
5.335880
 20
1.516240
  0
VERTEX
  8
0
  6
CONTINUOUS
 10
4.693480
 20
1.893760
  0
VERTEX
  8
0
  6
CONTINUOUS
 10
4.717680
 20
1.929840
  0
SEQEND
  8
0
  0
SOLID
  8
0
 62
     7
 10
4.693480
 20
1.893760
 11
5.335880
 21
1.516240
 12
4.677200
 22
1.855040
 13
5.319600
 23
1.477520
  0
POLYLINE
  8
0
  6
CONTINUOUS
 66
     1
 40
0.000000
 41
0.000000
  0
VERTEX
  8
0
  6
CONTINUOUS
 10
4.693480
 20
1.893760
  0
VERTEX
  8
0
  6
CONTINUOUS
 10
5.335880
 20
1.516240
  0
VERTEX
  8
0
  6
CONTINUOUS
 10
5.319600
 20
1.477520
  0
VERTEX
  8
0
  6
CONTINUOUS
 10
4.677200
 20
1.855040
  0
VERTEX
  8
0
  6
CONTINUOUS
 10
4.693480
 20
1.893760
  0
SEQEND
  8
0
  0
SOLID
  8
0
 62
     7
 10
4.677200
 20
1.855040
 11
5.319600
 21
1.477520
 12
4.659160
 22
1.775840
 13
5.301560
 23
1.398320
  0
POLYLINE
  8
0
  6
CONTINUOUS
 66
     1
 40
0.000000
 41
0.000000
  0
VERTEX
  8
0
  6
CONTINUOUS
 10
4.677200
 20
1.855040
  0
VERTEX
  8
0
  6
CONTINUOUS
 10
5.319600
 20
1.477520
  0
VERTEX
  8
0
  6
CONTINUOUS
 10
5.301560
 20
1.398320
  0
VERTEX
  8
0
  6
CONTINUOUS
 10
4.659160
 20
1.775840
  0
VERTEX
  8
0
  6
CONTINUOUS
 10
4.677200
 20
1.855040
  0
SEQEND
  8
0
  0
SOLID
  8
0
 62
     7
 10
4.659160
 20
1.775840
 11
5.301560
 21
1.398320
 12
4.653000
 22
1.736240
 13
5.295400
 23
1.359160
  0
POLYLINE
  8
0
  6
CONTINUOUS
 66
     1
 40
0.000000
 41
0.000000
  0
VERTEX
  8
0
  6
CONTINUOUS
 10
4.659160
 20
1.775840
  0
VERTEX
  8
0
  6
CONTINUOUS
 10
5.301560
 20
1.398320
  0
VERTEX
  8
0
  6
CONTINUOUS
 10
5.295400
 20
1.359160
  0
VERTEX
  8
0
  6
CONTINUOUS
 10
4.653000
 20
1.736240
  0
VERTEX
  8
0
  6
CONTINUOUS
 10
4.659160
 20
1.775840
  0
SEQEND
  8
0
  0
SOLID
  8
0
 62
     7
 10
4.653000
 20
1.736240
 11
5.295400
 21
1.359160
 12
4.645520
 22
1.698400
 13
5.287920
 23
1.320880
  0
POLYLINE
  8
0
  6
CONTINUOUS
 66
     1
 40
0.000000
 41
0.000000
  0
VERTEX
  8
0
  6
CONTINUOUS
 10
4.653000
 20
1.736240
  0
VERTEX
  8
0
  6
CONTINUOUS
 10
5.295400
 20
1.359160
  0
VERTEX
  8
0
  6
CONTINUOUS
 10
5.287920
 20
1.320880
  0
VERTEX
  8
0
  6
CONTINUOUS
 10
4.645520
 20
1.698400
  0
VERTEX
  8
0
  6
CONTINUOUS
 10
4.653000
 20
1.736240
  0
SEQEND
  8
0
  0
SOLID
  8
0
 62
     7
 10
4.645520
 20
1.698400
 11
5.287920
 21
1.320880
 12
4.634520
 22
1.662320
 13
5.277360
 23
1.284800
  0
POLYLINE
  8
0
  6
CONTINUOUS
 66
     1
 40
0.000000
 41
0.000000
  0
VERTEX
  8
0
  6
CONTINUOUS
 10
4.645520
 20
1.698400
  0
VERTEX
  8
0
  6
CONTINUOUS
 10
5.287920
 20
1.320880
  0
VERTEX
  8
0
  6
CONTINUOUS
 10
5.277360
 20
1.284800
  0
VERTEX
  8
0
  6
CONTINUOUS
 10
4.634520
 20
1.662320
  0
VERTEX
  8
0
  6
CONTINUOUS
 10
4.645520
 20
1.698400
  0
SEQEND
  8
0
  0
SOLID
  8
0
 62
     7
 10
4.634520
 20
1.662320
 11
5.277360
 21
1.284800
 12
4.618240
 22
1.628880
 13
5.260640
 23
1.251360
  0
POLYLINE
  8
0
  6
CONTINUOUS
 66
     1
 40
0.000000
 41
0.000000
  0
VERTEX
  8
0
  6
CONTINUOUS
 10
4.634520
 20
1.662320
  0
VERTEX
  8
0
  6
CONTINUOUS
 10
5.277360
 20
1.284800
  0
VERTEX
  8
0
  6
CONTINUOUS
 10
5.260640
 20
1.251360
  0
VERTEX
  8
0
  6
CONTINUOUS
 10
4.618240
 20
1.628880
  0
VERTEX
  8
0
  6
CONTINUOUS
 10
4.634520
 20
1.662320
  0
SEQEND
  8
0
  0
SOLID
  8
0
 62
     7
 10
4.618240
 20
1.628880
 11
5.260640
 21
1.251360
 12
4.594040
 22
1.598960
 13
5.236440
 23
1.221440
  0
POLYLINE
  8
0
  6
CONTINUOUS
 66
     1
 40
0.000000
 41
0.000000
  0
VERTEX
  8
0
  6
CONTINUOUS
 10
4.618240
 20
1.628880
  0
VERTEX
  8
0
  6
CONTINUOUS
 10
5.260640
 20
1.251360
  0
VERTEX
  8
0
  6
CONTINUOUS
 10
5.236440
 20
1.221440
  0
VERTEX
  8
0
  6
CONTINUOUS
 10
4.594040
 20
1.598960
  0
VERTEX
  8
0
  6
CONTINUOUS
 10
4.618240
 20
1.628880
  0
SEQEND
  8
0
  0
SOLID
  8
0
 62
    15
 10
4.594040
 20
1.598960
 11
5.236440
 21
1.221440
 12
4.559280
 22
1.573440
 13
5.202120
 23
1.195920
  0
POLYLINE
  8
0
  6
CONTINUOUS
 66
     1
 40
0.000000
 41
0.000000
  0
VERTEX
  8
0
  6
CONTINUOUS
 10
4.594040
 20
1.598960
  0
VERTEX
  8
0
  6
CONTINUOUS
 10
5.236440
 20
1.221440
  0
VERTEX
  8
0
  6
CONTINUOUS
 10
5.202120
 20
1.195920
  0
VERTEX
  8
0
  6
CONTINUOUS
 10
4.559280
 20
1.573440
  0
VERTEX
  8
0
  6
CONTINUOUS
 10
4.594040
 20
1.598960
  0
SEQEND
  8
0
  0
SOLID
  8
0
 62
    15
 10
4.559280
 20
1.573440
 11
5.202120
 21
1.195920
 12
4.537720
 22
1.562440
 13
5.180560
 23
1.184920
  0
POLYLINE
  8
0
  6
CONTINUOUS
 66
     1
 40
0.000000
 41
0.000000
  0
VERTEX
  8
0
  6
CONTINUOUS
 10
4.559280
 20
1.573440
  0
VERTEX
  8
0
  6
CONTINUOUS
 10
5.202120
 20
1.195920
  0
VERTEX
  8
0
  6
CONTINUOUS
 10
5.180560
 20
1.184920
  0
VERTEX
  8
0
  6
CONTINUOUS
 10
4.537720
 20
1.562440
  0
VERTEX
  8
0
  6
CONTINUOUS
 10
4.559280
 20
1.573440
  0
SEQEND
  8
0
  0
SOLID
  8
0
 62
    15
 10
4.537720
 20
1.562440
 11
5.180560
 21
1.184920
 12
4.512640
 22
1.553200
 13
5.155480
 23
1.175680
  0
POLYLINE
  8
0
  6
CONTINUOUS
 66
     1
 40
0.000000
 41
0.000000
  0
VERTEX
  8
0
  6
CONTINUOUS
 10
4.537720
 20
1.562440
  0
VERTEX
  8
0
  6
CONTINUOUS
 10
5.180560
 20
1.184920
  0
VERTEX
  8
0
  6
CONTINUOUS
 10
5.155480
 20
1.175680
  0
VERTEX
  8
0
  6
CONTINUOUS
 10
4.512640
 20
1.553200
  0
VERTEX
  8
0
  6
CONTINUOUS
 10
4.537720
 20
1.562440
  0
SEQEND
  8
0
  0
SOLID
  8
0
 62
    15
 10
4.512640
 20
1.553200
 11
5.155480
 21
1.175680
 12
4.484040
 22
1.544840
 13
5.126440
 23
1.167320
  0
POLYLINE
  8
0
  6
CONTINUOUS
 66
     1
 40
0.000000
 41
0.000000
  0
VERTEX
  8
0
  6
CONTINUOUS
 10
4.512640
 20
1.553200
  0
VERTEX
  8
0
  6
CONTINUOUS
 10
5.155480
 20
1.175680
  0
VERTEX
  8
0
  6
CONTINUOUS
 10
5.126440
 20
1.167320
  0
VERTEX
  8
0
  6
CONTINUOUS
 10
4.484040
 20
1.544840
  0
VERTEX
  8
0
  6
CONTINUOUS
 10
4.512640
 20
1.553200
  0
SEQEND
  8
0
  0
SOLID
  8
0
 62
    15
 10
4.484040
 20
1.544840
 11
5.126440
 21
1.167320
 12
4.451040
 22
1.538680
 13
5.093880
 23
1.161160
  0
POLYLINE
  8
0
  6
CONTINUOUS
 66
     1
 40
0.000000
 41
0.000000
  0
VERTEX
  8
0
  6
CONTINUOUS
 10
4.484040
 20
1.544840
  0
VERTEX
  8
0
  6
CONTINUOUS
 10
5.126440
 20
1.167320
  0
VERTEX
  8
0
  6
CONTINUOUS
 10
5.093880
 20
1.161160
  0
VERTEX
  8
0
  6
CONTINUOUS
 10
4.451040
 20
1.538680
  0
VERTEX
  8
0
  6
CONTINUOUS
 10
4.484040
 20
1.544840
  0
SEQEND
  8
0
  0
SOLID
  8
0
 62
    15
 10
4.936360
 20
2.339920
 11
5.579200
 21
1.962400
 12
4.924480
 22
2.339920
 13
5.567320
 23
1.962400
  0
POLYLINE
  8
0
  6
CONTINUOUS
 66
     1
 40
0.000000
 41
0.000000
  0
VERTEX
  8
0
  6
CONTINUOUS
 10
4.936360
 20
2.339920
  0
VERTEX
  8
0
  6
CONTINUOUS
 10
5.579200
 20
1.962400
  0
VERTEX
  8
0
  6
CONTINUOUS
 10
5.567320
 20
1.962400
  0
VERTEX
  8
0
  6
CONTINUOUS
 10
4.924480
 20
2.339920
  0
VERTEX
  8
0
  6
CONTINUOUS
 10
4.936360
 20
2.339920
  0
SEQEND
  8
0
  0
SOLID
  8
0
 62
    15
 10
4.449720
 20
1.538680
 11
5.092560
 21
1.161160
 12
4.440040
 22
1.530320
 13
5.082880
 23
1.152800
  0
POLYLINE
  8
0
  6
CONTINUOUS
 66
     1
 40
0.000000
 41
0.000000
  0
VERTEX
  8
0
  6
CONTINUOUS
 10
4.449720
 20
1.538680
  0
VERTEX
  8
0
  6
CONTINUOUS
 10
5.092560
 20
1.161160
  0
VERTEX
  8
0
  6
CONTINUOUS
 10
5.082880
 20
1.152800
  0
VERTEX
  8
0
  6
CONTINUOUS
 10
4.440040
 20
1.530320
  0
VERTEX
  8
0
  6
CONTINUOUS
 10
4.449720
 20
1.538680
  0
SEQEND
  8
0
  0
SOLID
  8
0
 62
     7
 10
4.440040
 20
1.530320
 11
5.082880
 21
1.152800
 12
4.435200
 22
1.521960
 13
5.078040
 23
1.144440
  0
POLYLINE
  8
0
  6
CONTINUOUS
 66
     1
 40
0.000000
 41
0.000000
  0
VERTEX
  8
0
  6
CONTINUOUS
 10
4.440040
 20
1.530320
  0
VERTEX
  8
0
  6
CONTINUOUS
 10
5.082880
 20
1.152800
  0
VERTEX
  8
0
  6
CONTINUOUS
 10
5.078040
 20
1.144440
  0
VERTEX
  8
0
  6
CONTINUOUS
 10
4.435200
 20
1.521960
  0
VERTEX
  8
0
  6
CONTINUOUS
 10
4.440040
 20
1.530320
  0
SEQEND
  8
0
  0
SOLID
  8
0
 62
     7
 10
4.435200
 20
1.521960
 11
5.078040
 21
1.144440
 12
4.434760
 22
1.513600
 13
5.077600
 23
1.136080
  0
POLYLINE
  8
0
  6
CONTINUOUS
 66
     1
 40
0.000000
 41
0.000000
  0
VERTEX
  8
0
  6
CONTINUOUS
 10
4.435200
 20
1.521960
  0
VERTEX
  8
0
  6
CONTINUOUS
 10
5.078040
 20
1.144440
  0
VERTEX
  8
0
  6
CONTINUOUS
 10
5.077600
 20
1.136080
  0
VERTEX
  8
0
  6
CONTINUOUS
 10
4.434760
 20
1.513600
  0
VERTEX
  8
0
  6
CONTINUOUS
 10
4.435200
 20
1.521960
  0
SEQEND
  8
0
  0
SOLID
  8
0
 62
     7
 10
4.434760
 20
1.513600
 11
5.077600
 21
1.136080
 12
4.437840
 22
1.505680
 13
5.080240
 23
1.128160
  0
POLYLINE
  8
0
  6
CONTINUOUS
 66
     1
 40
0.000000
 41
0.000000
  0
VERTEX
  8
0
  6
CONTINUOUS
 10
4.434760
 20
1.513600
  0
VERTEX
  8
0
  6
CONTINUOUS
 10
5.077600
 20
1.136080
  0
VERTEX
  8
0
  6
CONTINUOUS
 10
5.080240
 20
1.128160
  0
VERTEX
  8
0
  6
CONTINUOUS
 10
4.437840
 20
1.505680
  0
VERTEX
  8
0
  6
CONTINUOUS
 10
4.434760
 20
1.513600
  0
SEQEND
  8
0
  0
SOLID
  8
0
 62
    15
 10
4.437840
 20
1.505680
 11
5.080240
 21
1.128160
 12
4.451040
 22
1.491600
 13
5.093440
 23
1.114080
  0
POLYLINE
  8
0
  6
CONTINUOUS
 66
     1
 40
0.000000
 41
0.000000
  0
VERTEX
  8
0
  6
CONTINUOUS
 10
4.437840
 20
1.505680
  0
VERTEX
  8
0
  6
CONTINUOUS
 10
5.080240
 20
1.128160
  0
VERTEX
  8
0
  6
CONTINUOUS
 10
5.093440
 20
1.114080
  0
VERTEX
  8
0
  6
CONTINUOUS
 10
4.451040
 20
1.491600
  0
VERTEX
  8
0
  6
CONTINUOUS
 10
4.437840
 20
1.505680
  0
SEQEND
  8
0
  0
SOLID
  8
0
 62
    15
 10
4.486680
 20
1.474440
 11
5.129080
 21
1.096920
 12
4.500320
 22
1.460800
 13
5.143160
 23
1.083280
  0
POLYLINE
  8
0
  6
CONTINUOUS
 66
     1
 40
0.000000
 41
0.000000
  0
VERTEX
  8
0
  6
CONTINUOUS
 10
4.486680
 20
1.474440
  0
VERTEX
  8
0
  6
CONTINUOUS
 10
5.129080
 20
1.096920
  0
VERTEX
  8
0
  6
CONTINUOUS
 10
5.143160
 20
1.083280
  0
VERTEX
  8
0
  6
CONTINUOUS
 10
4.500320
 20
1.460800
  0
VERTEX
  8
0
  6
CONTINUOUS
 10
4.486680
 20
1.474440
  0
SEQEND
  8
0
  0
SOLID
  8
0
 62
    15
 10
4.500320
 20
1.460800
 11
5.143160
 21
1.083280
 12
4.509120
 22
1.443200
 13
5.151960
 23
1.065680
  0
POLYLINE
  8
0
  6
CONTINUOUS
 66
     1
 40
0.000000
 41
0.000000
  0
VERTEX
  8
0
  6
CONTINUOUS
 10
4.500320
 20
1.460800
  0
VERTEX
  8
0
  6
CONTINUOUS
 10
5.143160
 20
1.083280
  0
VERTEX
  8
0
  6
CONTINUOUS
 10
5.151960
 20
1.065680
  0
VERTEX
  8
0
  6
CONTINUOUS
 10
4.509120
 20
1.443200
  0
VERTEX
  8
0
  6
CONTINUOUS
 10
4.500320
 20
1.460800
  0
SEQEND
  8
0
  0
SOLID
  8
0
 62
     7
 10
4.509120
 20
1.443200
 11
5.151960
 21
1.065680
 12
4.512200
 22
1.423400
 13
5.155040
 23
1.045880
  0
POLYLINE
  8
0
  6
CONTINUOUS
 66
     1
 40
0.000000
 41
0.000000
  0
VERTEX
  8
0
  6
CONTINUOUS
 10
4.509120
 20
1.443200
  0
VERTEX
  8
0
  6
CONTINUOUS
 10
5.151960
 20
1.065680
  0
VERTEX
  8
0
  6
CONTINUOUS
 10
5.155040
 20
1.045880
  0
VERTEX
  8
0
  6
CONTINUOUS
 10
4.512200
 20
1.423400
  0
VERTEX
  8
0
  6
CONTINUOUS
 10
4.509120
 20
1.443200
  0
SEQEND
  8
0
  0
SOLID
  8
0
 62
     7
 10
4.512200
 20
1.423400
 11
5.155040
 21
1.045880
 12
4.508680
 22
1.404040
 13
5.151080
 23
1.026520
  0
POLYLINE
  8
0
  6
CONTINUOUS
 66
     1
 40
0.000000
 41
0.000000
  0
VERTEX
  8
0
  6
CONTINUOUS
 10
4.512200
 20
1.423400
  0
VERTEX
  8
0
  6
CONTINUOUS
 10
5.155040
 20
1.045880
  0
VERTEX
  8
0
  6
CONTINUOUS
 10
5.151080
 20
1.026520
  0
VERTEX
  8
0
  6
CONTINUOUS
 10
4.508680
 20
1.404040
  0
VERTEX
  8
0
  6
CONTINUOUS
 10
4.512200
 20
1.423400
  0
SEQEND
  8
0
  0
SOLID
  8
0
 62
     7
 10
4.508680
 20
1.404040
 11
5.151080
 21
1.026520
 12
4.497240
 22
1.386880
 13
5.140080
 23
1.009360
  0
POLYLINE
  8
0
  6
CONTINUOUS
 66
     1
 40
0.000000
 41
0.000000
  0
VERTEX
  8
0
  6
CONTINUOUS
 10
4.508680
 20
1.404040
  0
VERTEX
  8
0
  6
CONTINUOUS
 10
5.151080
 20
1.026520
  0
VERTEX
  8
0
  6
CONTINUOUS
 10
5.140080
 20
1.009360
  0
VERTEX
  8
0
  6
CONTINUOUS
 10
4.497240
 20
1.386880
  0
VERTEX
  8
0
  6
CONTINUOUS
 10
4.508680
 20
1.404040
  0
SEQEND
  8
0
  0
SOLID
  8
0
 62
    15
 10
4.497240
 20
1.386880
 11
5.140080
 21
1.009360
 12
4.478320
 22
1.373680
 13
5.120720
 23
0.996160
  0
POLYLINE
  8
0
  6
CONTINUOUS
 66
     1
 40
0.000000
 41
0.000000
  0
VERTEX
  8
0
  6
CONTINUOUS
 10
4.497240
 20
1.386880
  0
VERTEX
  8
0
  6
CONTINUOUS
 10
5.140080
 20
1.009360
  0
VERTEX
  8
0
  6
CONTINUOUS
 10
5.120720
 20
0.996160
  0
VERTEX
  8
0
  6
CONTINUOUS
 10
4.478320
 20
1.373680
  0
VERTEX
  8
0
  6
CONTINUOUS
 10
4.497240
 20
1.386880
  0
SEQEND
  8
0
  0
SOLID
  8
0
 62
    15
 10
4.478320
 20
1.373680
 11
5.120720
 21
0.996160
 12
4.449720
 22
1.366640
 13
5.092560
 23
0.989120
  0
POLYLINE
  8
0
  6
CONTINUOUS
 66
     1
 40
0.000000
 41
0.000000
  0
VERTEX
  8
0
  6
CONTINUOUS
 10
4.478320
 20
1.373680
  0
VERTEX
  8
0
  6
CONTINUOUS
 10
5.120720
 20
0.996160
  0
VERTEX
  8
0
  6
CONTINUOUS
 10
5.092560
 20
0.989120
  0
VERTEX
  8
0
  6
CONTINUOUS
 10
4.449720
 20
1.366640
  0
VERTEX
  8
0
  6
CONTINUOUS
 10
4.478320
 20
1.373680
  0
SEQEND
  8
0
  0
SOLID
  8
0
 62
    15
 10
4.449720
 20
1.366640
 11
5.092560
 21
0.989120
 12
4.446200
 22
1.365760
 13
5.088600
 23
0.988240
  0
POLYLINE
  8
0
  6
CONTINUOUS
 66
     1
 40
0.000000
 41
0.000000
  0
VERTEX
  8
0
  6
CONTINUOUS
 10
4.449720
 20
1.366640
  0
VERTEX
  8
0
  6
CONTINUOUS
 10
5.092560
 20
0.989120
  0
VERTEX
  8
0
  6
CONTINUOUS
 10
5.088600
 20
0.988240
  0
VERTEX
  8
0
  6
CONTINUOUS
 10
4.446200
 20
1.365760
  0
VERTEX
  8
0
  6
CONTINUOUS
 10
4.449720
 20
1.366640
  0
SEQEND
  8
0
  0
SOLID
  8
0
 62
    15
 10
4.446200
 20
1.365760
 11
5.088600
 21
0.988240
 12
4.440480
 22
1.364000
 13
5.082880
 23
0.986480
  0
POLYLINE
  8
0
  6
CONTINUOUS
 66
     1
 40
0.000000
 41
0.000000
  0
VERTEX
  8
0
  6
CONTINUOUS
 10
4.446200
 20
1.365760
  0
VERTEX
  8
0
  6
CONTINUOUS
 10
5.088600
 20
0.988240
  0
VERTEX
  8
0
  6
CONTINUOUS
 10
5.082880
 20
0.986480
  0
VERTEX
  8
0
  6
CONTINUOUS
 10
4.440480
 20
1.364000
  0
VERTEX
  8
0
  6
CONTINUOUS
 10
4.446200
 20
1.365760
  0
SEQEND
  8
0
  0
SOLID
  8
0
 62
    15
 10
4.440480
 20
1.364000
 11
5.082880
 21
0.986480
 12
4.425960
 22
1.356520
 13
5.068360
 23
0.979000
  0
POLYLINE
  8
0
  6
CONTINUOUS
 66
     1
 40
0.000000
 41
0.000000
  0
VERTEX
  8
0
  6
CONTINUOUS
 10
4.440480
 20
1.364000
  0
VERTEX
  8
0
  6
CONTINUOUS
 10
5.082880
 20
0.986480
  0
VERTEX
  8
0
  6
CONTINUOUS
 10
5.068360
 20
0.979000
  0
VERTEX
  8
0
  6
CONTINUOUS
 10
4.425960
 20
1.356520
  0
VERTEX
  8
0
  6
CONTINUOUS
 10
4.440480
 20
1.364000
  0
SEQEND
  8
0
  0
SOLID
  8
0
 62
     7
 10
4.425960
 20
1.356520
 11
5.068360
 21
0.979000
 12
4.412760
 22
1.341120
 13
5.055600
 23
0.963600
  0
POLYLINE
  8
0
  6
CONTINUOUS
 66
     1
 40
0.000000
 41
0.000000
  0
VERTEX
  8
0
  6
CONTINUOUS
 10
4.425960
 20
1.356520
  0
VERTEX
  8
0
  6
CONTINUOUS
 10
5.068360
 20
0.979000
  0
VERTEX
  8
0
  6
CONTINUOUS
 10
5.055600
 20
0.963600
  0
VERTEX
  8
0
  6
CONTINUOUS
 10
4.412760
 20
1.341120
  0
VERTEX
  8
0
  6
CONTINUOUS
 10
4.425960
 20
1.356520
  0
SEQEND
  8
0
  0
SOLID
  8
0
 62
     7
 10
4.412760
 20
1.341120
 11
5.055600
 21
0.963600
 12
4.409240
 22
1.329240
 13
5.052080
 23
0.951720
  0
POLYLINE
  8
0
  6
CONTINUOUS
 66
     1
 40
0.000000
 41
0.000000
  0
VERTEX
  8
0
  6
CONTINUOUS
 10
4.412760
 20
1.341120
  0
VERTEX
  8
0
  6
CONTINUOUS
 10
5.055600
 20
0.963600
  0
VERTEX
  8
0
  6
CONTINUOUS
 10
5.052080
 20
0.951720
  0
VERTEX
  8
0
  6
CONTINUOUS
 10
4.409240
 20
1.329240
  0
VERTEX
  8
0
  6
CONTINUOUS
 10
4.412760
 20
1.341120
  0
SEQEND
  8
0
  0
SOLID
  8
0
 62
     7
 10
4.409240
 20
1.329240
 11
5.052080
 21
0.951720
 12
4.408360
 22
1.313400
 13
5.051200
 23
0.935880
  0
POLYLINE
  8
0
  6
CONTINUOUS
 66
     1
 40
0.000000
 41
0.000000
  0
VERTEX
  8
0
  6
CONTINUOUS
 10
4.409240
 20
1.329240
  0
VERTEX
  8
0
  6
CONTINUOUS
 10
5.052080
 20
0.951720
  0
VERTEX
  8
0
  6
CONTINUOUS
 10
5.051200
 20
0.935880
  0
VERTEX
  8
0
  6
CONTINUOUS
 10
4.408360
 20
1.313400
  0
VERTEX
  8
0
  6
CONTINUOUS
 10
4.409240
 20
1.329240
  0
SEQEND
  8
0
  0
SOLID
  8
0
 62
     7
 10
4.408360
 20
1.313400
 11
5.051200
 21
0.935880
 12
4.408360
 22
1.207800
 13
5.051200
 23
0.830280
  0
POLYLINE
  8
0
  6
CONTINUOUS
 66
     1
 40
0.000000
 41
0.000000
  0
VERTEX
  8
0
  6
CONTINUOUS
 10
4.408360
 20
1.313400
  0
VERTEX
  8
0
  6
CONTINUOUS
 10
5.051200
 20
0.935880
  0
VERTEX
  8
0
  6
CONTINUOUS
 10
5.051200
 20
0.830280
  0
VERTEX
  8
0
  6
CONTINUOUS
 10
4.408360
 20
1.207800
  0
VERTEX
  8
0
  6
CONTINUOUS
 10
4.408360
 20
1.313400
  0
SEQEND
  8
0
  0
SOLID
  8
0
 62
    15
 10
4.408360
 20
1.207800
 11
5.051200
 21
0.830280
 12
4.213880
 22
1.207800
 13
4.856280
 23
0.830280
  0
POLYLINE
  8
0
  6
CONTINUOUS
 66
     1
 40
0.000000
 41
0.000000
  0
VERTEX
  8
0
  6
CONTINUOUS
 10
4.408360
 20
1.207800
  0
VERTEX
  8
0
  6
CONTINUOUS
 10
5.051200
 20
0.830280
  0
VERTEX
  8
0
  6
CONTINUOUS
 10
4.856280
 20
0.830280
  0
VERTEX
  8
0
  6
CONTINUOUS
 10
4.213880
 20
1.207800
  0
VERTEX
  8
0
  6
CONTINUOUS
 10
4.408360
 20
1.207800
  0
SEQEND
  8
0
  0
SOLID
  8
0
 62
     7
 10
4.940760
 20
2.339920
 11
5.583160
 21
1.962400
 12
4.940760
 22
2.042480
 13
5.583160
 23
1.664960
  0
POLYLINE
  8
0
  6
CONTINUOUS
 66
     1
 40
0.000000
 41
0.000000
  0
VERTEX
  8
0
  6
CONTINUOUS
 10
4.940760
 20
2.339920
  0
VERTEX
  8
0
  6
CONTINUOUS
 10
5.583160
 20
1.962400
  0
VERTEX
  8
0
  6
CONTINUOUS
 10
5.583160
 20
1.664960
  0
VERTEX
  8
0
  6
CONTINUOUS
 10
4.940760
 20
2.042480
  0
VERTEX
  8
0
  6
CONTINUOUS
 10
4.940760
 20
2.339920
  0
SEQEND
  8
0
  0
POLYLINE
  8
0
  6
CONTINUOUS
 66
     1
 40
0.000000
 41
0.000000
  0
VERTEX
  8
0
  6
CONTINUOUS
 10
4.924480
 20
2.339920
  0
VERTEX
  8
0
  6
CONTINUOUS
 10
4.940760
 20
2.339920
  0
VERTEX
  8
0
  6
CONTINUOUS
 10
4.940760
 20
2.042480
  0
VERTEX
  8
0
  6
CONTINUOUS
 10
4.896760
 20
2.031480
  0
VERTEX
  8
0
  6
CONTINUOUS
 10
4.859800
 20
2.020040
  0
VERTEX
  8
0
  6
CONTINUOUS
 10
4.827240
 20
2.007720
  0
VERTEX
  8
0
  6
CONTINUOUS
 10
4.798640
 20
1.994080
  0
VERTEX
  8
0
  6
CONTINUOUS
 10
4.773560
 20
1.979560
  0
VERTEX
  8
0
  6
CONTINUOUS
 10
4.752000
 20
1.963720
  0
VERTEX
  8
0
  6
CONTINUOUS
 10
4.717680
 20
1.929840
  0
VERTEX
  8
0
  6
CONTINUOUS
 10
4.693480
 20
1.893760
  0
VERTEX
  8
0
  6
CONTINUOUS
 10
4.677200
 20
1.855040
  0
VERTEX
  8
0
  6
CONTINUOUS
 10
4.659160
 20
1.775840
  0
VERTEX
  8
0
  6
CONTINUOUS
 10
4.653000
 20
1.736240
  0
VERTEX
  8
0
  6
CONTINUOUS
 10
4.645520
 20
1.698400
  0
VERTEX
  8
0
  6
CONTINUOUS
 10
4.634520
 20
1.662320
  0
VERTEX
  8
0
  6
CONTINUOUS
 10
4.618240
 20
1.628880
  0
VERTEX
  8
0
  6
CONTINUOUS
 10
4.594040
 20
1.598960
  0
VERTEX
  8
0
  6
CONTINUOUS
 10
4.559280
 20
1.573440
  0
VERTEX
  8
0
  6
CONTINUOUS
 10
4.537720
 20
1.562440
  0
VERTEX
  8
0
  6
CONTINUOUS
 10
4.512640
 20
1.553200
  0
VERTEX
  8
0
  6
CONTINUOUS
 10
4.484040
 20
1.544840
  0
VERTEX
  8
0
  6
CONTINUOUS
 10
4.449720
 20
1.538680
  0
VERTEX
  8
0
  6
CONTINUOUS
 10
4.440040
 20
1.530320
  0
VERTEX
  8
0
  6
CONTINUOUS
 10
4.435200
 20
1.521960
  0
VERTEX
  8
0
  6
CONTINUOUS
 10
4.434760
 20
1.513600
  0
VERTEX
  8
0
  6
CONTINUOUS
 10
4.437840
 20
1.505680
  0
VERTEX
  8
0
  6
CONTINUOUS
 10
4.451040
 20
1.491600
  0
VERTEX
  8
0
  6
CONTINUOUS
 10
4.486680
 20
1.474440
  0
VERTEX
  8
0
  6
CONTINUOUS
 10
4.500320
 20
1.460800
  0
VERTEX
  8
0
  6
CONTINUOUS
 10
4.509120
 20
1.443200
  0
VERTEX
  8
0
  6
CONTINUOUS
 10
4.512200
 20
1.423400
  0
VERTEX
  8
0
  6
CONTINUOUS
 10
4.508680
 20
1.404040
  0
VERTEX
  8
0
  6
CONTINUOUS
 10
4.497240
 20
1.386880
  0
VERTEX
  8
0
  6
CONTINUOUS
 10
4.478320
 20
1.373680
  0
VERTEX
  8
0
  6
CONTINUOUS
 10
4.440480
 20
1.364000
  0
VERTEX
  8
0
  6
CONTINUOUS
 10
4.425960
 20
1.356520
  0
VERTEX
  8
0
  6
CONTINUOUS
 10
4.412760
 20
1.341120
  0
VERTEX
  8
0
  6
CONTINUOUS
 10
4.409240
 20
1.329240
  0
VERTEX
  8
0
  6
CONTINUOUS
 10
4.408360
 20
1.313400
  0
VERTEX
  8
0
  6
CONTINUOUS
 10
4.408360
 20
1.207800
  0
VERTEX
  8
0
  6
CONTINUOUS
 10
4.213880
 20
1.207800
  0
VERTEX
  8
0
  6
CONTINUOUS
 10
4.212560
 20
1.209120
  0
VERTEX
  8
0
  6
CONTINUOUS
 10
4.212560
 20
2.339920
  0
VERTEX
  8
0
  6
CONTINUOUS
 10
4.936360
 20
2.339920
  0
VERTEX
  8
0
  6
CONTINUOUS
 10
4.924480
 20
2.339920
  0
SEQEND
  8
0
  0
POLYLINE
  8
0
  6
CONTINUOUS
 66
     1
 40
0.013200
 41
0.013200
  0
VERTEX
  8
0
  6
CONTINUOUS
 10
5.836600
 20
2.203520
  0
VERTEX
  8
0
  6
CONTINUOUS
 10
5.836600
 20
2.219360
  0
VERTEX
  8
0
  6
CONTINUOUS
 10
6.134040
 20
2.219360
  0
VERTEX
  8
0
  6
CONTINUOUS
 10
6.150760
 20
2.156440
  0
VERTEX
  8
0
  6
CONTINUOUS
 10
6.168800
 20
2.106280
  0
VERTEX
  8
0
  6
CONTINUOUS
 10
6.189480
 20
2.064480
  0
VERTEX
  8
0
  6
CONTINUOUS
 10
6.212800
 20
2.031040
  0
VERTEX
  8
0
  6
CONTINUOUS
 10
6.237880
 20
2.004200
  0
VERTEX
  8
0
  6
CONTINUOUS
 10
6.264280
 20
1.983520
  0
VERTEX
  8
0
  6
CONTINUOUS
 10
6.282760
 20
1.972520
  0
VERTEX
  8
0
  6
CONTINUOUS
 10
6.302120
 20
1.963280
  0
VERTEX
  8
0
  6
CONTINUOUS
 10
6.340840
 20
1.950080
  0
VERTEX
  8
0
  6
CONTINUOUS
 10
6.360640
 20
1.945240
  0
VERTEX
  8
0
  6
CONTINUOUS
 10
6.478120
 20
1.924560
  0
VERTEX
  8
0
  6
CONTINUOUS
 10
6.514200
 20
1.913560
  0
VERTEX
  8
0
  6
CONTINUOUS
 10
6.547640
 20
1.897280
  0
VERTEX
  8
0
  6
CONTINUOUS
 10
6.570520
 20
1.879680
  0
VERTEX
  8
0
  6
CONTINUOUS
 10
6.590760
 20
1.857240
  0
VERTEX
  8
0
  6
CONTINUOUS
 10
6.608800
 20
1.827760
  0
VERTEX
  8
0
  6
CONTINUOUS
 10
6.623320
 20
1.791680
  0
VERTEX
  8
0
  6
CONTINUOUS
 10
6.634760
 20
1.746800
  0
VERTEX
  8
0
  6
CONTINUOUS
 10
6.637840
 20
1.728760
  0
VERTEX
  8
0
  6
CONTINUOUS
 10
6.650160
 20
1.716000
  0
VERTEX
  8
0
  6
CONTINUOUS
 10
6.658520
 20
1.713800
  0
VERTEX
  8
0
  6
CONTINUOUS
 10
6.662920
 20
1.713800
  0
VERTEX
  8
0
  6
CONTINUOUS
 10
6.670840
 20
1.716880
  0
VERTEX
  8
0
  6
CONTINUOUS
 10
6.678320
 20
1.722160
  0
VERTEX
  8
0
  6
CONTINUOUS
 10
6.689760
 20
1.738440
  0
VERTEX
  8
0
  6
CONTINUOUS
 10
6.696800
 20
1.757360
  0
VERTEX
  8
0
  6
CONTINUOUS
 10
6.708240
 20
1.773200
  0
VERTEX
  8
0
  6
CONTINUOUS
 10
6.724080
 20
1.784640
  0
VERTEX
  8
0
  6
CONTINUOUS
 10
6.743000
 20
1.790360
  0
VERTEX
  8
0
  6
CONTINUOUS
 10
6.753120
 20
1.791240
  0
VERTEX
  8
0
  6
CONTINUOUS
 10
6.762800
 20
1.790360
  0
VERTEX
  8
0
  6
CONTINUOUS
 10
6.781280
 20
1.782880
  0
VERTEX
  8
0
  6
CONTINUOUS
 10
6.789640
 20
1.776280
  0
VERTEX
  8
0
  6
CONTINUOUS
 10
6.799760
 20
1.762640
  0
VERTEX
  8
0
  6
CONTINUOUS
 10
6.807240
 20
1.744160
  0
VERTEX
  8
0
  6
CONTINUOUS
 10
6.812520
 20
1.719080
  0
VERTEX
  8
0
  6
CONTINUOUS
 10
6.820000
 20
1.704560
  0
VERTEX
  8
0
  6
CONTINUOUS
 10
6.830560
 20
1.694440
  0
VERTEX
  8
0
  6
CONTINUOUS
 10
6.840680
 20
1.689600
  0
VERTEX
  8
0
  6
CONTINUOUS
 10
6.853880
 20
1.687400
  0
VERTEX
  8
0
  6
CONTINUOUS
 10
6.968720
 20
1.687400
  0
VERTEX
  8
0
  6
CONTINUOUS
 10
6.968720
 20
1.492920
  0
VERTEX
  8
0
  6
CONTINUOUS
 10
6.967400
 20
1.491600
  0
VERTEX
  8
0
  6
CONTINUOUS
 10
5.836600
 20
1.491600
  0
VERTEX
  8
0
  6
CONTINUOUS
 10
5.836600
 20
2.215400
  0
VERTEX
  8
0
  6
CONTINUOUS
 10
5.836600
 20
2.203520
  0
SEQEND
  8
0
  0
TEXT
  8
0
 10
6.126120
 20
1.248280
 40
0.138126
  1
BA  19
 41
1.000000
  7
SN0
 71
     0
 72
     5
 11
6.623715
 21
1.248280
  0
TEXT
  8
0
 10
5.923720
 20
1.056880
 40
0.138126
  1
3/4" x 1-1/8" 
 41
1.000000
  7
SN0
 71
     0
 72
     5
 11
6.869053
 21
1.056880
  0
ENDSEC
  0
EOF
