  0
SECTION
  2
HEADER
  9
$ACADVER
  1
AC1006
  9
$EXTMIN
 10
5.355240
 20
0.393800
  9
$EXTMAX
 10
8.042760
 20
2.252800
  9
$LTSCALE
 40
0.044000
  9
$PDMODE
 70
    35
  9
$PDSIZE
 40
0.035200
  0
ENDSEC
  0
SECTION
  2
TABLES
  0
TABLE
  2
LTYPE
 70
     9
  0
LTYPE
  2
CONTINUOUS
 70
    64
  3
Solid line
 72
    65
 73
     0
 40
0.000000
  0
LTYPE
  2
DASHED
 70
    64
  3
__ __ __ __ __ __ __ __ __ __ __ __ __ __ __
 72
    65
 73
     2
 40
0.000330
 49
0.000220
 49
-0.000110
  0
LTYPE
  2
HIDDEN
 70
    64
  3
 _ _ _ _ _ _ _ _ _ _ _ _ _ _ _ _ _ _ _ _ _ _
 72
    65
 73
     2
 40
0.000165
 49
0.000110
 49
-0.000055
  0
LTYPE
  2
CENTER
 70
    64
  3
____ _ ____ _ ____ _ ____ _ ____ _ ____ _ ____
 72
    65
 73
     4
 40
0.000880
 49
0.000550
 49
-0.000110
 49
0.000110
 49
-0.000110
  0
LTYPE
  2
PHANTOM
 70
    64
  3
_____ _ _ _____ _ _ _____ _ _ _____ _ _ ____
 72
    65
 73
     6
 40
0.001100
 49
0.000550
 49
-0.000110
 49
0.000110
 49
-0.000110
 49
0.000110
 49
-0.000110
  0
LTYPE
  2
DOT
 70
    64
  3
...............................................
 72
    65
 73
     2
 40
0.000110
 49
0.000000
 49
-0.000110
  0
LTYPE
  2
DASHDOT
 70
    64
  3
__ . __ . __ . __ . __ . __ . __ . __ . __ . __
 72
    65
 73
     4
 40
0.000440
 49
0.000220
 49
-0.000110
 49
0.000000
 49
-0.000110
  0
LTYPE
  2
BORDER
 70
    64
  3
__ __ . __ __ . __ __ . __ __ . __ __ . __ __
 72
    65
 73
     6
 40
0.000770
 49
0.000220
 49
-0.000110
 49
0.000220
 49
-0.000110
 49
0.000000
 49
-0.000110
  0
LTYPE
  2
DIVIDE
 70
    64
  3
__ . . __ . . __ . . __ . . __ . . __ . . __
 72
    65
 73
     6
 40
0.000550
 49
0.000220
 49
-0.000110
 49
0.000000
 49
-0.000110
 49
0.000000
 49
-0.000110
  0
LTYPE
  2
DOTDOT
 70
    64
  3
 . .  . .  . .  . .  . .  . . 
 72
    65
 73
     5
 40
0.000242
 49
-0.000110
 49
0.000000
 49
-0.000110
 49
0.000000
 49
-0.000110
  0
ENDTAB
  0
TABLE
  2
STYLE
 70
     2
  0
STYLE
 70
     0
  2
SN0
 40
0.000000
 41
0.000440
 50
0.000000
 71
     0
 42
0.000000
  3
ROMAND
  0
STYLE
 70
    68
  2
SV0
 40
0.000000
 41
0.000440
 50
0.000000
 71
     0
 42
0.000000
  3
ROMAND
  0
ENDTAB
  0
TABLE
  2
LAYER
 70
     3
  0
LAYER
  2
FOREGROUND
 70
    64
 62
     7
  6
CONTINUOUS
  0
LAYER
  2
BACKGROUND
 70
    65
 62
    -7
  6
CONTINUOUS
  0
LAYER
  2
0
 70
    64
 62
     7
  6
CONTINUOUS
  0
ENDTAB
  0
ENDSEC
  0
SECTION
  2
ENTITIES
  0
POLYLINE
  8
FOREGROUND
  6
CONTINUOUS
 66
     1
 40
0.000000
 41
0.000000
  0
VERTEX
  8
FOREGROUND
  6
CONTINUOUS
 10
0.000000
 20
2.646600
  0
VERTEX
  8
FOREGROUND
  6
CONTINUOUS
 10
8.499920
 20
2.646600
  0
VERTEX
  8
FOREGROUND
  6
CONTINUOUS
 10
8.499920
 20
-8.353400
  0
VERTEX
  8
FOREGROUND
  6
CONTINUOUS
 10
0.000000
 20
-8.353400
  0
VERTEX
  8
FOREGROUND
  6
CONTINUOUS
 10
0.000000
 20
2.646600
  0
SEQEND
  8
0
  0
POLYLINE
  8
FOREGROUND
  6
CONTINUOUS
 66
     1
 40
0.000000
 41
0.000000
  0
VERTEX
  8
FOREGROUND
  6
CONTINUOUS
 10
0.000000
 20
2.646600
  0
VERTEX
  8
FOREGROUND
  6
CONTINUOUS
 10
8.499920
 20
2.646600
  0
VERTEX
  8
FOREGROUND
  6
CONTINUOUS
 10
8.499920
 20
-8.353400
  0
VERTEX
  8
FOREGROUND
  6
CONTINUOUS
 10
0.000000
 20
-8.353400
  0
VERTEX
  8
FOREGROUND
  6
CONTINUOUS
 10
0.000000
 20
2.646600
  0
SEQEND
  8
0
  0
POLYLINE
  8
0
  6
CONTINUOUS
 66
     1
 40
0.013200
 41
0.013200
  0
VERTEX
  8
0
  6
CONTINUOUS
 10
6.913720
 20
1.965920
  0
VERTEX
  8
0
  6
CONTINUOUS
 10
6.981920
 20
1.965920
  0
VERTEX
  8
0
  6
CONTINUOUS
 10
6.983240
 20
1.964600
  0
VERTEX
  8
0
  6
CONTINUOUS
 10
6.983240
 20
1.946120
  0
VERTEX
  8
0
  6
CONTINUOUS
 10
6.987200
 20
1.912680
  0
VERTEX
  8
0
  6
CONTINUOUS
 10
6.994680
 20
1.883640
  0
VERTEX
  8
0
  6
CONTINUOUS
 10
7.005680
 20
1.858120
  0
VERTEX
  8
0
  6
CONTINUOUS
 10
7.019320
 20
1.836560
  0
VERTEX
  8
0
  6
CONTINUOUS
 10
7.043960
 20
1.809720
  0
VERTEX
  8
0
  6
CONTINUOUS
 10
7.062000
 20
1.795640
  0
VERTEX
  8
0
  6
CONTINUOUS
 10
7.080920
 20
1.784200
  0
VERTEX
  8
0
  6
CONTINUOUS
 10
7.118760
 20
1.768360
  0
VERTEX
  8
0
  6
CONTINUOUS
 10
7.152200
 20
1.759560
  0
VERTEX
  8
0
  6
CONTINUOUS
 10
7.189600
 20
1.755160
  0
VERTEX
  8
0
  6
CONTINUOUS
 10
7.192240
 20
1.753840
  0
VERTEX
  8
0
  6
CONTINUOUS
 10
7.236240
 20
1.685640
  0
VERTEX
  8
0
  6
CONTINUOUS
 10
7.273640
 20
1.685640
  0
VERTEX
  8
0
  6
CONTINUOUS
 10
7.284200
 20
1.718200
  0
VERTEX
  8
0
  6
CONTINUOUS
 10
7.297840
 20
1.743720
  0
VERTEX
  8
0
  6
CONTINUOUS
 10
7.313680
 20
1.762200
  0
VERTEX
  8
0
  6
CONTINUOUS
 10
7.331280
 20
1.774520
  0
VERTEX
  8
0
  6
CONTINUOUS
 10
7.343600
 20
1.779360
  0
VERTEX
  8
0
  6
CONTINUOUS
 10
7.361640
 20
1.781560
  0
VERTEX
  8
0
  6
CONTINUOUS
 10
7.379240
 20
1.777600
  0
VERTEX
  8
0
  6
CONTINUOUS
 10
7.395080
 20
1.767920
  0
VERTEX
  8
0
  6
CONTINUOUS
 10
7.408720
 20
1.752960
  0
VERTEX
  8
0
  6
CONTINUOUS
 10
7.419280
 20
1.732280
  0
VERTEX
  8
0
  6
CONTINUOUS
 10
7.425880
 20
1.705880
  0
VERTEX
  8
0
  6
CONTINUOUS
 10
7.425880
 20
1.547040
  0
VERTEX
  8
0
  6
CONTINUOUS
 10
6.577560
 20
1.547040
  0
VERTEX
  8
0
  6
CONTINUOUS
 10
6.577560
 20
1.968560
  0
VERTEX
  8
0
  6
CONTINUOUS
 10
6.578440
 20
1.991880
  0
VERTEX
  8
0
  6
CONTINUOUS
 10
6.581520
 20
2.013880
  0
VERTEX
  8
0
  6
CONTINUOUS
 10
6.585920
 20
2.034560
  0
VERTEX
  8
0
  6
CONTINUOUS
 10
6.592080
 20
2.053920
  0
VERTEX
  8
0
  6
CONTINUOUS
 10
6.608800
 20
2.088240
  0
VERTEX
  8
0
  6
CONTINUOUS
 10
6.630800
 20
2.116840
  0
VERTEX
  8
0
  6
CONTINUOUS
 10
6.656320
 20
2.139280
  0
VERTEX
  8
0
  6
CONTINUOUS
 10
6.684920
 20
2.156000
  0
VERTEX
  8
0
  6
CONTINUOUS
 10
6.699880
 20
2.162160
  0
VERTEX
  8
0
  6
CONTINUOUS
 10
6.731120
 20
2.169640
  0
VERTEX
  8
0
  6
CONTINUOUS
 10
6.762800
 20
2.170960
  0
VERTEX
  8
0
  6
CONTINUOUS
 10
6.778640
 20
2.169200
  0
VERTEX
  8
0
  6
CONTINUOUS
 10
6.809000
 20
2.160840
  0
VERTEX
  8
0
  6
CONTINUOUS
 10
6.837600
 20
2.145880
  0
VERTEX
  8
0
  6
CONTINUOUS
 10
6.850800
 20
2.136200
  0
VERTEX
  8
0
  6
CONTINUOUS
 10
6.874120
 20
2.111120
  0
VERTEX
  8
0
  6
CONTINUOUS
 10
6.884240
 20
2.096160
  0
VERTEX
  8
0
  6
CONTINUOUS
 10
6.893040
 20
2.079440
  0
VERTEX
  8
0
  6
CONTINUOUS
 10
6.900520
 20
2.060960
  0
VERTEX
  8
0
  6
CONTINUOUS
 10
6.906240
 20
2.040720
  0
VERTEX
  8
0
  6
CONTINUOUS
 10
6.910640
 20
2.019160
  0
VERTEX
  8
0
  6
CONTINUOUS
 10
6.913720
 20
1.982640
  0
VERTEX
  8
0
  6
CONTINUOUS
 10
6.913720
 20
1.965920
  0
SEQEND
  8
0
  0
TEXT
  8
0
 10
5.575240
 20
0.629200
 40
0.138211
  1
BA  18
 41
1.000000
  7
SN0
 71
     0
 72
     5
 11
6.072834
 21
0.629200
  0
TEXT
  8
0
 10
5.446760
 20
0.437800
 40
0.138211
  1
5/8" x 7/8"
 41
1.000000
  7
SN0
 71
     0
 72
     5
 11
6.199534
 21
0.437800
  0
SOLID
  8
0
 62
    15
 10
6.144600
 20
1.079760
 11
6.136240
 21
1.774960
 12
6.156040
 22
1.087240
 13
6.148120
 23
1.782440
  0
POLYLINE
  8
0
  6
CONTINUOUS
 66
     1
 40
0.000000
 41
0.000000
  0
VERTEX
  8
0
  6
CONTINUOUS
 10
6.144600
 20
1.079760
  0
VERTEX
  8
0
  6
CONTINUOUS
 10
6.136240
 20
1.774960
  0
VERTEX
  8
0
  6
CONTINUOUS
 10
6.148120
 20
1.782440
  0
VERTEX
  8
0
  6
CONTINUOUS
 10
6.156040
 20
1.087240
  0
VERTEX
  8
0
  6
CONTINUOUS
 10
6.144600
 20
1.079760
  0
SEQEND
  8
0
  0
SOLID
  8
0
 62
    15
 10
5.806680
 20
1.278200
 11
5.798320
 21
1.973840
 12
5.808000
 22
1.276880
 13
5.799640
 23
1.972520
  0
POLYLINE
  8
0
  6
CONTINUOUS
 66
     1
 40
0.000000
 41
0.000000
  0
VERTEX
  8
0
  6
CONTINUOUS
 10
5.806680
 20
1.278200
  0
VERTEX
  8
0
  6
CONTINUOUS
 10
5.798320
 20
1.973840
  0
VERTEX
  8
0
  6
CONTINUOUS
 10
5.799640
 20
1.972520
  0
VERTEX
  8
0
  6
CONTINUOUS
 10
5.808000
 20
1.276880
  0
VERTEX
  8
0
  6
CONTINUOUS
 10
5.806680
 20
1.278200
  0
SEQEND
  8
0
  0
SOLID
  8
0
 62
    15
 10
5.808000
 20
1.276880
 11
5.799640
 21
1.972520
 12
5.809320
 22
1.241240
 13
5.801400
 23
1.936880
  0
POLYLINE
  8
0
  6
CONTINUOUS
 66
     1
 40
0.000000
 41
0.000000
  0
VERTEX
  8
0
  6
CONTINUOUS
 10
5.808000
 20
1.276880
  0
VERTEX
  8
0
  6
CONTINUOUS
 10
5.799640
 20
1.972520
  0
VERTEX
  8
0
  6
CONTINUOUS
 10
5.801400
 20
1.936880
  0
VERTEX
  8
0
  6
CONTINUOUS
 10
5.809320
 20
1.241240
  0
VERTEX
  8
0
  6
CONTINUOUS
 10
5.808000
 20
1.276880
  0
SEQEND
  8
0
  0
SOLID
  8
0
 62
    15
 10
5.809320
 20
1.241240
 11
5.801400
 21
1.936880
 12
5.815040
 22
1.210000
 13
5.807120
 23
1.905640
  0
POLYLINE
  8
0
  6
CONTINUOUS
 66
     1
 40
0.000000
 41
0.000000
  0
VERTEX
  8
0
  6
CONTINUOUS
 10
5.809320
 20
1.241240
  0
VERTEX
  8
0
  6
CONTINUOUS
 10
5.801400
 20
1.936880
  0
VERTEX
  8
0
  6
CONTINUOUS
 10
5.807120
 20
1.905640
  0
VERTEX
  8
0
  6
CONTINUOUS
 10
5.815040
 20
1.210000
  0
VERTEX
  8
0
  6
CONTINUOUS
 10
5.809320
 20
1.241240
  0
SEQEND
  8
0
  0
SOLID
  8
0
 62
    15
 10
5.815040
 20
1.210000
 11
5.807120
 21
1.905640
 12
5.824720
 22
1.182720
 13
5.816360
 23
1.878360
  0
POLYLINE
  8
0
  6
CONTINUOUS
 66
     1
 40
0.000000
 41
0.000000
  0
VERTEX
  8
0
  6
CONTINUOUS
 10
5.815040
 20
1.210000
  0
VERTEX
  8
0
  6
CONTINUOUS
 10
5.807120
 20
1.905640
  0
VERTEX
  8
0
  6
CONTINUOUS
 10
5.816360
 20
1.878360
  0
VERTEX
  8
0
  6
CONTINUOUS
 10
5.824720
 20
1.182720
  0
VERTEX
  8
0
  6
CONTINUOUS
 10
5.815040
 20
1.210000
  0
SEQEND
  8
0
  0
SOLID
  8
0
 62
    15
 10
5.824720
 20
1.182720
 11
5.816360
 21
1.878360
 12
5.837040
 22
1.159400
 13
5.828680
 23
1.854600
  0
POLYLINE
  8
0
  6
CONTINUOUS
 66
     1
 40
0.000000
 41
0.000000
  0
VERTEX
  8
0
  6
CONTINUOUS
 10
5.824720
 20
1.182720
  0
VERTEX
  8
0
  6
CONTINUOUS
 10
5.816360
 20
1.878360
  0
VERTEX
  8
0
  6
CONTINUOUS
 10
5.828680
 20
1.854600
  0
VERTEX
  8
0
  6
CONTINUOUS
 10
5.837040
 20
1.159400
  0
VERTEX
  8
0
  6
CONTINUOUS
 10
5.824720
 20
1.182720
  0
SEQEND
  8
0
  0
SOLID
  8
0
 62
    15
 10
5.837040
 20
1.159400
 11
5.828680
 21
1.854600
 12
5.852000
 22
1.139160
 13
5.843640
 23
1.834360
  0
POLYLINE
  8
0
  6
CONTINUOUS
 66
     1
 40
0.000000
 41
0.000000
  0
VERTEX
  8
0
  6
CONTINUOUS
 10
5.837040
 20
1.159400
  0
VERTEX
  8
0
  6
CONTINUOUS
 10
5.828680
 20
1.854600
  0
VERTEX
  8
0
  6
CONTINUOUS
 10
5.843640
 20
1.834360
  0
VERTEX
  8
0
  6
CONTINUOUS
 10
5.852000
 20
1.139160
  0
VERTEX
  8
0
  6
CONTINUOUS
 10
5.837040
 20
1.159400
  0
SEQEND
  8
0
  0
SOLID
  8
0
 62
    15
 10
5.852000
 20
1.139160
 11
5.843640
 21
1.834360
 12
5.868720
 22
1.122440
 13
5.860360
 23
1.817640
  0
POLYLINE
  8
0
  6
CONTINUOUS
 66
     1
 40
0.000000
 41
0.000000
  0
VERTEX
  8
0
  6
CONTINUOUS
 10
5.852000
 20
1.139160
  0
VERTEX
  8
0
  6
CONTINUOUS
 10
5.843640
 20
1.834360
  0
VERTEX
  8
0
  6
CONTINUOUS
 10
5.860360
 20
1.817640
  0
VERTEX
  8
0
  6
CONTINUOUS
 10
5.868720
 20
1.122440
  0
VERTEX
  8
0
  6
CONTINUOUS
 10
5.852000
 20
1.139160
  0
SEQEND
  8
0
  0
SOLID
  8
0
 62
    15
 10
5.868720
 20
1.122440
 11
5.860360
 21
1.817640
 12
5.905680
 22
1.096920
 13
5.897760
 23
1.792120
  0
POLYLINE
  8
0
  6
CONTINUOUS
 66
     1
 40
0.000000
 41
0.000000
  0
VERTEX
  8
0
  6
CONTINUOUS
 10
5.868720
 20
1.122440
  0
VERTEX
  8
0
  6
CONTINUOUS
 10
5.860360
 20
1.817640
  0
VERTEX
  8
0
  6
CONTINUOUS
 10
5.897760
 20
1.792120
  0
VERTEX
  8
0
  6
CONTINUOUS
 10
5.905680
 20
1.096920
  0
VERTEX
  8
0
  6
CONTINUOUS
 10
5.868720
 20
1.122440
  0
SEQEND
  8
0
  0
SOLID
  8
0
 62
    15
 10
5.905680
 20
1.096920
 11
5.897760
 21
1.792120
 12
5.943520
 22
1.080640
 13
5.935160
 23
1.776280
  0
POLYLINE
  8
0
  6
CONTINUOUS
 66
     1
 40
0.000000
 41
0.000000
  0
VERTEX
  8
0
  6
CONTINUOUS
 10
5.905680
 20
1.096920
  0
VERTEX
  8
0
  6
CONTINUOUS
 10
5.897760
 20
1.792120
  0
VERTEX
  8
0
  6
CONTINUOUS
 10
5.935160
 20
1.776280
  0
VERTEX
  8
0
  6
CONTINUOUS
 10
5.943520
 20
1.080640
  0
VERTEX
  8
0
  6
CONTINUOUS
 10
5.905680
 20
1.096920
  0
SEQEND
  8
0
  0
SOLID
  8
0
 62
    15
 10
5.943520
 20
1.080640
 11
5.935160
 21
1.776280
 12
5.977400
 22
1.071840
 13
5.969040
 23
1.767480
  0
POLYLINE
  8
0
  6
CONTINUOUS
 66
     1
 40
0.000000
 41
0.000000
  0
VERTEX
  8
0
  6
CONTINUOUS
 10
5.943520
 20
1.080640
  0
VERTEX
  8
0
  6
CONTINUOUS
 10
5.935160
 20
1.776280
  0
VERTEX
  8
0
  6
CONTINUOUS
 10
5.969040
 20
1.767480
  0
VERTEX
  8
0
  6
CONTINUOUS
 10
5.977400
 20
1.071840
  0
VERTEX
  8
0
  6
CONTINUOUS
 10
5.943520
 20
1.080640
  0
SEQEND
  8
0
  0
SOLID
  8
0
 62
    15
 10
5.977400
 20
1.071840
 11
5.969040
 21
1.767480
 12
5.991040
 22
1.069640
 13
5.983120
 23
1.765280
  0
POLYLINE
  8
0
  6
CONTINUOUS
 66
     1
 40
0.000000
 41
0.000000
  0
VERTEX
  8
0
  6
CONTINUOUS
 10
5.977400
 20
1.071840
  0
VERTEX
  8
0
  6
CONTINUOUS
 10
5.969040
 20
1.767480
  0
VERTEX
  8
0
  6
CONTINUOUS
 10
5.983120
 20
1.765280
  0
VERTEX
  8
0
  6
CONTINUOUS
 10
5.991040
 20
1.069640
  0
VERTEX
  8
0
  6
CONTINUOUS
 10
5.977400
 20
1.071840
  0
SEQEND
  8
0
  0
SOLID
  8
0
 62
    15
 10
5.991040
 20
1.069640
 11
5.983120
 21
1.765280
 12
6.002480
 22
1.068320
 13
5.994120
 23
1.763520
  0
POLYLINE
  8
0
  6
CONTINUOUS
 66
     1
 40
0.000000
 41
0.000000
  0
VERTEX
  8
0
  6
CONTINUOUS
 10
5.991040
 20
1.069640
  0
VERTEX
  8
0
  6
CONTINUOUS
 10
5.983120
 20
1.765280
  0
VERTEX
  8
0
  6
CONTINUOUS
 10
5.994120
 20
1.763520
  0
VERTEX
  8
0
  6
CONTINUOUS
 10
6.002480
 20
1.068320
  0
VERTEX
  8
0
  6
CONTINUOUS
 10
5.991040
 20
1.069640
  0
SEQEND
  8
0
  0
SOLID
  8
0
 62
    15
 10
6.002480
 20
1.068320
 11
5.994120
 21
1.763520
 12
6.010400
 22
1.067880
 13
6.002040
 23
1.763080
  0
POLYLINE
  8
0
  6
CONTINUOUS
 66
     1
 40
0.000000
 41
0.000000
  0
VERTEX
  8
0
  6
CONTINUOUS
 10
6.002480
 20
1.068320
  0
VERTEX
  8
0
  6
CONTINUOUS
 10
5.994120
 20
1.763520
  0
VERTEX
  8
0
  6
CONTINUOUS
 10
6.002040
 20
1.763080
  0
VERTEX
  8
0
  6
CONTINUOUS
 10
6.010400
 20
1.067880
  0
VERTEX
  8
0
  6
CONTINUOUS
 10
6.002480
 20
1.068320
  0
SEQEND
  8
0
  0
SOLID
  8
0
 62
    15
 10
6.010400
 20
1.067880
 11
6.002040
 21
1.763080
 12
6.014360
 22
1.067440
 13
6.006440
 23
1.763080
  0
POLYLINE
  8
0
  6
CONTINUOUS
 66
     1
 40
0.000000
 41
0.000000
  0
VERTEX
  8
0
  6
CONTINUOUS
 10
6.010400
 20
1.067880
  0
VERTEX
  8
0
  6
CONTINUOUS
 10
6.002040
 20
1.763080
  0
VERTEX
  8
0
  6
CONTINUOUS
 10
6.006440
 20
1.763080
  0
VERTEX
  8
0
  6
CONTINUOUS
 10
6.014360
 20
1.067440
  0
VERTEX
  8
0
  6
CONTINUOUS
 10
6.010400
 20
1.067880
  0
SEQEND
  8
0
  0
SOLID
  8
0
 62
    15
 10
6.014360
 20
1.067440
 11
6.006440
 21
1.763080
 12
6.017440
 22
1.066120
 13
6.009080
 23
1.761760
  0
POLYLINE
  8
0
  6
CONTINUOUS
 66
     1
 40
0.000000
 41
0.000000
  0
VERTEX
  8
0
  6
CONTINUOUS
 10
6.014360
 20
1.067440
  0
VERTEX
  8
0
  6
CONTINUOUS
 10
6.006440
 20
1.763080
  0
VERTEX
  8
0
  6
CONTINUOUS
 10
6.009080
 20
1.761760
  0
VERTEX
  8
0
  6
CONTINUOUS
 10
6.017440
 20
1.066120
  0
VERTEX
  8
0
  6
CONTINUOUS
 10
6.014360
 20
1.067440
  0
SEQEND
  8
0
  0
SOLID
  8
0
 62
    15
 10
6.017440
 20
1.066120
 11
6.009080
 21
1.761760
 12
6.061440
 22
0.998360
 13
6.053080
 23
1.693560
  0
POLYLINE
  8
0
  6
CONTINUOUS
 66
     1
 40
0.000000
 41
0.000000
  0
VERTEX
  8
0
  6
CONTINUOUS
 10
6.017440
 20
1.066120
  0
VERTEX
  8
0
  6
CONTINUOUS
 10
6.009080
 20
1.761760
  0
VERTEX
  8
0
  6
CONTINUOUS
 10
6.053080
 20
1.693560
  0
VERTEX
  8
0
  6
CONTINUOUS
 10
6.061440
 20
0.998360
  0
VERTEX
  8
0
  6
CONTINUOUS
 10
6.017440
 20
1.066120
  0
SEQEND
  8
0
  0
SOLID
  8
0
 62
    15
 10
6.061440
 20
0.998360
 11
6.053080
 21
1.693560
 12
6.098400
 22
0.998360
 13
6.090480
 23
1.693560
  0
POLYLINE
  8
0
  6
CONTINUOUS
 66
     1
 40
0.000000
 41
0.000000
  0
VERTEX
  8
0
  6
CONTINUOUS
 10
6.061440
 20
0.998360
  0
VERTEX
  8
0
  6
CONTINUOUS
 10
6.053080
 20
1.693560
  0
VERTEX
  8
0
  6
CONTINUOUS
 10
6.090480
 20
1.693560
  0
VERTEX
  8
0
  6
CONTINUOUS
 10
6.098400
 20
0.998360
  0
VERTEX
  8
0
  6
CONTINUOUS
 10
6.061440
 20
0.998360
  0
SEQEND
  8
0
  0
SOLID
  8
0
 62
    15
 10
6.098400
 20
0.998360
 11
6.090480
 21
1.693560
 12
6.105000
 22
1.020800
 13
6.097080
 23
1.716000
  0
POLYLINE
  8
0
  6
CONTINUOUS
 66
     1
 40
0.000000
 41
0.000000
  0
VERTEX
  8
0
  6
CONTINUOUS
 10
6.098400
 20
0.998360
  0
VERTEX
  8
0
  6
CONTINUOUS
 10
6.090480
 20
1.693560
  0
VERTEX
  8
0
  6
CONTINUOUS
 10
6.097080
 20
1.716000
  0
VERTEX
  8
0
  6
CONTINUOUS
 10
6.105000
 20
1.020800
  0
VERTEX
  8
0
  6
CONTINUOUS
 10
6.098400
 20
0.998360
  0
SEQEND
  8
0
  0
SOLID
  8
0
 62
    15
 10
6.105000
 20
1.020800
 11
6.097080
 21
1.716000
 12
6.113360
 22
1.040160
 13
6.105000
 23
1.735360
  0
POLYLINE
  8
0
  6
CONTINUOUS
 66
     1
 40
0.000000
 41
0.000000
  0
VERTEX
  8
0
  6
CONTINUOUS
 10
6.105000
 20
1.020800
  0
VERTEX
  8
0
  6
CONTINUOUS
 10
6.097080
 20
1.716000
  0
VERTEX
  8
0
  6
CONTINUOUS
 10
6.105000
 20
1.735360
  0
VERTEX
  8
0
  6
CONTINUOUS
 10
6.113360
 20
1.040160
  0
VERTEX
  8
0
  6
CONTINUOUS
 10
6.105000
 20
1.020800
  0
SEQEND
  8
0
  0
SOLID
  8
0
 62
    15
 10
6.113360
 20
1.040160
 11
6.105000
 21
1.735360
 12
6.122600
 22
1.056000
 13
6.114680
 23
1.751640
  0
POLYLINE
  8
0
  6
CONTINUOUS
 66
     1
 40
0.000000
 41
0.000000
  0
VERTEX
  8
0
  6
CONTINUOUS
 10
6.113360
 20
1.040160
  0
VERTEX
  8
0
  6
CONTINUOUS
 10
6.105000
 20
1.735360
  0
VERTEX
  8
0
  6
CONTINUOUS
 10
6.114680
 20
1.751640
  0
VERTEX
  8
0
  6
CONTINUOUS
 10
6.122600
 20
1.056000
  0
VERTEX
  8
0
  6
CONTINUOUS
 10
6.113360
 20
1.040160
  0
SEQEND
  8
0
  0
SOLID
  8
0
 62
    15
 10
6.122600
 20
1.056000
 11
6.114680
 21
1.751640
 12
6.133160
 22
1.069640
 13
6.124800
 23
1.764840
  0
POLYLINE
  8
0
  6
CONTINUOUS
 66
     1
 40
0.000000
 41
0.000000
  0
VERTEX
  8
0
  6
CONTINUOUS
 10
6.122600
 20
1.056000
  0
VERTEX
  8
0
  6
CONTINUOUS
 10
6.114680
 20
1.751640
  0
VERTEX
  8
0
  6
CONTINUOUS
 10
6.124800
 20
1.764840
  0
VERTEX
  8
0
  6
CONTINUOUS
 10
6.133160
 20
1.069640
  0
VERTEX
  8
0
  6
CONTINUOUS
 10
6.122600
 20
1.056000
  0
SEQEND
  8
0
  0
SOLID
  8
0
 62
    15
 10
6.133160
 20
1.069640
 11
6.124800
 21
1.764840
 12
6.144600
 22
1.079760
 13
6.136240
 23
1.774960
  0
POLYLINE
  8
0
  6
CONTINUOUS
 66
     1
 40
0.000000
 41
0.000000
  0
VERTEX
  8
0
  6
CONTINUOUS
 10
6.133160
 20
1.069640
  0
VERTEX
  8
0
  6
CONTINUOUS
 10
6.124800
 20
1.764840
  0
VERTEX
  8
0
  6
CONTINUOUS
 10
6.136240
 20
1.774960
  0
VERTEX
  8
0
  6
CONTINUOUS
 10
6.144600
 20
1.079760
  0
VERTEX
  8
0
  6
CONTINUOUS
 10
6.133160
 20
1.069640
  0
SEQEND
  8
0
  0
SOLID
  8
0
 62
    15
 10
5.738480
 20
1.278200
 11
5.730560
 21
1.973840
 12
5.806680
 22
1.278200
 13
5.798320
 23
1.973840
  0
POLYLINE
  8
0
  6
CONTINUOUS
 66
     1
 40
0.000000
 41
0.000000
  0
VERTEX
  8
0
  6
CONTINUOUS
 10
5.738480
 20
1.278200
  0
VERTEX
  8
0
  6
CONTINUOUS
 10
5.730560
 20
1.973840
  0
VERTEX
  8
0
  6
CONTINUOUS
 10
5.798320
 20
1.973840
  0
VERTEX
  8
0
  6
CONTINUOUS
 10
5.806680
 20
1.278200
  0
VERTEX
  8
0
  6
CONTINUOUS
 10
5.738480
 20
1.278200
  0
SEQEND
  8
0
  0
SOLID
  8
0
 62
    15
 10
6.156040
 20
1.087240
 11
6.148120
 21
1.782440
 12
6.180680
 22
1.093840
 13
6.172320
 23
1.789480
  0
POLYLINE
  8
0
  6
CONTINUOUS
 66
     1
 40
0.000000
 41
0.000000
  0
VERTEX
  8
0
  6
CONTINUOUS
 10
6.156040
 20
1.087240
  0
VERTEX
  8
0
  6
CONTINUOUS
 10
6.148120
 20
1.782440
  0
VERTEX
  8
0
  6
CONTINUOUS
 10
6.172320
 20
1.789480
  0
VERTEX
  8
0
  6
CONTINUOUS
 10
6.180680
 20
1.093840
  0
VERTEX
  8
0
  6
CONTINUOUS
 10
6.156040
 20
1.087240
  0
SEQEND
  8
0
  0
SOLID
  8
0
 62
    15
 10
6.180680
 20
1.093840
 11
6.172320
 21
1.789480
 12
6.204000
 22
1.089880
 13
6.196080
 23
1.785520
  0
POLYLINE
  8
0
  6
CONTINUOUS
 66
     1
 40
0.000000
 41
0.000000
  0
VERTEX
  8
0
  6
CONTINUOUS
 10
6.180680
 20
1.093840
  0
VERTEX
  8
0
  6
CONTINUOUS
 10
6.172320
 20
1.789480
  0
VERTEX
  8
0
  6
CONTINUOUS
 10
6.196080
 20
1.785520
  0
VERTEX
  8
0
  6
CONTINUOUS
 10
6.204000
 20
1.089880
  0
VERTEX
  8
0
  6
CONTINUOUS
 10
6.180680
 20
1.093840
  0
SEQEND
  8
0
  0
SOLID
  8
0
 62
    15
 10
6.204000
 20
1.089880
 11
6.196080
 21
1.785520
 12
6.225120
 22
1.075800
 13
6.216760
 23
1.771440
  0
POLYLINE
  8
0
  6
CONTINUOUS
 66
     1
 40
0.000000
 41
0.000000
  0
VERTEX
  8
0
  6
CONTINUOUS
 10
6.204000
 20
1.089880
  0
VERTEX
  8
0
  6
CONTINUOUS
 10
6.196080
 20
1.785520
  0
VERTEX
  8
0
  6
CONTINUOUS
 10
6.216760
 20
1.771440
  0
VERTEX
  8
0
  6
CONTINUOUS
 10
6.225120
 20
1.075800
  0
VERTEX
  8
0
  6
CONTINUOUS
 10
6.204000
 20
1.089880
  0
SEQEND
  8
0
  0
SOLID
  8
0
 62
    15
 10
6.225120
 20
1.075800
 11
6.216760
 21
1.771440
 12
6.240960
 22
1.052040
 13
6.233040
 23
1.747680
  0
POLYLINE
  8
0
  6
CONTINUOUS
 66
     1
 40
0.000000
 41
0.000000
  0
VERTEX
  8
0
  6
CONTINUOUS
 10
6.225120
 20
1.075800
  0
VERTEX
  8
0
  6
CONTINUOUS
 10
6.216760
 20
1.771440
  0
VERTEX
  8
0
  6
CONTINUOUS
 10
6.233040
 20
1.747680
  0
VERTEX
  8
0
  6
CONTINUOUS
 10
6.240960
 20
1.052040
  0
VERTEX
  8
0
  6
CONTINUOUS
 10
6.225120
 20
1.075800
  0
SEQEND
  8
0
  0
SOLID
  8
0
 62
    15
 10
6.240960
 20
1.052040
 11
6.233040
 21
1.747680
 12
6.250640
 22
1.019480
 13
6.242280
 23
1.715120
  0
POLYLINE
  8
0
  6
CONTINUOUS
 66
     1
 40
0.000000
 41
0.000000
  0
VERTEX
  8
0
  6
CONTINUOUS
 10
6.240960
 20
1.052040
  0
VERTEX
  8
0
  6
CONTINUOUS
 10
6.233040
 20
1.747680
  0
VERTEX
  8
0
  6
CONTINUOUS
 10
6.242280
 20
1.715120
  0
VERTEX
  8
0
  6
CONTINUOUS
 10
6.250640
 20
1.019480
  0
VERTEX
  8
0
  6
CONTINUOUS
 10
6.240960
 20
1.052040
  0
SEQEND
  8
0
  0
SOLID
  8
0
 62
    15
 10
5.402760
 20
0.859760
 11
5.394400
 21
1.554960
 12
5.402760
 22
1.280840
 13
5.394400
 23
1.976480
  0
POLYLINE
  8
0
  6
CONTINUOUS
 66
     1
 40
0.000000
 41
0.000000
  0
VERTEX
  8
0
  6
CONTINUOUS
 10
5.402760
 20
0.859760
  0
VERTEX
  8
0
  6
CONTINUOUS
 10
5.394400
 20
1.554960
  0
VERTEX
  8
0
  6
CONTINUOUS
 10
5.394400
 20
1.976480
  0
VERTEX
  8
0
  6
CONTINUOUS
 10
5.402760
 20
1.280840
  0
VERTEX
  8
0
  6
CONTINUOUS
 10
5.402760
 20
0.859760
  0
SEQEND
  8
0
  0
SOLID
  8
0
 62
    15
 10
5.402760
 20
1.280840
 11
5.394400
 21
1.976480
 12
5.406280
 22
1.326600
 13
5.398360
 23
2.021800
  0
POLYLINE
  8
0
  6
CONTINUOUS
 66
     1
 40
0.000000
 41
0.000000
  0
VERTEX
  8
0
  6
CONTINUOUS
 10
5.402760
 20
1.280840
  0
VERTEX
  8
0
  6
CONTINUOUS
 10
5.394400
 20
1.976480
  0
VERTEX
  8
0
  6
CONTINUOUS
 10
5.398360
 20
2.021800
  0
VERTEX
  8
0
  6
CONTINUOUS
 10
5.406280
 20
1.326600
  0
VERTEX
  8
0
  6
CONTINUOUS
 10
5.402760
 20
1.280840
  0
SEQEND
  8
0
  0
SOLID
  8
0
 62
    15
 10
5.406280
 20
1.326600
 11
5.398360
 21
2.021800
 12
5.417280
 22
1.366200
 13
5.408920
 23
2.061840
  0
POLYLINE
  8
0
  6
CONTINUOUS
 66
     1
 40
0.000000
 41
0.000000
  0
VERTEX
  8
0
  6
CONTINUOUS
 10
5.406280
 20
1.326600
  0
VERTEX
  8
0
  6
CONTINUOUS
 10
5.398360
 20
2.021800
  0
VERTEX
  8
0
  6
CONTINUOUS
 10
5.408920
 20
2.061840
  0
VERTEX
  8
0
  6
CONTINUOUS
 10
5.417280
 20
1.366200
  0
VERTEX
  8
0
  6
CONTINUOUS
 10
5.406280
 20
1.326600
  0
SEQEND
  8
0
  0
SOLID
  8
0
 62
    15
 10
5.417280
 20
1.366200
 11
5.408920
 21
2.061840
 12
5.434000
 22
1.400520
 13
5.425640
 23
2.096160
  0
POLYLINE
  8
0
  6
CONTINUOUS
 66
     1
 40
0.000000
 41
0.000000
  0
VERTEX
  8
0
  6
CONTINUOUS
 10
5.417280
 20
1.366200
  0
VERTEX
  8
0
  6
CONTINUOUS
 10
5.408920
 20
2.061840
  0
VERTEX
  8
0
  6
CONTINUOUS
 10
5.425640
 20
2.096160
  0
VERTEX
  8
0
  6
CONTINUOUS
 10
5.434000
 20
1.400520
  0
VERTEX
  8
0
  6
CONTINUOUS
 10
5.417280
 20
1.366200
  0
SEQEND
  8
0
  0
SOLID
  8
0
 62
    15
 10
5.434000
 20
1.400520
 11
5.425640
 21
2.096160
 12
5.455560
 22
1.429120
 13
5.447640
 23
2.124760
  0
POLYLINE
  8
0
  6
CONTINUOUS
 66
     1
 40
0.000000
 41
0.000000
  0
VERTEX
  8
0
  6
CONTINUOUS
 10
5.434000
 20
1.400520
  0
VERTEX
  8
0
  6
CONTINUOUS
 10
5.425640
 20
2.096160
  0
VERTEX
  8
0
  6
CONTINUOUS
 10
5.447640
 20
2.124760
  0
VERTEX
  8
0
  6
CONTINUOUS
 10
5.455560
 20
1.429120
  0
VERTEX
  8
0
  6
CONTINUOUS
 10
5.434000
 20
1.400520
  0
SEQEND
  8
0
  0
SOLID
  8
0
 62
    15
 10
5.455560
 20
1.429120
 11
5.447640
 21
2.124760
 12
5.481520
 22
1.452000
 13
5.473160
 23
2.147200
  0
POLYLINE
  8
0
  6
CONTINUOUS
 66
     1
 40
0.000000
 41
0.000000
  0
VERTEX
  8
0
  6
CONTINUOUS
 10
5.455560
 20
1.429120
  0
VERTEX
  8
0
  6
CONTINUOUS
 10
5.447640
 20
2.124760
  0
VERTEX
  8
0
  6
CONTINUOUS
 10
5.473160
 20
2.147200
  0
VERTEX
  8
0
  6
CONTINUOUS
 10
5.481520
 20
1.452000
  0
VERTEX
  8
0
  6
CONTINUOUS
 10
5.455560
 20
1.429120
  0
SEQEND
  8
0
  0
SOLID
  8
0
 62
    15
 10
5.481520
 20
1.452000
 11
5.473160
 21
2.147200
 12
5.510120
 22
1.468720
 13
5.501760
 23
2.163920
  0
POLYLINE
  8
0
  6
CONTINUOUS
 66
     1
 40
0.000000
 41
0.000000
  0
VERTEX
  8
0
  6
CONTINUOUS
 10
5.481520
 20
1.452000
  0
VERTEX
  8
0
  6
CONTINUOUS
 10
5.473160
 20
2.147200
  0
VERTEX
  8
0
  6
CONTINUOUS
 10
5.501760
 20
2.163920
  0
VERTEX
  8
0
  6
CONTINUOUS
 10
5.510120
 20
1.468720
  0
VERTEX
  8
0
  6
CONTINUOUS
 10
5.481520
 20
1.452000
  0
SEQEND
  8
0
  0
SOLID
  8
0
 62
    15
 10
5.510120
 20
1.468720
 11
5.501760
 21
2.163920
 12
5.540480
 22
1.479280
 13
5.532560
 23
2.174480
  0
POLYLINE
  8
0
  6
CONTINUOUS
 66
     1
 40
0.000000
 41
0.000000
  0
VERTEX
  8
0
  6
CONTINUOUS
 10
5.510120
 20
1.468720
  0
VERTEX
  8
0
  6
CONTINUOUS
 10
5.501760
 20
2.163920
  0
VERTEX
  8
0
  6
CONTINUOUS
 10
5.532560
 20
2.174480
  0
VERTEX
  8
0
  6
CONTINUOUS
 10
5.540480
 20
1.479280
  0
VERTEX
  8
0
  6
CONTINUOUS
 10
5.510120
 20
1.468720
  0
SEQEND
  8
0
  0
SOLID
  8
0
 62
    15
 10
5.540480
 20
1.479280
 11
5.532560
 21
2.174480
 12
5.572160
 22
1.483680
 13
5.563800
 23
2.178880
  0
POLYLINE
  8
0
  6
CONTINUOUS
 66
     1
 40
0.000000
 41
0.000000
  0
VERTEX
  8
0
  6
CONTINUOUS
 10
5.540480
 20
1.479280
  0
VERTEX
  8
0
  6
CONTINUOUS
 10
5.532560
 20
2.174480
  0
VERTEX
  8
0
  6
CONTINUOUS
 10
5.563800
 20
2.178880
  0
VERTEX
  8
0
  6
CONTINUOUS
 10
5.572160
 20
1.483680
  0
VERTEX
  8
0
  6
CONTINUOUS
 10
5.540480
 20
1.479280
  0
SEQEND
  8
0
  0
SOLID
  8
0
 62
    15
 10
5.572160
 20
1.483680
 11
5.563800
 21
2.178880
 12
5.603400
 22
1.481480
 13
5.595480
 23
2.177120
  0
POLYLINE
  8
0
  6
CONTINUOUS
 66
     1
 40
0.000000
 41
0.000000
  0
VERTEX
  8
0
  6
CONTINUOUS
 10
5.572160
 20
1.483680
  0
VERTEX
  8
0
  6
CONTINUOUS
 10
5.563800
 20
2.178880
  0
VERTEX
  8
0
  6
CONTINUOUS
 10
5.595480
 20
2.177120
  0
VERTEX
  8
0
  6
CONTINUOUS
 10
5.603400
 20
1.481480
  0
VERTEX
  8
0
  6
CONTINUOUS
 10
5.572160
 20
1.483680
  0
SEQEND
  8
0
  0
SOLID
  8
0
 62
    15
 10
5.603400
 20
1.481480
 11
5.595480
 21
2.177120
 12
5.634200
 22
1.473120
 13
5.625840
 23
2.168760
  0
POLYLINE
  8
0
  6
CONTINUOUS
 66
     1
 40
0.000000
 41
0.000000
  0
VERTEX
  8
0
  6
CONTINUOUS
 10
5.603400
 20
1.481480
  0
VERTEX
  8
0
  6
CONTINUOUS
 10
5.595480
 20
2.177120
  0
VERTEX
  8
0
  6
CONTINUOUS
 10
5.625840
 20
2.168760
  0
VERTEX
  8
0
  6
CONTINUOUS
 10
5.634200
 20
1.473120
  0
VERTEX
  8
0
  6
CONTINUOUS
 10
5.603400
 20
1.481480
  0
SEQEND
  8
0
  0
SOLID
  8
0
 62
    15
 10
5.634200
 20
1.473120
 11
5.625840
 21
2.168760
 12
5.662360
 22
1.458600
 13
5.654440
 23
2.153800
  0
POLYLINE
  8
0
  6
CONTINUOUS
 66
     1
 40
0.000000
 41
0.000000
  0
VERTEX
  8
0
  6
CONTINUOUS
 10
5.634200
 20
1.473120
  0
VERTEX
  8
0
  6
CONTINUOUS
 10
5.625840
 20
2.168760
  0
VERTEX
  8
0
  6
CONTINUOUS
 10
5.654440
 20
2.153800
  0
VERTEX
  8
0
  6
CONTINUOUS
 10
5.662360
 20
1.458600
  0
VERTEX
  8
0
  6
CONTINUOUS
 10
5.634200
 20
1.473120
  0
SEQEND
  8
0
  0
SOLID
  8
0
 62
    15
 10
5.662360
 20
1.458600
 11
5.654440
 21
2.153800
 12
5.687880
 22
1.437040
 13
5.679520
 23
2.132240
  0
POLYLINE
  8
0
  6
CONTINUOUS
 66
     1
 40
0.000000
 41
0.000000
  0
VERTEX
  8
0
  6
CONTINUOUS
 10
5.662360
 20
1.458600
  0
VERTEX
  8
0
  6
CONTINUOUS
 10
5.654440
 20
2.153800
  0
VERTEX
  8
0
  6
CONTINUOUS
 10
5.679520
 20
2.132240
  0
VERTEX
  8
0
  6
CONTINUOUS
 10
5.687880
 20
1.437040
  0
VERTEX
  8
0
  6
CONTINUOUS
 10
5.662360
 20
1.458600
  0
SEQEND
  8
0
  0
SOLID
  8
0
 62
    15
 10
5.687880
 20
1.437040
 11
5.679520
 21
2.132240
 12
5.709000
 22
1.408440
 13
5.701080
 23
2.104080
  0
POLYLINE
  8
0
  6
CONTINUOUS
 66
     1
 40
0.000000
 41
0.000000
  0
VERTEX
  8
0
  6
CONTINUOUS
 10
5.687880
 20
1.437040
  0
VERTEX
  8
0
  6
CONTINUOUS
 10
5.679520
 20
2.132240
  0
VERTEX
  8
0
  6
CONTINUOUS
 10
5.701080
 20
2.104080
  0
VERTEX
  8
0
  6
CONTINUOUS
 10
5.709000
 20
1.408440
  0
VERTEX
  8
0
  6
CONTINUOUS
 10
5.687880
 20
1.437040
  0
SEQEND
  8
0
  0
SOLID
  8
0
 62
    15
 10
5.709000
 20
1.408440
 11
5.701080
 21
2.104080
 12
5.725280
 22
1.373680
 13
5.716920
 23
2.068880
  0
POLYLINE
  8
0
  6
CONTINUOUS
 66
     1
 40
0.000000
 41
0.000000
  0
VERTEX
  8
0
  6
CONTINUOUS
 10
5.709000
 20
1.408440
  0
VERTEX
  8
0
  6
CONTINUOUS
 10
5.701080
 20
2.104080
  0
VERTEX
  8
0
  6
CONTINUOUS
 10
5.716920
 20
2.068880
  0
VERTEX
  8
0
  6
CONTINUOUS
 10
5.725280
 20
1.373680
  0
VERTEX
  8
0
  6
CONTINUOUS
 10
5.709000
 20
1.408440
  0
SEQEND
  8
0
  0
SOLID
  8
0
 62
    15
 10
5.725280
 20
1.373680
 11
5.716920
 21
2.068880
 12
5.735400
 22
1.331440
 13
5.727480
 23
2.026640
  0
POLYLINE
  8
0
  6
CONTINUOUS
 66
     1
 40
0.000000
 41
0.000000
  0
VERTEX
  8
0
  6
CONTINUOUS
 10
5.725280
 20
1.373680
  0
VERTEX
  8
0
  6
CONTINUOUS
 10
5.716920
 20
2.068880
  0
VERTEX
  8
0
  6
CONTINUOUS
 10
5.727480
 20
2.026640
  0
VERTEX
  8
0
  6
CONTINUOUS
 10
5.735400
 20
1.331440
  0
VERTEX
  8
0
  6
CONTINUOUS
 10
5.725280
 20
1.373680
  0
SEQEND
  8
0
  0
SOLID
  8
0
 62
    15
 10
5.735400
 20
1.331440
 11
5.727480
 21
2.026640
 12
5.738480
 22
1.282160
 13
5.730560
 23
1.977800
  0
POLYLINE
  8
0
  6
CONTINUOUS
 66
     1
 40
0.000000
 41
0.000000
  0
VERTEX
  8
0
  6
CONTINUOUS
 10
5.735400
 20
1.331440
  0
VERTEX
  8
0
  6
CONTINUOUS
 10
5.727480
 20
2.026640
  0
VERTEX
  8
0
  6
CONTINUOUS
 10
5.730560
 20
1.977800
  0
VERTEX
  8
0
  6
CONTINUOUS
 10
5.738480
 20
1.282160
  0
VERTEX
  8
0
  6
CONTINUOUS
 10
5.735400
 20
1.331440
  0
SEQEND
  8
0
  0
POLYLINE
  8
0
  6
CONTINUOUS
 66
     1
 40
0.000000
 41
0.000000
  0
VERTEX
  8
0
  6
CONTINUOUS
 10
5.738480
 20
1.278200
  0
VERTEX
  8
0
  6
CONTINUOUS
 10
5.806680
 20
1.278200
  0
VERTEX
  8
0
  6
CONTINUOUS
 10
5.808000
 20
1.276880
  0
VERTEX
  8
0
  6
CONTINUOUS
 10
5.809320
 20
1.241240
  0
VERTEX
  8
0
  6
CONTINUOUS
 10
5.815040
 20
1.210000
  0
VERTEX
  8
0
  6
CONTINUOUS
 10
5.824720
 20
1.182720
  0
VERTEX
  8
0
  6
CONTINUOUS
 10
5.837040
 20
1.159400
  0
VERTEX
  8
0
  6
CONTINUOUS
 10
5.852000
 20
1.139160
  0
VERTEX
  8
0
  6
CONTINUOUS
 10
5.868720
 20
1.122440
  0
VERTEX
  8
0
  6
CONTINUOUS
 10
5.905680
 20
1.096920
  0
VERTEX
  8
0
  6
CONTINUOUS
 10
5.943520
 20
1.080640
  0
VERTEX
  8
0
  6
CONTINUOUS
 10
5.977400
 20
1.071840
  0
VERTEX
  8
0
  6
CONTINUOUS
 10
5.991040
 20
1.069640
  0
VERTEX
  8
0
  6
CONTINUOUS
 10
6.002480
 20
1.068320
  0
VERTEX
  8
0
  6
CONTINUOUS
 10
6.010400
 20
1.067880
  0
VERTEX
  8
0
  6
CONTINUOUS
 10
6.014360
 20
1.067440
  0
VERTEX
  8
0
  6
CONTINUOUS
 10
6.017440
 20
1.066120
  0
VERTEX
  8
0
  6
CONTINUOUS
 10
6.061440
 20
0.998360
  0
VERTEX
  8
0
  6
CONTINUOUS
 10
6.098400
 20
0.998360
  0
VERTEX
  8
0
  6
CONTINUOUS
 10
6.105000
 20
1.020800
  0
VERTEX
  8
0
  6
CONTINUOUS
 10
6.113360
 20
1.040160
  0
VERTEX
  8
0
  6
CONTINUOUS
 10
6.122600
 20
1.056000
  0
VERTEX
  8
0
  6
CONTINUOUS
 10
6.133160
 20
1.069640
  0
VERTEX
  8
0
  6
CONTINUOUS
 10
6.144600
 20
1.079760
  0
VERTEX
  8
0
  6
CONTINUOUS
 10
6.156040
 20
1.087240
  0
VERTEX
  8
0
  6
CONTINUOUS
 10
6.180680
 20
1.093840
  0
VERTEX
  8
0
  6
CONTINUOUS
 10
6.204000
 20
1.089880
  0
VERTEX
  8
0
  6
CONTINUOUS
 10
6.225120
 20
1.075800
  0
VERTEX
  8
0
  6
CONTINUOUS
 10
6.240960
 20
1.052040
  0
VERTEX
  8
0
  6
CONTINUOUS
 10
6.250640
 20
1.019480
  0
VERTEX
  8
0
  6
CONTINUOUS
 10
6.250640
 20
0.859760
  0
VERTEX
  8
0
  6
CONTINUOUS
 10
5.402760
 20
0.859760
  0
VERTEX
  8
0
  6
CONTINUOUS
 10
5.402760
 20
1.280840
  0
VERTEX
  8
0
  6
CONTINUOUS
 10
5.406280
 20
1.326600
  0
VERTEX
  8
0
  6
CONTINUOUS
 10
5.417280
 20
1.366200
  0
VERTEX
  8
0
  6
CONTINUOUS
 10
5.434000
 20
1.400520
  0
VERTEX
  8
0
  6
CONTINUOUS
 10
5.455560
 20
1.429120
  0
VERTEX
  8
0
  6
CONTINUOUS
 10
5.481520
 20
1.452000
  0
VERTEX
  8
0
  6
CONTINUOUS
 10
5.510120
 20
1.468720
  0
VERTEX
  8
0
  6
CONTINUOUS
 10
5.540480
 20
1.479280
  0
VERTEX
  8
0
  6
CONTINUOUS
 10
5.572160
 20
1.483680
  0
VERTEX
  8
0
  6
CONTINUOUS
 10
5.603400
 20
1.481480
  0
VERTEX
  8
0
  6
CONTINUOUS
 10
5.634200
 20
1.473120
  0
VERTEX
  8
0
  6
CONTINUOUS
 10
5.662360
 20
1.458600
  0
VERTEX
  8
0
  6
CONTINUOUS
 10
5.687880
 20
1.437040
  0
VERTEX
  8
0
  6
CONTINUOUS
 10
5.709000
 20
1.408440
  0
VERTEX
  8
0
  6
CONTINUOUS
 10
5.725280
 20
1.373680
  0
VERTEX
  8
0
  6
CONTINUOUS
 10
5.735400
 20
1.331440
  0
VERTEX
  8
0
  6
CONTINUOUS
 10
5.738480
 20
1.282160
  0
VERTEX
  8
0
  6
CONTINUOUS
 10
5.738480
 20
1.278200
  0
SEQEND
  8
0
  0
TEXT
  8
0
 10
7.590440
 20
2.101440
 40
0.138211
  1
panel 
 41
1.000000
  7
SN0
 71
     0
 72
     5
 11
8.041943
 21
2.101440
  0
TEXT
  8
0
 10
7.701320
 20
1.909600
 40
0.138211
  1
18
 41
1.000000
  7
SN0
 71
     0
 72
     5
 11
7.886087
 21
1.909600
  0
ENDSEC
  0
EOF
