  0
SECTION
  2
HEADER
  9
$ACADVER
  1
AC1006
  9
$EXTMIN
 10
3.440360
 20
0.312840
  9
$EXTMAX
 10
8.044960
 20
2.280080
  9
$LTSCALE
 40
0.044000
  9
$PDMODE
 70
    35
  9
$PDSIZE
 40
0.035200
  0
ENDSEC
  0
SECTION
  2
TABLES
  0
TABLE
  2
LTYPE
 70
     9
  0
LTYPE
  2
CONTINUOUS
 70
    64
  3
Solid line
 72
    65
 73
     0
 40
0.000000
  0
LTYPE
  2
DASHED
 70
    64
  3
__ __ __ __ __ __ __ __ __ __ __ __ __ __ __
 72
    65
 73
     2
 40
0.000330
 49
0.000220
 49
-0.000110
  0
LTYPE
  2
HIDDEN
 70
    64
  3
 _ _ _ _ _ _ _ _ _ _ _ _ _ _ _ _ _ _ _ _ _ _
 72
    65
 73
     2
 40
0.000165
 49
0.000110
 49
-0.000055
  0
LTYPE
  2
CENTER
 70
    64
  3
____ _ ____ _ ____ _ ____ _ ____ _ ____ _ ____
 72
    65
 73
     4
 40
0.000880
 49
0.000550
 49
-0.000110
 49
0.000110
 49
-0.000110
  0
LTYPE
  2
PHANTOM
 70
    64
  3
_____ _ _ _____ _ _ _____ _ _ _____ _ _ ____
 72
    65
 73
     6
 40
0.001100
 49
0.000550
 49
-0.000110
 49
0.000110
 49
-0.000110
 49
0.000110
 49
-0.000110
  0
LTYPE
  2
DOT
 70
    64
  3
...............................................
 72
    65
 73
     2
 40
0.000110
 49
0.000000
 49
-0.000110
  0
LTYPE
  2
DASHDOT
 70
    64
  3
__ . __ . __ . __ . __ . __ . __ . __ . __ . __
 72
    65
 73
     4
 40
0.000440
 49
0.000220
 49
-0.000110
 49
0.000000
 49
-0.000110
  0
LTYPE
  2
BORDER
 70
    64
  3
__ __ . __ __ . __ __ . __ __ . __ __ . __ __
 72
    65
 73
     6
 40
0.000770
 49
0.000220
 49
-0.000110
 49
0.000220
 49
-0.000110
 49
0.000000
 49
-0.000110
  0
LTYPE
  2
DIVIDE
 70
    64
  3
__ . . __ . . __ . . __ . . __ . . __ . . __
 72
    65
 73
     6
 40
0.000550
 49
0.000220
 49
-0.000110
 49
0.000000
 49
-0.000110
 49
0.000000
 49
-0.000110
  0
LTYPE
  2
DOTDOT
 70
    64
  3
 . .  . .  . .  . .  . .  . . 
 72
    65
 73
     5
 40
0.000242
 49
-0.000110
 49
0.000000
 49
-0.000110
 49
0.000000
 49
-0.000110
  0
ENDTAB
  0
TABLE
  2
STYLE
 70
     2
  0
STYLE
 70
     0
  2
SN0
 40
0.000000
 41
0.000440
 50
0.000000
 71
     0
 42
0.000000
  3
ROMAND
  0
STYLE
 70
    68
  2
SV0
 40
0.000000
 41
0.000440
 50
0.000000
 71
     0
 42
0.000000
  3
ROMAND
  0
ENDTAB
  0
TABLE
  2
LAYER
 70
     3
  0
LAYER
  2
FOREGROUND
 70
    64
 62
     7
  6
CONTINUOUS
  0
LAYER
  2
BACKGROUND
 70
    65
 62
    -7
  6
CONTINUOUS
  0
LAYER
  2
0
 70
    64
 62
     7
  6
CONTINUOUS
  0
ENDTAB
  0
ENDSEC
  0
SECTION
  2
ENTITIES
  0
POLYLINE
  8
FOREGROUND
  6
CONTINUOUS
 66
     1
 40
0.000000
 41
0.000000
  0
VERTEX
  8
FOREGROUND
  6
CONTINUOUS
 10
0.000000
 20
2.592920
  0
VERTEX
  8
FOREGROUND
  6
CONTINUOUS
 10
8.499920
 20
2.592920
  0
VERTEX
  8
FOREGROUND
  6
CONTINUOUS
 10
8.499920
 20
-8.407080
  0
VERTEX
  8
FOREGROUND
  6
CONTINUOUS
 10
0.000000
 20
-8.407080
  0
VERTEX
  8
FOREGROUND
  6
CONTINUOUS
 10
0.000000
 20
2.592920
  0
SEQEND
  8
0
  0
POLYLINE
  8
FOREGROUND
  6
CONTINUOUS
 66
     1
 40
0.000000
 41
0.000000
  0
VERTEX
  8
FOREGROUND
  6
CONTINUOUS
 10
0.000000
 20
2.592920
  0
VERTEX
  8
FOREGROUND
  6
CONTINUOUS
 10
8.499920
 20
2.592920
  0
VERTEX
  8
FOREGROUND
  6
CONTINUOUS
 10
8.499920
 20
-8.407080
  0
VERTEX
  8
FOREGROUND
  6
CONTINUOUS
 10
0.000000
 20
-8.407080
  0
VERTEX
  8
FOREGROUND
  6
CONTINUOUS
 10
0.000000
 20
2.592920
  0
SEQEND
  8
0
  0
POLYLINE
  8
0
  6
CONTINUOUS
 66
     1
 40
0.013200
 41
0.013200
  0
VERTEX
  8
0
  6
CONTINUOUS
 10
5.841000
 20
0.312840
  0
VERTEX
  8
0
  6
CONTINUOUS
 10
3.509000
 20
0.312840
  0
VERTEX
  8
0
  6
CONTINUOUS
 10
3.509000
 20
0.727760
  0
VERTEX
  8
0
  6
CONTINUOUS
 10
5.552800
 20
0.727760
  0
VERTEX
  8
0
  6
CONTINUOUS
 10
5.595480
 20
0.447480
  0
VERTEX
  8
0
  6
CONTINUOUS
 10
5.671600
 20
0.447480
  0
VERTEX
  8
0
  6
CONTINUOUS
 10
5.672480
 20
0.511720
  0
VERTEX
  8
0
  6
CONTINUOUS
 10
5.675120
 20
0.529320
  0
VERTEX
  8
0
  6
CONTINUOUS
 10
5.685240
 20
0.561440
  0
VERTEX
  8
0
  6
CONTINUOUS
 10
5.692280
 20
0.576400
  0
VERTEX
  8
0
  6
CONTINUOUS
 10
5.711200
 20
0.603680
  0
VERTEX
  8
0
  6
CONTINUOUS
 10
5.734520
 20
0.626560
  0
VERTEX
  8
0
  6
CONTINUOUS
 10
5.762240
 20
0.644600
  0
VERTEX
  8
0
  6
CONTINUOUS
 10
5.777200
 20
0.651640
  0
VERTEX
  8
0
  6
CONTINUOUS
 10
5.793480
 20
0.657360
  0
VERTEX
  8
0
  6
CONTINUOUS
 10
5.809760
 20
0.661320
  0
VERTEX
  8
0
  6
CONTINUOUS
 10
5.827360
 20
0.663960
  0
VERTEX
  8
0
  6
CONTINUOUS
 10
5.844960
 20
0.664840
  0
VERTEX
  8
0
  6
CONTINUOUS
 10
5.862560
 20
0.663960
  0
VERTEX
  8
0
  6
CONTINUOUS
 10
5.880160
 20
0.661320
  0
VERTEX
  8
0
  6
CONTINUOUS
 10
5.896880
 20
0.656920
  0
VERTEX
  8
0
  6
CONTINUOUS
 10
5.928120
 20
0.643280
  0
VERTEX
  8
0
  6
CONTINUOUS
 10
5.956280
 20
0.624360
  0
VERTEX
  8
0
  6
CONTINUOUS
 10
5.969040
 20
0.612920
  0
VERTEX
  8
0
  6
CONTINUOUS
 10
5.990600
 20
0.586520
  0
VERTEX
  8
0
  6
CONTINUOUS
 10
6.006880
 20
0.556600
  0
VERTEX
  8
0
  6
CONTINUOUS
 10
6.013040
 20
0.540760
  0
VERTEX
  8
0
  6
CONTINUOUS
 10
6.017440
 20
0.524040
  0
VERTEX
  8
0
  6
CONTINUOUS
 10
6.020080
 20
0.506440
  0
VERTEX
  8
0
  6
CONTINUOUS
 10
6.020960
 20
0.488840
  0
VERTEX
  8
0
  6
CONTINUOUS
 10
6.020080
 20
0.471240
  0
VERTEX
  8
0
  6
CONTINUOUS
 10
6.017440
 20
0.453640
  0
VERTEX
  8
0
  6
CONTINUOUS
 10
6.013040
 20
0.436920
  0
VERTEX
  8
0
  6
CONTINUOUS
 10
5.999400
 20
0.405680
  0
VERTEX
  8
0
  6
CONTINUOUS
 10
5.980480
 20
0.377520
  0
VERTEX
  8
0
  6
CONTINUOUS
 10
5.969040
 20
0.364760
  0
VERTEX
  8
0
  6
CONTINUOUS
 10
5.942640
 20
0.343200
  0
VERTEX
  8
0
  6
CONTINUOUS
 10
5.912720
 20
0.326920
  0
VERTEX
  8
0
  6
CONTINUOUS
 10
5.896880
 20
0.320760
  0
VERTEX
  8
0
  6
CONTINUOUS
 10
5.880160
 20
0.316360
  0
VERTEX
  8
0
  6
CONTINUOUS
 10
5.862560
 20
0.313720
  0
VERTEX
  8
0
  6
CONTINUOUS
 10
5.841000
 20
0.312840
  0
SEQEND
  8
0
  0
SOLID
  8
0
 62
    15
 10
5.527720
 20
1.546600
 11
6.162200
 21
1.914000
 12
5.603840
 22
1.546600
 13
6.238320
 23
1.914000
  0
POLYLINE
  8
0
  6
CONTINUOUS
 66
     1
 40
0.000000
 41
0.000000
  0
VERTEX
  8
0
  6
CONTINUOUS
 10
5.527720
 20
1.546600
  0
VERTEX
  8
0
  6
CONTINUOUS
 10
6.162200
 20
1.914000
  0
VERTEX
  8
0
  6
CONTINUOUS
 10
6.238320
 20
1.914000
  0
VERTEX
  8
0
  6
CONTINUOUS
 10
5.603840
 20
1.546600
  0
VERTEX
  8
0
  6
CONTINUOUS
 10
5.527720
 20
1.546600
  0
SEQEND
  8
0
  0
SOLID
  8
0
 62
    15
 10
5.485040
 20
1.826440
 11
6.119520
 21
2.193840
 12
5.527720
 22
1.546600
 13
6.162200
 23
1.914000
  0
POLYLINE
  8
0
  6
CONTINUOUS
 66
     1
 40
0.000000
 41
0.000000
  0
VERTEX
  8
0
  6
CONTINUOUS
 10
5.485040
 20
1.826440
  0
VERTEX
  8
0
  6
CONTINUOUS
 10
6.119520
 20
2.193840
  0
VERTEX
  8
0
  6
CONTINUOUS
 10
6.162200
 20
1.914000
  0
VERTEX
  8
0
  6
CONTINUOUS
 10
5.527720
 20
1.546600
  0
VERTEX
  8
0
  6
CONTINUOUS
 10
5.485040
 20
1.826440
  0
SEQEND
  8
0
  0
SOLID
  8
0
 62
    15
 10
5.874880
 20
1.733600
 11
6.509360
 21
2.101000
 12
5.900840
 22
1.712040
 13
6.535760
 23
2.079440
  0
POLYLINE
  8
0
  6
CONTINUOUS
 66
     1
 40
0.000000
 41
0.000000
  0
VERTEX
  8
0
  6
CONTINUOUS
 10
5.874880
 20
1.733600
  0
VERTEX
  8
0
  6
CONTINUOUS
 10
6.509360
 20
2.101000
  0
VERTEX
  8
0
  6
CONTINUOUS
 10
6.535760
 20
2.079440
  0
VERTEX
  8
0
  6
CONTINUOUS
 10
5.900840
 20
1.712040
  0
VERTEX
  8
0
  6
CONTINUOUS
 10
5.874880
 20
1.733600
  0
SEQEND
  8
0
  0
SOLID
  8
0
 62
    15
 10
5.679960
 20
1.735360
 11
6.314440
 21
2.102760
 12
5.709440
 22
1.750760
 13
6.343920
 23
2.118160
  0
POLYLINE
  8
0
  6
CONTINUOUS
 66
     1
 40
0.000000
 41
0.000000
  0
VERTEX
  8
0
  6
CONTINUOUS
 10
5.679960
 20
1.735360
  0
VERTEX
  8
0
  6
CONTINUOUS
 10
6.314440
 20
2.102760
  0
VERTEX
  8
0
  6
CONTINUOUS
 10
6.343920
 20
2.118160
  0
VERTEX
  8
0
  6
CONTINUOUS
 10
5.709440
 20
1.750760
  0
VERTEX
  8
0
  6
CONTINUOUS
 10
5.679960
 20
1.735360
  0
SEQEND
  8
0
  0
SOLID
  8
0
 62
    15
 10
5.709440
 20
1.750760
 11
6.343920
 21
2.118160
 12
5.742000
 22
1.760440
 13
6.376480
 23
2.127840
  0
POLYLINE
  8
0
  6
CONTINUOUS
 66
     1
 40
0.000000
 41
0.000000
  0
VERTEX
  8
0
  6
CONTINUOUS
 10
5.709440
 20
1.750760
  0
VERTEX
  8
0
  6
CONTINUOUS
 10
6.343920
 20
2.118160
  0
VERTEX
  8
0
  6
CONTINUOUS
 10
6.376480
 20
2.127840
  0
VERTEX
  8
0
  6
CONTINUOUS
 10
5.742000
 20
1.760440
  0
VERTEX
  8
0
  6
CONTINUOUS
 10
5.709440
 20
1.750760
  0
SEQEND
  8
0
  0
SOLID
  8
0
 62
    15
 10
5.742000
 20
1.760440
 11
6.376480
 21
2.127840
 12
5.777200
 22
1.763960
 13
6.411680
 23
2.131360
  0
POLYLINE
  8
0
  6
CONTINUOUS
 66
     1
 40
0.000000
 41
0.000000
  0
VERTEX
  8
0
  6
CONTINUOUS
 10
5.742000
 20
1.760440
  0
VERTEX
  8
0
  6
CONTINUOUS
 10
6.376480
 20
2.127840
  0
VERTEX
  8
0
  6
CONTINUOUS
 10
6.411680
 20
2.131360
  0
VERTEX
  8
0
  6
CONTINUOUS
 10
5.777200
 20
1.763960
  0
VERTEX
  8
0
  6
CONTINUOUS
 10
5.742000
 20
1.760440
  0
SEQEND
  8
0
  0
SOLID
  8
0
 62
    15
 10
5.777200
 20
1.763960
 11
6.411680
 21
2.131360
 12
5.811960
 22
1.760440
 13
6.446880
 23
2.127840
  0
POLYLINE
  8
0
  6
CONTINUOUS
 66
     1
 40
0.000000
 41
0.000000
  0
VERTEX
  8
0
  6
CONTINUOUS
 10
5.777200
 20
1.763960
  0
VERTEX
  8
0
  6
CONTINUOUS
 10
6.411680
 20
2.131360
  0
VERTEX
  8
0
  6
CONTINUOUS
 10
6.446880
 20
2.127840
  0
VERTEX
  8
0
  6
CONTINUOUS
 10
5.811960
 20
1.760440
  0
VERTEX
  8
0
  6
CONTINUOUS
 10
5.777200
 20
1.763960
  0
SEQEND
  8
0
  0
SOLID
  8
0
 62
    15
 10
5.811960
 20
1.760440
 11
6.446880
 21
2.127840
 12
5.844960
 22
1.749880
 13
6.479440
 23
2.117280
  0
POLYLINE
  8
0
  6
CONTINUOUS
 66
     1
 40
0.000000
 41
0.000000
  0
VERTEX
  8
0
  6
CONTINUOUS
 10
5.811960
 20
1.760440
  0
VERTEX
  8
0
  6
CONTINUOUS
 10
6.446880
 20
2.127840
  0
VERTEX
  8
0
  6
CONTINUOUS
 10
6.479440
 20
2.117280
  0
VERTEX
  8
0
  6
CONTINUOUS
 10
5.844960
 20
1.749880
  0
VERTEX
  8
0
  6
CONTINUOUS
 10
5.811960
 20
1.760440
  0
SEQEND
  8
0
  0
SOLID
  8
0
 62
    15
 10
5.844960
 20
1.749880
 11
6.479440
 21
2.117280
 12
5.874880
 22
1.733600
 13
6.509360
 23
2.101000
  0
POLYLINE
  8
0
  6
CONTINUOUS
 66
     1
 40
0.000000
 41
0.000000
  0
VERTEX
  8
0
  6
CONTINUOUS
 10
5.844960
 20
1.749880
  0
VERTEX
  8
0
  6
CONTINUOUS
 10
6.479440
 20
2.117280
  0
VERTEX
  8
0
  6
CONTINUOUS
 10
6.509360
 20
2.101000
  0
VERTEX
  8
0
  6
CONTINUOUS
 10
5.874880
 20
1.733600
  0
VERTEX
  8
0
  6
CONTINUOUS
 10
5.844960
 20
1.749880
  0
SEQEND
  8
0
  0
SOLID
  8
0
 62
    15
 10
3.441240
 20
1.826440
 11
4.075720
 21
2.193840
 12
5.485040
 22
1.826440
 13
6.119520
 23
2.193840
  0
POLYLINE
  8
0
  6
CONTINUOUS
 66
     1
 40
0.000000
 41
0.000000
  0
VERTEX
  8
0
  6
CONTINUOUS
 10
3.441240
 20
1.826440
  0
VERTEX
  8
0
  6
CONTINUOUS
 10
4.075720
 20
2.193840
  0
VERTEX
  8
0
  6
CONTINUOUS
 10
6.119520
 20
2.193840
  0
VERTEX
  8
0
  6
CONTINUOUS
 10
5.485040
 20
1.826440
  0
VERTEX
  8
0
  6
CONTINUOUS
 10
3.441240
 20
1.826440
  0
SEQEND
  8
0
  0
SOLID
  8
0
 62
    15
 10
5.900840
 20
1.712040
 11
6.535760
 21
2.079440
 12
5.922840
 22
1.685640
 13
6.557320
 23
2.053040
  0
POLYLINE
  8
0
  6
CONTINUOUS
 66
     1
 40
0.000000
 41
0.000000
  0
VERTEX
  8
0
  6
CONTINUOUS
 10
5.900840
 20
1.712040
  0
VERTEX
  8
0
  6
CONTINUOUS
 10
6.535760
 20
2.079440
  0
VERTEX
  8
0
  6
CONTINUOUS
 10
6.557320
 20
2.053040
  0
VERTEX
  8
0
  6
CONTINUOUS
 10
5.922840
 20
1.685640
  0
VERTEX
  8
0
  6
CONTINUOUS
 10
5.900840
 20
1.712040
  0
SEQEND
  8
0
  0
SOLID
  8
0
 62
    15
 10
5.922840
 20
1.685640
 11
6.557320
 21
2.053040
 12
5.939120
 22
1.656160
 13
6.573600
 23
2.023120
  0
POLYLINE
  8
0
  6
CONTINUOUS
 66
     1
 40
0.000000
 41
0.000000
  0
VERTEX
  8
0
  6
CONTINUOUS
 10
5.922840
 20
1.685640
  0
VERTEX
  8
0
  6
CONTINUOUS
 10
6.557320
 20
2.053040
  0
VERTEX
  8
0
  6
CONTINUOUS
 10
6.573600
 20
2.023120
  0
VERTEX
  8
0
  6
CONTINUOUS
 10
5.939120
 20
1.656160
  0
VERTEX
  8
0
  6
CONTINUOUS
 10
5.922840
 20
1.685640
  0
SEQEND
  8
0
  0
SOLID
  8
0
 62
    15
 10
5.939120
 20
1.656160
 11
6.573600
 21
2.023120
 12
5.949240
 22
1.623160
 13
6.584160
 23
1.990560
  0
POLYLINE
  8
0
  6
CONTINUOUS
 66
     1
 40
0.000000
 41
0.000000
  0
VERTEX
  8
0
  6
CONTINUOUS
 10
5.939120
 20
1.656160
  0
VERTEX
  8
0
  6
CONTINUOUS
 10
6.573600
 20
2.023120
  0
VERTEX
  8
0
  6
CONTINUOUS
 10
6.584160
 20
1.990560
  0
VERTEX
  8
0
  6
CONTINUOUS
 10
5.949240
 20
1.623160
  0
VERTEX
  8
0
  6
CONTINUOUS
 10
5.939120
 20
1.656160
  0
SEQEND
  8
0
  0
SOLID
  8
0
 62
    15
 10
5.949240
 20
1.623160
 11
6.584160
 21
1.990560
 12
5.953200
 22
1.587960
 13
6.587680
 23
1.955360
  0
POLYLINE
  8
0
  6
CONTINUOUS
 66
     1
 40
0.000000
 41
0.000000
  0
VERTEX
  8
0
  6
CONTINUOUS
 10
5.949240
 20
1.623160
  0
VERTEX
  8
0
  6
CONTINUOUS
 10
6.584160
 20
1.990560
  0
VERTEX
  8
0
  6
CONTINUOUS
 10
6.587680
 20
1.955360
  0
VERTEX
  8
0
  6
CONTINUOUS
 10
5.953200
 20
1.587960
  0
VERTEX
  8
0
  6
CONTINUOUS
 10
5.949240
 20
1.623160
  0
SEQEND
  8
0
  0
SOLID
  8
0
 62
    15
 10
5.953200
 20
1.587960
 11
6.587680
 21
1.955360
 12
5.949240
 22
1.552760
 13
6.584160
 23
1.920160
  0
POLYLINE
  8
0
  6
CONTINUOUS
 66
     1
 40
0.000000
 41
0.000000
  0
VERTEX
  8
0
  6
CONTINUOUS
 10
5.953200
 20
1.587960
  0
VERTEX
  8
0
  6
CONTINUOUS
 10
6.587680
 20
1.955360
  0
VERTEX
  8
0
  6
CONTINUOUS
 10
6.584160
 20
1.920160
  0
VERTEX
  8
0
  6
CONTINUOUS
 10
5.949240
 20
1.552760
  0
VERTEX
  8
0
  6
CONTINUOUS
 10
5.953200
 20
1.587960
  0
SEQEND
  8
0
  0
SOLID
  8
0
 62
    15
 10
5.949240
 20
1.552760
 11
6.584160
 21
1.920160
 12
5.939120
 22
1.519760
 13
6.573600
 23
1.887160
  0
POLYLINE
  8
0
  6
CONTINUOUS
 66
     1
 40
0.000000
 41
0.000000
  0
VERTEX
  8
0
  6
CONTINUOUS
 10
5.949240
 20
1.552760
  0
VERTEX
  8
0
  6
CONTINUOUS
 10
6.584160
 20
1.920160
  0
VERTEX
  8
0
  6
CONTINUOUS
 10
6.573600
 20
1.887160
  0
VERTEX
  8
0
  6
CONTINUOUS
 10
5.939120
 20
1.519760
  0
VERTEX
  8
0
  6
CONTINUOUS
 10
5.949240
 20
1.552760
  0
SEQEND
  8
0
  0
SOLID
  8
0
 62
    15
 10
5.939120
 20
1.519760
 11
6.573600
 21
1.887160
 12
5.922840
 22
1.490280
 13
6.557320
 23
1.857240
  0
POLYLINE
  8
0
  6
CONTINUOUS
 66
     1
 40
0.000000
 41
0.000000
  0
VERTEX
  8
0
  6
CONTINUOUS
 10
5.939120
 20
1.519760
  0
VERTEX
  8
0
  6
CONTINUOUS
 10
6.573600
 20
1.887160
  0
VERTEX
  8
0
  6
CONTINUOUS
 10
6.557320
 20
1.857240
  0
VERTEX
  8
0
  6
CONTINUOUS
 10
5.922840
 20
1.490280
  0
VERTEX
  8
0
  6
CONTINUOUS
 10
5.939120
 20
1.519760
  0
SEQEND
  8
0
  0
SOLID
  8
0
 62
    15
 10
5.922840
 20
1.490280
 11
6.557320
 21
1.857240
 12
5.900840
 22
1.463880
 13
6.535760
 23
1.831280
  0
POLYLINE
  8
0
  6
CONTINUOUS
 66
     1
 40
0.000000
 41
0.000000
  0
VERTEX
  8
0
  6
CONTINUOUS
 10
5.922840
 20
1.490280
  0
VERTEX
  8
0
  6
CONTINUOUS
 10
6.557320
 20
1.857240
  0
VERTEX
  8
0
  6
CONTINUOUS
 10
6.535760
 20
1.831280
  0
VERTEX
  8
0
  6
CONTINUOUS
 10
5.900840
 20
1.463880
  0
VERTEX
  8
0
  6
CONTINUOUS
 10
5.922840
 20
1.490280
  0
SEQEND
  8
0
  0
SOLID
  8
0
 62
    15
 10
5.900840
 20
1.463880
 11
6.535760
 21
1.831280
 12
5.874880
 22
1.442320
 13
6.509360
 23
1.809720
  0
POLYLINE
  8
0
  6
CONTINUOUS
 66
     1
 40
0.000000
 41
0.000000
  0
VERTEX
  8
0
  6
CONTINUOUS
 10
5.900840
 20
1.463880
  0
VERTEX
  8
0
  6
CONTINUOUS
 10
6.535760
 20
1.831280
  0
VERTEX
  8
0
  6
CONTINUOUS
 10
6.509360
 20
1.809720
  0
VERTEX
  8
0
  6
CONTINUOUS
 10
5.874880
 20
1.442320
  0
VERTEX
  8
0
  6
CONTINUOUS
 10
5.900840
 20
1.463880
  0
SEQEND
  8
0
  0
POLYLINE
  8
0
  6
CONTINUOUS
 66
     1
 40
0.000000
 41
0.000000
  0
VERTEX
  8
0
  6
CONTINUOUS
 10
5.773240
 20
1.411960
  0
VERTEX
  8
0
  6
CONTINUOUS
 10
3.441240
 20
1.411960
  0
VERTEX
  8
0
  6
CONTINUOUS
 10
3.441240
 20
1.826440
  0
VERTEX
  8
0
  6
CONTINUOUS
 10
5.485040
 20
1.826440
  0
VERTEX
  8
0
  6
CONTINUOUS
 10
5.527720
 20
1.546600
  0
VERTEX
  8
0
  6
CONTINUOUS
 10
5.603840
 20
1.546600
  0
VERTEX
  8
0
  6
CONTINUOUS
 10
5.603840
 20
1.593240
  0
VERTEX
  8
0
  6
CONTINUOUS
 10
5.607360
 20
1.628000
  0
VERTEX
  8
0
  6
CONTINUOUS
 10
5.617480
 20
1.660560
  0
VERTEX
  8
0
  6
CONTINUOUS
 10
5.633320
 20
1.689600
  0
VERTEX
  8
0
  6
CONTINUOUS
 10
5.654440
 20
1.714680
  0
VERTEX
  8
0
  6
CONTINUOUS
 10
5.679960
 20
1.735360
  0
VERTEX
  8
0
  6
CONTINUOUS
 10
5.709440
 20
1.750760
  0
VERTEX
  8
0
  6
CONTINUOUS
 10
5.742000
 20
1.760440
  0
VERTEX
  8
0
  6
CONTINUOUS
 10
5.777200
 20
1.763960
  0
VERTEX
  8
0
  6
CONTINUOUS
 10
5.811960
 20
1.760440
  0
VERTEX
  8
0
  6
CONTINUOUS
 10
5.844960
 20
1.749880
  0
VERTEX
  8
0
  6
CONTINUOUS
 10
5.874880
 20
1.733600
  0
VERTEX
  8
0
  6
CONTINUOUS
 10
5.900840
 20
1.712040
  0
VERTEX
  8
0
  6
CONTINUOUS
 10
5.922840
 20
1.685640
  0
VERTEX
  8
0
  6
CONTINUOUS
 10
5.939120
 20
1.656160
  0
VERTEX
  8
0
  6
CONTINUOUS
 10
5.949240
 20
1.623160
  0
VERTEX
  8
0
  6
CONTINUOUS
 10
5.953200
 20
1.587960
  0
VERTEX
  8
0
  6
CONTINUOUS
 10
5.949240
 20
1.552760
  0
VERTEX
  8
0
  6
CONTINUOUS
 10
5.939120
 20
1.519760
  0
VERTEX
  8
0
  6
CONTINUOUS
 10
5.922840
 20
1.490280
  0
VERTEX
  8
0
  6
CONTINUOUS
 10
5.900840
 20
1.463880
  0
VERTEX
  8
0
  6
CONTINUOUS
 10
5.874880
 20
1.442320
  0
VERTEX
  8
0
  6
CONTINUOUS
 10
5.844960
 20
1.426040
  0
VERTEX
  8
0
  6
CONTINUOUS
 10
5.811960
 20
1.415480
  0
VERTEX
  8
0
  6
CONTINUOUS
 10
5.777200
 20
1.411960
  0
VERTEX
  8
0
  6
CONTINUOUS
 10
5.773240
 20
1.411960
  0
SEQEND
  8
0
  0
TEXT
  8
0
 10
4.765640
 20
1.151480
 40
0.138239
  1
BA  17
 41
1.000000
  7
SN0
 71
     0
 72
     5
 11
5.264088
 21
1.151480
  0
TEXT
  8
0
 10
4.517480
 20
0.960080
 40
0.138239
  1
7/16" x 2-1/2" 
 41
1.000000
  7
SN0
 71
     0
 72
     5
 11
5.558120
 21
0.960080
  0
TEXT
  8
0
 10
7.305320
 20
2.128280
 40
0.138239
  1
half round
 41
1.000000
  7
SN0
 71
     0
 72
     5
 11
8.043668
 21
2.128280
  0
TEXT
  8
0
 10
7.582520
 20
1.936440
 40
0.138239
  1
17
 41
1.000000
  7
SN0
 71
     0
 72
     5
 11
7.767395
 21
1.936440
  0
ENDSEC
  0
EOF
