  0
SECTION
  2
HEADER
  9
$ACADVER
  1
AC1006
  9
$EXTMIN
 10
3.864520
 20
0.252560
  9
$EXTMAX
 10
8.090720
 20
2.518120
  9
$LTSCALE
 40
0.044000
  9
$PDMODE
 70
    35
  9
$PDSIZE
 40
0.035200
  0
ENDSEC
  0
SECTION
  2
TABLES
  0
TABLE
  2
LTYPE
 70
     9
  0
LTYPE
  2
CONTINUOUS
 70
    64
  3
Solid line
 72
    65
 73
     0
 40
0.000000
  0
LTYPE
  2
DASHED
 70
    64
  3
__ __ __ __ __ __ __ __ __ __ __ __ __ __ __
 72
    65
 73
     2
 40
0.000330
 49
0.000220
 49
-0.000110
  0
LTYPE
  2
HIDDEN
 70
    64
  3
 _ _ _ _ _ _ _ _ _ _ _ _ _ _ _ _ _ _ _ _ _ _
 72
    65
 73
     2
 40
0.000165
 49
0.000110
 49
-0.000055
  0
LTYPE
  2
CENTER
 70
    64
  3
____ _ ____ _ ____ _ ____ _ ____ _ ____ _ ____
 72
    65
 73
     4
 40
0.000880
 49
0.000550
 49
-0.000110
 49
0.000110
 49
-0.000110
  0
LTYPE
  2
PHANTOM
 70
    64
  3
_____ _ _ _____ _ _ _____ _ _ _____ _ _ ____
 72
    65
 73
     6
 40
0.001100
 49
0.000550
 49
-0.000110
 49
0.000110
 49
-0.000110
 49
0.000110
 49
-0.000110
  0
LTYPE
  2
DOT
 70
    64
  3
...............................................
 72
    65
 73
     2
 40
0.000110
 49
0.000000
 49
-0.000110
  0
LTYPE
  2
DASHDOT
 70
    64
  3
__ . __ . __ . __ . __ . __ . __ . __ . __ . __
 72
    65
 73
     4
 40
0.000440
 49
0.000220
 49
-0.000110
 49
0.000000
 49
-0.000110
  0
LTYPE
  2
BORDER
 70
    64
  3
__ __ . __ __ . __ __ . __ __ . __ __ . __ __
 72
    65
 73
     6
 40
0.000770
 49
0.000220
 49
-0.000110
 49
0.000220
 49
-0.000110
 49
0.000000
 49
-0.000110
  0
LTYPE
  2
DIVIDE
 70
    64
  3
__ . . __ . . __ . . __ . . __ . . __ . . __
 72
    65
 73
     6
 40
0.000550
 49
0.000220
 49
-0.000110
 49
0.000000
 49
-0.000110
 49
0.000000
 49
-0.000110
  0
LTYPE
  2
DOTDOT
 70
    64
  3
 . .  . .  . .  . .  . .  . . 
 72
    65
 73
     5
 40
0.000242
 49
-0.000110
 49
0.000000
 49
-0.000110
 49
0.000000
 49
-0.000110
  0
ENDTAB
  0
TABLE
  2
STYLE
 70
     2
  0
STYLE
 70
     0
  2
SN0
 40
0.000000
 41
0.000440
 50
0.000000
 71
     0
 42
0.000000
  3
ROMAND
  0
STYLE
 70
    68
  2
SV0
 40
0.000000
 41
0.000440
 50
0.000000
 71
     0
 42
0.000000
  3
ROMAND
  0
ENDTAB
  0
TABLE
  2
LAYER
 70
     3
  0
LAYER
  2
FOREGROUND
 70
    64
 62
     7
  6
CONTINUOUS
  0
LAYER
  2
BACKGROUND
 70
    65
 62
    -7
  6
CONTINUOUS
  0
LAYER
  2
0
 70
    64
 62
     7
  6
CONTINUOUS
  0
ENDTAB
  0
ENDSEC
  0
SECTION
  2
ENTITIES
  0
POLYLINE
  8
FOREGROUND
  6
CONTINUOUS
 66
     1
 40
0.000000
 41
0.000000
  0
VERTEX
  8
FOREGROUND
  6
CONTINUOUS
 10
0.000000
 20
2.770680
  0
VERTEX
  8
FOREGROUND
  6
CONTINUOUS
 10
8.499920
 20
2.770680
  0
VERTEX
  8
FOREGROUND
  6
CONTINUOUS
 10
8.499920
 20
-8.229320
  0
VERTEX
  8
FOREGROUND
  6
CONTINUOUS
 10
0.000000
 20
-8.229320
  0
VERTEX
  8
FOREGROUND
  6
CONTINUOUS
 10
0.000000
 20
2.770680
  0
SEQEND
  8
0
  0
POLYLINE
  8
FOREGROUND
  6
CONTINUOUS
 66
     1
 40
0.000000
 41
0.000000
  0
VERTEX
  8
FOREGROUND
  6
CONTINUOUS
 10
0.000000
 20
2.770680
  0
VERTEX
  8
FOREGROUND
  6
CONTINUOUS
 10
8.499920
 20
2.770680
  0
VERTEX
  8
FOREGROUND
  6
CONTINUOUS
 10
8.499920
 20
-8.229320
  0
VERTEX
  8
FOREGROUND
  6
CONTINUOUS
 10
0.000000
 20
-8.229320
  0
VERTEX
  8
FOREGROUND
  6
CONTINUOUS
 10
0.000000
 20
2.770680
  0
SEQEND
  8
0
  0
POLYLINE
  8
0
  6
CONTINUOUS
 66
     1
 40
0.013200
 41
0.013200
  0
VERTEX
  8
0
  6
CONTINUOUS
 10
4.222240
 20
1.802680
  0
VERTEX
  8
0
  6
CONTINUOUS
 10
5.990160
 20
1.802680
  0
VERTEX
  8
0
  6
CONTINUOUS
 10
5.990160
 20
2.189440
  0
VERTEX
  8
0
  6
CONTINUOUS
 10
4.421120
 20
2.189440
  0
VERTEX
  8
0
  6
CONTINUOUS
 10
4.421120
 20
1.943920
  0
VERTEX
  8
0
  6
CONTINUOUS
 10
4.366120
 20
1.943920
  0
VERTEX
  8
0
  6
CONTINUOUS
 10
4.365240
 20
1.962840
  0
VERTEX
  8
0
  6
CONTINUOUS
 10
4.359520
 20
1.991440
  0
VERTEX
  8
0
  6
CONTINUOUS
 10
4.348080
 20
2.018280
  0
VERTEX
  8
0
  6
CONTINUOUS
 10
4.331800
 20
2.042040
  0
VERTEX
  8
0
  6
CONTINUOUS
 10
4.311560
 20
2.062280
  0
VERTEX
  8
0
  6
CONTINUOUS
 10
4.288240
 20
2.079000
  0
VERTEX
  8
0
  6
CONTINUOUS
 10
4.261840
 20
2.090440
  0
VERTEX
  8
0
  6
CONTINUOUS
 10
4.247760
 20
2.094400
  0
VERTEX
  8
0
  6
CONTINUOUS
 10
4.218280
 20
2.097480
  0
VERTEX
  8
0
  6
CONTINUOUS
 10
4.188800
 20
2.094400
  0
VERTEX
  8
0
  6
CONTINUOUS
 10
4.161520
 20
2.085600
  0
VERTEX
  8
0
  6
CONTINUOUS
 10
4.136440
 20
2.071520
  0
VERTEX
  8
0
  6
CONTINUOUS
 10
4.114440
 20
2.053480
  0
VERTEX
  8
0
  6
CONTINUOUS
 10
4.095960
 20
2.031480
  0
VERTEX
  8
0
  6
CONTINUOUS
 10
4.082320
 20
2.005960
  0
VERTEX
  8
0
  6
CONTINUOUS
 10
4.077040
 20
1.992760
  0
VERTEX
  8
0
  6
CONTINUOUS
 10
4.071320
 20
1.964160
  0
VERTEX
  8
0
  6
CONTINUOUS
 10
4.070440
 20
1.949200
  0
VERTEX
  8
0
  6
CONTINUOUS
 10
4.073520
 20
1.919720
  0
VERTEX
  8
0
  6
CONTINUOUS
 10
4.077040
 20
1.905640
  0
VERTEX
  8
0
  6
CONTINUOUS
 10
4.088480
 20
1.879240
  0
VERTEX
  8
0
  6
CONTINUOUS
 10
4.104760
 20
1.855920
  0
VERTEX
  8
0
  6
CONTINUOUS
 10
4.125000
 20
1.835680
  0
VERTEX
  8
0
  6
CONTINUOUS
 10
4.148320
 20
1.819400
  0
VERTEX
  8
0
  6
CONTINUOUS
 10
4.174720
 20
1.807960
  0
VERTEX
  8
0
  6
CONTINUOUS
 10
4.203320
 20
1.802240
  0
VERTEX
  8
0
  6
CONTINUOUS
 10
4.218280
 20
1.801360
  0
VERTEX
  8
0
  6
CONTINUOUS
 10
4.222240
 20
1.802680
  0
SEQEND
  8
0
  0
SOLID
  8
0
 62
    15
 10
5.719120
 20
1.024760
 11
6.355800
 21
1.397440
 12
5.741560
 22
1.006720
 13
6.377800
 23
1.379400
  0
POLYLINE
  8
0
  6
CONTINUOUS
 66
     1
 40
0.000000
 41
0.000000
  0
VERTEX
  8
0
  6
CONTINUOUS
 10
5.719120
 20
1.024760
  0
VERTEX
  8
0
  6
CONTINUOUS
 10
6.355800
 20
1.397440
  0
VERTEX
  8
0
  6
CONTINUOUS
 10
6.377800
 20
1.379400
  0
VERTEX
  8
0
  6
CONTINUOUS
 10
5.741560
 20
1.006720
  0
VERTEX
  8
0
  6
CONTINUOUS
 10
5.719120
 20
1.024760
  0
SEQEND
  8
0
  0
SOLID
  8
0
 62
    15
 10
5.434880
 20
1.142680
 11
6.071120
 21
1.515360
 12
5.434880
 22
0.897600
 13
6.071120
 23
1.269840
  0
POLYLINE
  8
0
  6
CONTINUOUS
 66
     1
 40
0.000000
 41
0.000000
  0
VERTEX
  8
0
  6
CONTINUOUS
 10
5.434880
 20
1.142680
  0
VERTEX
  8
0
  6
CONTINUOUS
 10
6.071120
 20
1.515360
  0
VERTEX
  8
0
  6
CONTINUOUS
 10
6.071120
 20
1.269840
  0
VERTEX
  8
0
  6
CONTINUOUS
 10
5.434880
 20
0.897600
  0
VERTEX
  8
0
  6
CONTINUOUS
 10
5.434880
 20
1.142680
  0
SEQEND
  8
0
  0
SOLID
  8
0
 62
    15
 10
5.434880
 20
0.897600
 11
6.071120
 21
1.269840
 12
5.489440
 22
0.897600
 13
6.125680
 23
1.269840
  0
POLYLINE
  8
0
  6
CONTINUOUS
 66
     1
 40
0.000000
 41
0.000000
  0
VERTEX
  8
0
  6
CONTINUOUS
 10
5.434880
 20
0.897600
  0
VERTEX
  8
0
  6
CONTINUOUS
 10
6.071120
 20
1.269840
  0
VERTEX
  8
0
  6
CONTINUOUS
 10
6.125680
 20
1.269840
  0
VERTEX
  8
0
  6
CONTINUOUS
 10
5.489440
 20
0.897600
  0
VERTEX
  8
0
  6
CONTINUOUS
 10
5.434880
 20
0.897600
  0
SEQEND
  8
0
  0
SOLID
  8
0
 62
    15
 10
5.555440
 20
1.024760
 11
6.191680
 21
1.397000
 12
5.580520
 22
1.038840
 13
6.216760
 23
1.411080
  0
POLYLINE
  8
0
  6
CONTINUOUS
 66
     1
 40
0.000000
 41
0.000000
  0
VERTEX
  8
0
  6
CONTINUOUS
 10
5.555440
 20
1.024760
  0
VERTEX
  8
0
  6
CONTINUOUS
 10
6.191680
 20
1.397000
  0
VERTEX
  8
0
  6
CONTINUOUS
 10
6.216760
 20
1.411080
  0
VERTEX
  8
0
  6
CONTINUOUS
 10
5.580520
 20
1.038840
  0
VERTEX
  8
0
  6
CONTINUOUS
 10
5.555440
 20
1.024760
  0
SEQEND
  8
0
  0
SOLID
  8
0
 62
    15
 10
5.580520
 20
1.038840
 11
6.216760
 21
1.411080
 12
5.608240
 22
1.047640
 13
6.244480
 23
1.419880
  0
POLYLINE
  8
0
  6
CONTINUOUS
 66
     1
 40
0.000000
 41
0.000000
  0
VERTEX
  8
0
  6
CONTINUOUS
 10
5.580520
 20
1.038840
  0
VERTEX
  8
0
  6
CONTINUOUS
 10
6.216760
 20
1.411080
  0
VERTEX
  8
0
  6
CONTINUOUS
 10
6.244480
 20
1.419880
  0
VERTEX
  8
0
  6
CONTINUOUS
 10
5.608240
 20
1.047640
  0
VERTEX
  8
0
  6
CONTINUOUS
 10
5.580520
 20
1.038840
  0
SEQEND
  8
0
  0
SOLID
  8
0
 62
    15
 10
5.608240
 20
1.047640
 11
6.244480
 21
1.419880
 12
5.637280
 22
1.050720
 13
6.273520
 23
1.423400
  0
POLYLINE
  8
0
  6
CONTINUOUS
 66
     1
 40
0.000000
 41
0.000000
  0
VERTEX
  8
0
  6
CONTINUOUS
 10
5.608240
 20
1.047640
  0
VERTEX
  8
0
  6
CONTINUOUS
 10
6.244480
 20
1.419880
  0
VERTEX
  8
0
  6
CONTINUOUS
 10
6.273520
 20
1.423400
  0
VERTEX
  8
0
  6
CONTINUOUS
 10
5.637280
 20
1.050720
  0
VERTEX
  8
0
  6
CONTINUOUS
 10
5.608240
 20
1.047640
  0
SEQEND
  8
0
  0
SOLID
  8
0
 62
    15
 10
5.637280
 20
1.050720
 11
6.273520
 21
1.423400
 12
5.666760
 22
1.047640
 13
6.303000
 23
1.420320
  0
POLYLINE
  8
0
  6
CONTINUOUS
 66
     1
 40
0.000000
 41
0.000000
  0
VERTEX
  8
0
  6
CONTINUOUS
 10
5.637280
 20
1.050720
  0
VERTEX
  8
0
  6
CONTINUOUS
 10
6.273520
 20
1.423400
  0
VERTEX
  8
0
  6
CONTINUOUS
 10
6.303000
 20
1.420320
  0
VERTEX
  8
0
  6
CONTINUOUS
 10
5.666760
 20
1.047640
  0
VERTEX
  8
0
  6
CONTINUOUS
 10
5.637280
 20
1.050720
  0
SEQEND
  8
0
  0
SOLID
  8
0
 62
    15
 10
5.666760
 20
1.047640
 11
6.303000
 21
1.420320
 12
5.694040
 22
1.038840
 13
6.330720
 23
1.411520
  0
POLYLINE
  8
0
  6
CONTINUOUS
 66
     1
 40
0.000000
 41
0.000000
  0
VERTEX
  8
0
  6
CONTINUOUS
 10
5.666760
 20
1.047640
  0
VERTEX
  8
0
  6
CONTINUOUS
 10
6.303000
 20
1.420320
  0
VERTEX
  8
0
  6
CONTINUOUS
 10
6.330720
 20
1.411520
  0
VERTEX
  8
0
  6
CONTINUOUS
 10
5.694040
 20
1.038840
  0
VERTEX
  8
0
  6
CONTINUOUS
 10
5.666760
 20
1.047640
  0
SEQEND
  8
0
  0
SOLID
  8
0
 62
    15
 10
5.694040
 20
1.038840
 11
6.330720
 21
1.411520
 12
5.719120
 22
1.024760
 13
6.355800
 23
1.397440
  0
POLYLINE
  8
0
  6
CONTINUOUS
 66
     1
 40
0.000000
 41
0.000000
  0
VERTEX
  8
0
  6
CONTINUOUS
 10
5.694040
 20
1.038840
  0
VERTEX
  8
0
  6
CONTINUOUS
 10
6.330720
 20
1.411520
  0
VERTEX
  8
0
  6
CONTINUOUS
 10
6.355800
 20
1.397440
  0
VERTEX
  8
0
  6
CONTINUOUS
 10
5.719120
 20
1.024760
  0
VERTEX
  8
0
  6
CONTINUOUS
 10
5.694040
 20
1.038840
  0
SEQEND
  8
0
  0
SOLID
  8
0
 62
    15
 10
3.865400
 20
1.142680
 11
4.501640
 21
1.515360
 12
5.434880
 22
1.142680
 13
6.071120
 23
1.515360
  0
POLYLINE
  8
0
  6
CONTINUOUS
 66
     1
 40
0.000000
 41
0.000000
  0
VERTEX
  8
0
  6
CONTINUOUS
 10
3.865400
 20
1.142680
  0
VERTEX
  8
0
  6
CONTINUOUS
 10
4.501640
 20
1.515360
  0
VERTEX
  8
0
  6
CONTINUOUS
 10
6.071120
 20
1.515360
  0
VERTEX
  8
0
  6
CONTINUOUS
 10
5.434880
 20
1.142680
  0
VERTEX
  8
0
  6
CONTINUOUS
 10
3.865400
 20
1.142680
  0
SEQEND
  8
0
  0
SOLID
  8
0
 62
    15
 10
5.741560
 20
1.006720
 11
6.377800
 21
1.379400
 12
5.759600
 22
0.984720
 13
6.395840
 23
1.357400
  0
POLYLINE
  8
0
  6
CONTINUOUS
 66
     1
 40
0.000000
 41
0.000000
  0
VERTEX
  8
0
  6
CONTINUOUS
 10
5.741560
 20
1.006720
  0
VERTEX
  8
0
  6
CONTINUOUS
 10
6.377800
 20
1.379400
  0
VERTEX
  8
0
  6
CONTINUOUS
 10
6.395840
 20
1.357400
  0
VERTEX
  8
0
  6
CONTINUOUS
 10
5.759600
 20
0.984720
  0
VERTEX
  8
0
  6
CONTINUOUS
 10
5.741560
 20
1.006720
  0
SEQEND
  8
0
  0
SOLID
  8
0
 62
    15
 10
5.759600
 20
0.984720
 11
6.395840
 21
1.357400
 12
5.773680
 22
0.959640
 13
6.409920
 23
1.332320
  0
POLYLINE
  8
0
  6
CONTINUOUS
 66
     1
 40
0.000000
 41
0.000000
  0
VERTEX
  8
0
  6
CONTINUOUS
 10
5.759600
 20
0.984720
  0
VERTEX
  8
0
  6
CONTINUOUS
 10
6.395840
 20
1.357400
  0
VERTEX
  8
0
  6
CONTINUOUS
 10
6.409920
 20
1.332320
  0
VERTEX
  8
0
  6
CONTINUOUS
 10
5.773680
 20
0.959640
  0
VERTEX
  8
0
  6
CONTINUOUS
 10
5.759600
 20
0.984720
  0
SEQEND
  8
0
  0
SOLID
  8
0
 62
    15
 10
5.773680
 20
0.959640
 11
6.409920
 21
1.332320
 12
5.782480
 22
0.931920
 13
6.418720
 23
1.304600
  0
POLYLINE
  8
0
  6
CONTINUOUS
 66
     1
 40
0.000000
 41
0.000000
  0
VERTEX
  8
0
  6
CONTINUOUS
 10
5.773680
 20
0.959640
  0
VERTEX
  8
0
  6
CONTINUOUS
 10
6.409920
 20
1.332320
  0
VERTEX
  8
0
  6
CONTINUOUS
 10
6.418720
 20
1.304600
  0
VERTEX
  8
0
  6
CONTINUOUS
 10
5.782480
 20
0.931920
  0
VERTEX
  8
0
  6
CONTINUOUS
 10
5.773680
 20
0.959640
  0
SEQEND
  8
0
  0
SOLID
  8
0
 62
    15
 10
5.782480
 20
0.931920
 11
6.418720
 21
1.304600
 12
5.785560
 22
0.902880
 13
6.421800
 23
1.275120
  0
POLYLINE
  8
0
  6
CONTINUOUS
 66
     1
 40
0.000000
 41
0.000000
  0
VERTEX
  8
0
  6
CONTINUOUS
 10
5.782480
 20
0.931920
  0
VERTEX
  8
0
  6
CONTINUOUS
 10
6.418720
 20
1.304600
  0
VERTEX
  8
0
  6
CONTINUOUS
 10
6.421800
 20
1.275120
  0
VERTEX
  8
0
  6
CONTINUOUS
 10
5.785560
 20
0.902880
  0
VERTEX
  8
0
  6
CONTINUOUS
 10
5.782480
 20
0.931920
  0
SEQEND
  8
0
  0
SOLID
  8
0
 62
    15
 10
5.785560
 20
0.902880
 11
6.421800
 21
1.275120
 12
5.782480
 22
0.873400
 13
6.418720
 23
1.246080
  0
POLYLINE
  8
0
  6
CONTINUOUS
 66
     1
 40
0.000000
 41
0.000000
  0
VERTEX
  8
0
  6
CONTINUOUS
 10
5.785560
 20
0.902880
  0
VERTEX
  8
0
  6
CONTINUOUS
 10
6.421800
 20
1.275120
  0
VERTEX
  8
0
  6
CONTINUOUS
 10
6.418720
 20
1.246080
  0
VERTEX
  8
0
  6
CONTINUOUS
 10
5.782480
 20
0.873400
  0
VERTEX
  8
0
  6
CONTINUOUS
 10
5.785560
 20
0.902880
  0
SEQEND
  8
0
  0
SOLID
  8
0
 62
    15
 10
5.782480
 20
0.873400
 11
6.418720
 21
1.246080
 12
5.773680
 22
0.845680
 13
6.409920
 23
1.218360
  0
POLYLINE
  8
0
  6
CONTINUOUS
 66
     1
 40
0.000000
 41
0.000000
  0
VERTEX
  8
0
  6
CONTINUOUS
 10
5.782480
 20
0.873400
  0
VERTEX
  8
0
  6
CONTINUOUS
 10
6.418720
 20
1.246080
  0
VERTEX
  8
0
  6
CONTINUOUS
 10
6.409920
 20
1.218360
  0
VERTEX
  8
0
  6
CONTINUOUS
 10
5.773680
 20
0.845680
  0
VERTEX
  8
0
  6
CONTINUOUS
 10
5.782480
 20
0.873400
  0
SEQEND
  8
0
  0
SOLID
  8
0
 62
    15
 10
5.773680
 20
0.845680
 11
6.409920
 21
1.218360
 12
5.759600
 22
0.820600
 13
6.395840
 23
1.193280
  0
POLYLINE
  8
0
  6
CONTINUOUS
 66
     1
 40
0.000000
 41
0.000000
  0
VERTEX
  8
0
  6
CONTINUOUS
 10
5.773680
 20
0.845680
  0
VERTEX
  8
0
  6
CONTINUOUS
 10
6.409920
 20
1.218360
  0
VERTEX
  8
0
  6
CONTINUOUS
 10
6.395840
 20
1.193280
  0
VERTEX
  8
0
  6
CONTINUOUS
 10
5.759600
 20
0.820600
  0
VERTEX
  8
0
  6
CONTINUOUS
 10
5.773680
 20
0.845680
  0
SEQEND
  8
0
  0
SOLID
  8
0
 62
    15
 10
5.759600
 20
0.820600
 11
6.395840
 21
1.193280
 12
5.741560
 22
0.798600
 13
6.377800
 23
1.171280
  0
POLYLINE
  8
0
  6
CONTINUOUS
 66
     1
 40
0.000000
 41
0.000000
  0
VERTEX
  8
0
  6
CONTINUOUS
 10
5.759600
 20
0.820600
  0
VERTEX
  8
0
  6
CONTINUOUS
 10
6.395840
 20
1.193280
  0
VERTEX
  8
0
  6
CONTINUOUS
 10
6.377800
 20
1.171280
  0
VERTEX
  8
0
  6
CONTINUOUS
 10
5.741560
 20
0.798600
  0
VERTEX
  8
0
  6
CONTINUOUS
 10
5.759600
 20
0.820600
  0
SEQEND
  8
0
  0
SOLID
  8
0
 62
    15
 10
5.741560
 20
0.798600
 11
6.377800
 21
1.171280
 12
5.719120
 22
0.780560
 13
6.355800
 23
1.152800
  0
POLYLINE
  8
0
  6
CONTINUOUS
 66
     1
 40
0.000000
 41
0.000000
  0
VERTEX
  8
0
  6
CONTINUOUS
 10
5.741560
 20
0.798600
  0
VERTEX
  8
0
  6
CONTINUOUS
 10
6.377800
 20
1.171280
  0
VERTEX
  8
0
  6
CONTINUOUS
 10
6.355800
 20
1.152800
  0
VERTEX
  8
0
  6
CONTINUOUS
 10
5.719120
 20
0.780560
  0
VERTEX
  8
0
  6
CONTINUOUS
 10
5.741560
 20
0.798600
  0
SEQEND
  8
0
  0
POLYLINE
  8
0
  6
CONTINUOUS
 66
     1
 40
0.000000
 41
0.000000
  0
VERTEX
  8
0
  6
CONTINUOUS
 10
5.633320
 20
0.755920
  0
VERTEX
  8
0
  6
CONTINUOUS
 10
3.865400
 20
0.755920
  0
VERTEX
  8
0
  6
CONTINUOUS
 10
3.865400
 20
1.142680
  0
VERTEX
  8
0
  6
CONTINUOUS
 10
5.434880
 20
1.142680
  0
VERTEX
  8
0
  6
CONTINUOUS
 10
5.434880
 20
0.897600
  0
VERTEX
  8
0
  6
CONTINUOUS
 10
5.489440
 20
0.897600
  0
VERTEX
  8
0
  6
CONTINUOUS
 10
5.489440
 20
0.901560
  0
VERTEX
  8
0
  6
CONTINUOUS
 10
5.492520
 20
0.930600
  0
VERTEX
  8
0
  6
CONTINUOUS
 10
5.501320
 20
0.958320
  0
VERTEX
  8
0
  6
CONTINUOUS
 10
5.514960
 20
0.983840
  0
VERTEX
  8
0
  6
CONTINUOUS
 10
5.533440
 20
1.005840
  0
VERTEX
  8
0
  6
CONTINUOUS
 10
5.555440
 20
1.024760
  0
VERTEX
  8
0
  6
CONTINUOUS
 10
5.580520
 20
1.038840
  0
VERTEX
  8
0
  6
CONTINUOUS
 10
5.608240
 20
1.047640
  0
VERTEX
  8
0
  6
CONTINUOUS
 10
5.637280
 20
1.050720
  0
VERTEX
  8
0
  6
CONTINUOUS
 10
5.666760
 20
1.047640
  0
VERTEX
  8
0
  6
CONTINUOUS
 10
5.694040
 20
1.038840
  0
VERTEX
  8
0
  6
CONTINUOUS
 10
5.719120
 20
1.024760
  0
VERTEX
  8
0
  6
CONTINUOUS
 10
5.741560
 20
1.006720
  0
VERTEX
  8
0
  6
CONTINUOUS
 10
5.759600
 20
0.984720
  0
VERTEX
  8
0
  6
CONTINUOUS
 10
5.773680
 20
0.959640
  0
VERTEX
  8
0
  6
CONTINUOUS
 10
5.782480
 20
0.931920
  0
VERTEX
  8
0
  6
CONTINUOUS
 10
5.785560
 20
0.902880
  0
VERTEX
  8
0
  6
CONTINUOUS
 10
5.782480
 20
0.873400
  0
VERTEX
  8
0
  6
CONTINUOUS
 10
5.773680
 20
0.845680
  0
VERTEX
  8
0
  6
CONTINUOUS
 10
5.759600
 20
0.820600
  0
VERTEX
  8
0
  6
CONTINUOUS
 10
5.741560
 20
0.798600
  0
VERTEX
  8
0
  6
CONTINUOUS
 10
5.719120
 20
0.780560
  0
VERTEX
  8
0
  6
CONTINUOUS
 10
5.694040
 20
0.766480
  0
VERTEX
  8
0
  6
CONTINUOUS
 10
5.666760
 20
0.757680
  0
VERTEX
  8
0
  6
CONTINUOUS
 10
5.637280
 20
0.754600
  0
VERTEX
  8
0
  6
CONTINUOUS
 10
5.633320
 20
0.755920
  0
SEQEND
  8
0
  0
TEXT
  8
0
 10
4.895000
 20
0.487080
 40
0.138114
  1
BA  15
 41
1.000000
  7
SN0
 71
     0
 72
     5
 11
5.392846
 21
0.487080
  0
TEXT
  8
0
 10
4.600640
 20
0.295240
 40
0.138114
  1
3/8" x 1-15/16" 
 41
1.000000
  7
SN0
 71
     0
 72
     5
 11
5.730515
 21
0.295240
  0
TEXT
  8
0
 10
7.352840
 20
2.366320
 40
0.138114
  1
half round
 41
1.000000
  7
SN0
 71
     0
 72
     5
 11
8.089255
 21
2.366320
  0
TEXT
  8
0
 10
7.629600
 20
2.174480
 40
0.138114
  1
15
 41
1.000000
  7
SN0
 71
     0
 72
     5
 11
7.814285
 21
2.174480
  0
ENDSEC
  0
EOF
