  0
SECTION
  2
HEADER
  9
$ACADVER
  1
AC1006
  9
$EXTMIN
 10
6.317080
 20
0.263120
  9
$EXTMAX
 10
8.116680
 20
3.360280
  9
$LTSCALE
 40
0.044000
  9
$PDMODE
 70
    35
  9
$PDSIZE
 40
0.035200
  0
ENDSEC
  0
SECTION
  2
TABLES
  0
TABLE
  2
LTYPE
 70
     9
  0
LTYPE
  2
CONTINUOUS
 70
    64
  3
Solid line
 72
    65
 73
     0
 40
0.000000
  0
LTYPE
  2
DASHED
 70
    64
  3
__ __ __ __ __ __ __ __ __ __ __ __ __ __ __
 72
    65
 73
     2
 40
0.000330
 49
0.000220
 49
-0.000110
  0
LTYPE
  2
HIDDEN
 70
    64
  3
 _ _ _ _ _ _ _ _ _ _ _ _ _ _ _ _ _ _ _ _ _ _
 72
    65
 73
     2
 40
0.000165
 49
0.000110
 49
-0.000055
  0
LTYPE
  2
CENTER
 70
    64
  3
____ _ ____ _ ____ _ ____ _ ____ _ ____ _ ____
 72
    65
 73
     4
 40
0.000880
 49
0.000550
 49
-0.000110
 49
0.000110
 49
-0.000110
  0
LTYPE
  2
PHANTOM
 70
    64
  3
_____ _ _ _____ _ _ _____ _ _ _____ _ _ ____
 72
    65
 73
     6
 40
0.001100
 49
0.000550
 49
-0.000110
 49
0.000110
 49
-0.000110
 49
0.000110
 49
-0.000110
  0
LTYPE
  2
DOT
 70
    64
  3
...............................................
 72
    65
 73
     2
 40
0.000110
 49
0.000000
 49
-0.000110
  0
LTYPE
  2
DASHDOT
 70
    64
  3
__ . __ . __ . __ . __ . __ . __ . __ . __ . __
 72
    65
 73
     4
 40
0.000440
 49
0.000220
 49
-0.000110
 49
0.000000
 49
-0.000110
  0
LTYPE
  2
BORDER
 70
    64
  3
__ __ . __ __ . __ __ . __ __ . __ __ . __ __
 72
    65
 73
     6
 40
0.000770
 49
0.000220
 49
-0.000110
 49
0.000220
 49
-0.000110
 49
0.000000
 49
-0.000110
  0
LTYPE
  2
DIVIDE
 70
    64
  3
__ . . __ . . __ . . __ . . __ . . __ . . __
 72
    65
 73
     6
 40
0.000550
 49
0.000220
 49
-0.000110
 49
0.000000
 49
-0.000110
 49
0.000000
 49
-0.000110
  0
LTYPE
  2
DOTDOT
 70
    64
  3
 . .  . .  . .  . .  . .  . . 
 72
    65
 73
     5
 40
0.000242
 49
-0.000110
 49
0.000000
 49
-0.000110
 49
0.000000
 49
-0.000110
  0
ENDTAB
  0
TABLE
  2
STYLE
 70
     2
  0
STYLE
 70
     0
  2
SN0
 40
0.000000
 41
0.000440
 50
0.000000
 71
     0
 42
0.000000
  3
ROMAND
  0
STYLE
 70
    68
  2
SV0
 40
0.000000
 41
0.000440
 50
0.000000
 71
     0
 42
0.000000
  3
ROMAND
  0
ENDTAB
  0
TABLE
  2
LAYER
 70
     3
  0
LAYER
  2
FOREGROUND
 70
    64
 62
     7
  6
CONTINUOUS
  0
LAYER
  2
BACKGROUND
 70
    65
 62
    -7
  6
CONTINUOUS
  0
LAYER
  2
0
 70
    64
 62
     7
  6
CONTINUOUS
  0
ENDTAB
  0
ENDSEC
  0
SECTION
  2
ENTITIES
  0
POLYLINE
  8
FOREGROUND
  6
CONTINUOUS
 66
     1
 40
0.000000
 41
0.000000
  0
VERTEX
  8
FOREGROUND
  6
CONTINUOUS
 10
0.000000
 20
3.623400
  0
VERTEX
  8
FOREGROUND
  6
CONTINUOUS
 10
8.499920
 20
3.623400
  0
VERTEX
  8
FOREGROUND
  6
CONTINUOUS
 10
8.499920
 20
-7.376600
  0
VERTEX
  8
FOREGROUND
  6
CONTINUOUS
 10
0.000000
 20
-7.376600
  0
VERTEX
  8
FOREGROUND
  6
CONTINUOUS
 10
0.000000
 20
3.623400
  0
SEQEND
  8
0
  0
POLYLINE
  8
FOREGROUND
  6
CONTINUOUS
 66
     1
 40
0.000000
 41
0.000000
  0
VERTEX
  8
FOREGROUND
  6
CONTINUOUS
 10
0.000000
 20
3.623400
  0
VERTEX
  8
FOREGROUND
  6
CONTINUOUS
 10
8.499920
 20
3.623400
  0
VERTEX
  8
FOREGROUND
  6
CONTINUOUS
 10
8.499920
 20
-7.376600
  0
VERTEX
  8
FOREGROUND
  6
CONTINUOUS
 10
0.000000
 20
-7.376600
  0
VERTEX
  8
FOREGROUND
  6
CONTINUOUS
 10
0.000000
 20
3.623400
  0
SEQEND
  8
0
  0
POLYLINE
  8
0
  6
CONTINUOUS
 66
     1
 40
0.013200
 41
0.013200
  0
VERTEX
  8
0
  6
CONTINUOUS
 10
6.724960
 20
3.168440
  0
VERTEX
  8
0
  6
CONTINUOUS
 10
6.750480
 20
3.113000
  0
VERTEX
  8
0
  6
CONTINUOUS
 10
6.777760
 20
3.065480
  0
VERTEX
  8
0
  6
CONTINUOUS
 10
6.806800
 20
3.024560
  0
VERTEX
  8
0
  6
CONTINUOUS
 10
6.837160
 20
2.989800
  0
VERTEX
  8
0
  6
CONTINUOUS
 10
6.858280
 20
2.969560
  0
VERTEX
  8
0
  6
CONTINUOUS
 10
6.901840
 20
2.936120
  0
VERTEX
  8
0
  6
CONTINUOUS
 10
6.945840
 20
2.909280
  0
VERTEX
  8
0
  6
CONTINUOUS
 10
7.012280
 20
2.878480
  0
VERTEX
  8
0
  6
CONTINUOUS
 10
7.118320
 20
2.837560
  0
VERTEX
  8
0
  6
CONTINUOUS
 10
7.156600
 20
2.819960
  0
VERTEX
  8
0
  6
CONTINUOUS
 10
7.191800
 20
2.798400
  0
VERTEX
  8
0
  6
CONTINUOUS
 10
7.207640
 20
2.786080
  0
VERTEX
  8
0
  6
CONTINUOUS
 10
7.222600
 20
2.772000
  0
VERTEX
  8
0
  6
CONTINUOUS
 10
7.249000
 20
2.738560
  0
VERTEX
  8
0
  6
CONTINUOUS
 10
7.264840
 20
2.707320
  0
VERTEX
  8
0
  6
CONTINUOUS
 10
7.274080
 20
2.684000
  0
VERTEX
  8
0
  6
CONTINUOUS
 10
7.284200
 20
2.643080
  0
VERTEX
  8
0
  6
CONTINUOUS
 10
7.289040
 20
2.612280
  0
VERTEX
  8
0
  6
CONTINUOUS
 10
7.286400
 20
2.576200
  0
VERTEX
  8
0
  6
CONTINUOUS
 10
7.280680
 20
2.543640
  0
VERTEX
  8
0
  6
CONTINUOUS
 10
7.271880
 20
2.515040
  0
VERTEX
  8
0
  6
CONTINUOUS
 10
7.254720
 20
2.478520
  0
VERTEX
  8
0
  6
CONTINUOUS
 10
7.232720
 20
2.448600
  0
VERTEX
  8
0
  6
CONTINUOUS
 10
7.207640
 20
2.424840
  0
VERTEX
  8
0
  6
CONTINUOUS
 10
7.180360
 20
2.406360
  0
VERTEX
  8
0
  6
CONTINUOUS
 10
7.161880
 20
2.396240
  0
VERTEX
  8
0
  6
CONTINUOUS
 10
7.124480
 20
2.380840
  0
VERTEX
  8
0
  6
CONTINUOUS
 10
7.059800
 20
2.361920
  0
VERTEX
  8
0
  6
CONTINUOUS
 10
7.058480
 20
2.361920
  0
VERTEX
  8
0
  6
CONTINUOUS
 10
7.058480
 20
2.273920
  0
VERTEX
  8
0
  6
CONTINUOUS
 10
7.059800
 20
2.273920
  0
VERTEX
  8
0
  6
CONTINUOUS
 10
6.586360
 20
2.273920
  0
VERTEX
  8
0
  6
CONTINUOUS
 10
6.586360
 20
3.171080
  0
VERTEX
  8
0
  6
CONTINUOUS
 10
6.722320
 20
3.171080
  0
VERTEX
  8
0
  6
CONTINUOUS
 10
6.724960
 20
3.168440
  0
SEQEND
  8
0
  0
SOLID
  8
0
 62
     7
 10
6.967840
 20
1.202960
 11
7.583400
 21
1.571240
 12
6.991600
 22
1.165120
 13
7.607160
 23
1.533400
  0
POLYLINE
  8
0
  6
CONTINUOUS
 66
     1
 40
0.000000
 41
0.000000
  0
VERTEX
  8
0
  6
CONTINUOUS
 10
6.967840
 20
1.202960
  0
VERTEX
  8
0
  6
CONTINUOUS
 10
7.583400
 20
1.571240
  0
VERTEX
  8
0
  6
CONTINUOUS
 10
7.607160
 20
1.533400
  0
VERTEX
  8
0
  6
CONTINUOUS
 10
6.991600
 20
1.165120
  0
VERTEX
  8
0
  6
CONTINUOUS
 10
6.967840
 20
1.202960
  0
SEQEND
  8
0
  0
SOLID
  8
0
 62
     7
 10
6.473280
 20
1.576960
 11
7.088840
 21
1.945680
 12
6.490880
 22
1.542640
 13
7.106440
 23
1.911360
  0
POLYLINE
  8
0
  6
CONTINUOUS
 66
     1
 40
0.000000
 41
0.000000
  0
VERTEX
  8
0
  6
CONTINUOUS
 10
6.473280
 20
1.576960
  0
VERTEX
  8
0
  6
CONTINUOUS
 10
7.088840
 20
1.945680
  0
VERTEX
  8
0
  6
CONTINUOUS
 10
7.106440
 20
1.911360
  0
VERTEX
  8
0
  6
CONTINUOUS
 10
6.490880
 20
1.542640
  0
VERTEX
  8
0
  6
CONTINUOUS
 10
6.473280
 20
1.576960
  0
SEQEND
  8
0
  0
SOLID
  8
0
 62
     7
 10
6.490880
 20
1.542640
 11
7.106440
 21
1.911360
 12
6.528280
 22
1.484120
 13
7.144280
 23
1.852400
  0
POLYLINE
  8
0
  6
CONTINUOUS
 66
     1
 40
0.000000
 41
0.000000
  0
VERTEX
  8
0
  6
CONTINUOUS
 10
6.490880
 20
1.542640
  0
VERTEX
  8
0
  6
CONTINUOUS
 10
7.106440
 20
1.911360
  0
VERTEX
  8
0
  6
CONTINUOUS
 10
7.144280
 20
1.852400
  0
VERTEX
  8
0
  6
CONTINUOUS
 10
6.528280
 20
1.484120
  0
VERTEX
  8
0
  6
CONTINUOUS
 10
6.490880
 20
1.542640
  0
SEQEND
  8
0
  0
SOLID
  8
0
 62
     7
 10
6.528280
 20
1.484120
 11
7.144280
 21
1.852400
 12
6.568760
 22
1.436600
 13
7.184760
 23
1.804880
  0
POLYLINE
  8
0
  6
CONTINUOUS
 66
     1
 40
0.000000
 41
0.000000
  0
VERTEX
  8
0
  6
CONTINUOUS
 10
6.528280
 20
1.484120
  0
VERTEX
  8
0
  6
CONTINUOUS
 10
7.144280
 20
1.852400
  0
VERTEX
  8
0
  6
CONTINUOUS
 10
7.184760
 20
1.804880
  0
VERTEX
  8
0
  6
CONTINUOUS
 10
6.568760
 20
1.436600
  0
VERTEX
  8
0
  6
CONTINUOUS
 10
6.528280
 20
1.484120
  0
SEQEND
  8
0
  0
SOLID
  8
0
 62
    15
 10
6.568760
 20
1.436600
 11
7.184760
 21
1.804880
 12
6.611440
 22
1.398320
 13
7.227000
 23
1.767040
  0
POLYLINE
  8
0
  6
CONTINUOUS
 66
     1
 40
0.000000
 41
0.000000
  0
VERTEX
  8
0
  6
CONTINUOUS
 10
6.568760
 20
1.436600
  0
VERTEX
  8
0
  6
CONTINUOUS
 10
7.184760
 20
1.804880
  0
VERTEX
  8
0
  6
CONTINUOUS
 10
7.227000
 20
1.767040
  0
VERTEX
  8
0
  6
CONTINUOUS
 10
6.611440
 20
1.398320
  0
VERTEX
  8
0
  6
CONTINUOUS
 10
6.568760
 20
1.436600
  0
SEQEND
  8
0
  0
SOLID
  8
0
 62
    15
 10
6.611440
 20
1.398320
 11
7.227000
 21
1.767040
 12
6.655000
 22
1.368400
 13
7.271000
 23
1.737120
  0
POLYLINE
  8
0
  6
CONTINUOUS
 66
     1
 40
0.000000
 41
0.000000
  0
VERTEX
  8
0
  6
CONTINUOUS
 10
6.611440
 20
1.398320
  0
VERTEX
  8
0
  6
CONTINUOUS
 10
7.227000
 20
1.767040
  0
VERTEX
  8
0
  6
CONTINUOUS
 10
7.271000
 20
1.737120
  0
VERTEX
  8
0
  6
CONTINUOUS
 10
6.655000
 20
1.368400
  0
VERTEX
  8
0
  6
CONTINUOUS
 10
6.611440
 20
1.398320
  0
SEQEND
  8
0
  0
SOLID
  8
0
 62
    15
 10
6.655000
 20
1.368400
 11
7.271000
 21
1.737120
 12
6.699440
 22
1.344640
 13
7.315440
 23
1.713360
  0
POLYLINE
  8
0
  6
CONTINUOUS
 66
     1
 40
0.000000
 41
0.000000
  0
VERTEX
  8
0
  6
CONTINUOUS
 10
6.655000
 20
1.368400
  0
VERTEX
  8
0
  6
CONTINUOUS
 10
7.271000
 20
1.737120
  0
VERTEX
  8
0
  6
CONTINUOUS
 10
7.315440
 20
1.713360
  0
VERTEX
  8
0
  6
CONTINUOUS
 10
6.699440
 20
1.344640
  0
VERTEX
  8
0
  6
CONTINUOUS
 10
6.655000
 20
1.368400
  0
SEQEND
  8
0
  0
SOLID
  8
0
 62
    15
 10
6.699440
 20
1.344640
 11
7.315440
 21
1.713360
 12
6.787440
 22
1.308560
 13
7.403440
 23
1.676840
  0
POLYLINE
  8
0
  6
CONTINUOUS
 66
     1
 40
0.000000
 41
0.000000
  0
VERTEX
  8
0
  6
CONTINUOUS
 10
6.699440
 20
1.344640
  0
VERTEX
  8
0
  6
CONTINUOUS
 10
7.315440
 20
1.713360
  0
VERTEX
  8
0
  6
CONTINUOUS
 10
7.403440
 20
1.676840
  0
VERTEX
  8
0
  6
CONTINUOUS
 10
6.787440
 20
1.308560
  0
VERTEX
  8
0
  6
CONTINUOUS
 10
6.699440
 20
1.344640
  0
SEQEND
  8
0
  0
SOLID
  8
0
 62
    15
 10
6.787440
 20
1.308560
 11
7.403440
 21
1.676840
 12
6.808560
 22
1.300640
 13
7.424560
 23
1.668920
  0
POLYLINE
  8
0
  6
CONTINUOUS
 66
     1
 40
0.000000
 41
0.000000
  0
VERTEX
  8
0
  6
CONTINUOUS
 10
6.787440
 20
1.308560
  0
VERTEX
  8
0
  6
CONTINUOUS
 10
7.403440
 20
1.676840
  0
VERTEX
  8
0
  6
CONTINUOUS
 10
7.424560
 20
1.668920
  0
VERTEX
  8
0
  6
CONTINUOUS
 10
6.808560
 20
1.300640
  0
VERTEX
  8
0
  6
CONTINUOUS
 10
6.787440
 20
1.308560
  0
SEQEND
  8
0
  0
SOLID
  8
0
 62
    15
 10
6.808560
 20
1.300640
 11
7.424560
 21
1.668920
 12
6.829240
 22
1.292720
 13
7.445240
 23
1.661000
  0
POLYLINE
  8
0
  6
CONTINUOUS
 66
     1
 40
0.000000
 41
0.000000
  0
VERTEX
  8
0
  6
CONTINUOUS
 10
6.808560
 20
1.300640
  0
VERTEX
  8
0
  6
CONTINUOUS
 10
7.424560
 20
1.668920
  0
VERTEX
  8
0
  6
CONTINUOUS
 10
7.445240
 20
1.661000
  0
VERTEX
  8
0
  6
CONTINUOUS
 10
6.829240
 20
1.292720
  0
VERTEX
  8
0
  6
CONTINUOUS
 10
6.808560
 20
1.300640
  0
SEQEND
  8
0
  0
SOLID
  8
0
 62
    15
 10
6.829240
 20
1.292720
 11
7.445240
 21
1.661000
 12
6.869280
 22
1.275560
 13
7.484840
 23
1.644280
  0
POLYLINE
  8
0
  6
CONTINUOUS
 66
     1
 40
0.000000
 41
0.000000
  0
VERTEX
  8
0
  6
CONTINUOUS
 10
6.829240
 20
1.292720
  0
VERTEX
  8
0
  6
CONTINUOUS
 10
7.445240
 20
1.661000
  0
VERTEX
  8
0
  6
CONTINUOUS
 10
7.484840
 20
1.644280
  0
VERTEX
  8
0
  6
CONTINUOUS
 10
6.869280
 20
1.275560
  0
VERTEX
  8
0
  6
CONTINUOUS
 10
6.829240
 20
1.292720
  0
SEQEND
  8
0
  0
SOLID
  8
0
 62
    15
 10
6.869280
 20
1.275560
 11
7.484840
 21
1.644280
 12
6.905800
 22
1.256200
 13
7.521800
 23
1.624920
  0
POLYLINE
  8
0
  6
CONTINUOUS
 66
     1
 40
0.000000
 41
0.000000
  0
VERTEX
  8
0
  6
CONTINUOUS
 10
6.869280
 20
1.275560
  0
VERTEX
  8
0
  6
CONTINUOUS
 10
7.484840
 20
1.644280
  0
VERTEX
  8
0
  6
CONTINUOUS
 10
7.521800
 20
1.624920
  0
VERTEX
  8
0
  6
CONTINUOUS
 10
6.905800
 20
1.256200
  0
VERTEX
  8
0
  6
CONTINUOUS
 10
6.869280
 20
1.275560
  0
SEQEND
  8
0
  0
SOLID
  8
0
 62
    15
 10
6.905800
 20
1.256200
 11
7.521800
 21
1.624920
 12
6.939240
 22
1.232440
 13
7.554800
 23
1.601160
  0
POLYLINE
  8
0
  6
CONTINUOUS
 66
     1
 40
0.000000
 41
0.000000
  0
VERTEX
  8
0
  6
CONTINUOUS
 10
6.905800
 20
1.256200
  0
VERTEX
  8
0
  6
CONTINUOUS
 10
7.521800
 20
1.624920
  0
VERTEX
  8
0
  6
CONTINUOUS
 10
7.554800
 20
1.601160
  0
VERTEX
  8
0
  6
CONTINUOUS
 10
6.939240
 20
1.232440
  0
VERTEX
  8
0
  6
CONTINUOUS
 10
6.905800
 20
1.256200
  0
SEQEND
  8
0
  0
SOLID
  8
0
 62
    15
 10
6.939240
 20
1.232440
 11
7.554800
 21
1.601160
 12
6.967840
 22
1.202960
 13
7.583400
 23
1.571240
  0
POLYLINE
  8
0
  6
CONTINUOUS
 66
     1
 40
0.000000
 41
0.000000
  0
VERTEX
  8
0
  6
CONTINUOUS
 10
6.939240
 20
1.232440
  0
VERTEX
  8
0
  6
CONTINUOUS
 10
7.554800
 20
1.601160
  0
VERTEX
  8
0
  6
CONTINUOUS
 10
7.583400
 20
1.571240
  0
VERTEX
  8
0
  6
CONTINUOUS
 10
6.967840
 20
1.202960
  0
VERTEX
  8
0
  6
CONTINUOUS
 10
6.939240
 20
1.232440
  0
SEQEND
  8
0
  0
SOLID
  8
0
 62
     7
 10
6.456560
 20
1.614800
 11
7.072120
 21
1.983520
 12
6.473280
 22
1.576960
 13
7.088840
 23
1.945680
  0
POLYLINE
  8
0
  6
CONTINUOUS
 66
     1
 40
0.000000
 41
0.000000
  0
VERTEX
  8
0
  6
CONTINUOUS
 10
6.456560
 20
1.614800
  0
VERTEX
  8
0
  6
CONTINUOUS
 10
7.072120
 20
1.983520
  0
VERTEX
  8
0
  6
CONTINUOUS
 10
7.088840
 20
1.945680
  0
VERTEX
  8
0
  6
CONTINUOUS
 10
6.473280
 20
1.576960
  0
VERTEX
  8
0
  6
CONTINUOUS
 10
6.456560
 20
1.614800
  0
SEQEND
  8
0
  0
SOLID
  8
0
 62
    15
 10
6.991600
 20
1.165120
 11
7.607160
 21
1.533400
 12
7.009200
 22
1.117600
 13
7.624760
 23
1.486320
  0
POLYLINE
  8
0
  6
CONTINUOUS
 66
     1
 40
0.000000
 41
0.000000
  0
VERTEX
  8
0
  6
CONTINUOUS
 10
6.991600
 20
1.165120
  0
VERTEX
  8
0
  6
CONTINUOUS
 10
7.607160
 20
1.533400
  0
VERTEX
  8
0
  6
CONTINUOUS
 10
7.624760
 20
1.486320
  0
VERTEX
  8
0
  6
CONTINUOUS
 10
7.009200
 20
1.117600
  0
VERTEX
  8
0
  6
CONTINUOUS
 10
6.991600
 20
1.165120
  0
SEQEND
  8
0
  0
SOLID
  8
0
 62
    15
 10
7.009200
 20
1.117600
 11
7.624760
 21
1.486320
 12
7.015800
 22
1.089880
 13
7.631360
 23
1.458160
  0
POLYLINE
  8
0
  6
CONTINUOUS
 66
     1
 40
0.000000
 41
0.000000
  0
VERTEX
  8
0
  6
CONTINUOUS
 10
7.009200
 20
1.117600
  0
VERTEX
  8
0
  6
CONTINUOUS
 10
7.624760
 20
1.486320
  0
VERTEX
  8
0
  6
CONTINUOUS
 10
7.631360
 20
1.458160
  0
VERTEX
  8
0
  6
CONTINUOUS
 10
7.015800
 20
1.089880
  0
VERTEX
  8
0
  6
CONTINUOUS
 10
7.009200
 20
1.117600
  0
SEQEND
  8
0
  0
SOLID
  8
0
 62
    15
 10
7.015800
 20
1.089880
 11
7.631360
 21
1.458160
 12
7.020640
 22
1.059080
 13
7.636200
 23
1.427360
  0
POLYLINE
  8
0
  6
CONTINUOUS
 66
     1
 40
0.000000
 41
0.000000
  0
VERTEX
  8
0
  6
CONTINUOUS
 10
7.015800
 20
1.089880
  0
VERTEX
  8
0
  6
CONTINUOUS
 10
7.631360
 20
1.458160
  0
VERTEX
  8
0
  6
CONTINUOUS
 10
7.636200
 20
1.427360
  0
VERTEX
  8
0
  6
CONTINUOUS
 10
7.020640
 20
1.059080
  0
VERTEX
  8
0
  6
CONTINUOUS
 10
7.015800
 20
1.089880
  0
SEQEND
  8
0
  0
SOLID
  8
0
 62
    15
 10
7.020640
 20
1.059080
 11
7.636200
 21
1.427360
 12
7.018000
 22
1.022560
 13
7.633560
 23
1.391280
  0
POLYLINE
  8
0
  6
CONTINUOUS
 66
     1
 40
0.000000
 41
0.000000
  0
VERTEX
  8
0
  6
CONTINUOUS
 10
7.020640
 20
1.059080
  0
VERTEX
  8
0
  6
CONTINUOUS
 10
7.636200
 20
1.427360
  0
VERTEX
  8
0
  6
CONTINUOUS
 10
7.633560
 20
1.391280
  0
VERTEX
  8
0
  6
CONTINUOUS
 10
7.018000
 20
1.022560
  0
VERTEX
  8
0
  6
CONTINUOUS
 10
7.020640
 20
1.059080
  0
SEQEND
  8
0
  0
SOLID
  8
0
 62
    15
 10
7.018000
 20
1.022560
 11
7.633560
 21
1.391280
 12
7.011840
 22
0.990440
 13
7.627840
 23
1.358720
  0
POLYLINE
  8
0
  6
CONTINUOUS
 66
     1
 40
0.000000
 41
0.000000
  0
VERTEX
  8
0
  6
CONTINUOUS
 10
7.018000
 20
1.022560
  0
VERTEX
  8
0
  6
CONTINUOUS
 10
7.633560
 20
1.391280
  0
VERTEX
  8
0
  6
CONTINUOUS
 10
7.627840
 20
1.358720
  0
VERTEX
  8
0
  6
CONTINUOUS
 10
7.011840
 20
0.990440
  0
VERTEX
  8
0
  6
CONTINUOUS
 10
7.018000
 20
1.022560
  0
SEQEND
  8
0
  0
SOLID
  8
0
 62
    15
 10
7.011840
 20
0.990440
 11
7.627840
 21
1.358720
 12
7.003480
 22
0.961840
 13
7.619040
 23
1.330120
  0
POLYLINE
  8
0
  6
CONTINUOUS
 66
     1
 40
0.000000
 41
0.000000
  0
VERTEX
  8
0
  6
CONTINUOUS
 10
7.011840
 20
0.990440
  0
VERTEX
  8
0
  6
CONTINUOUS
 10
7.627840
 20
1.358720
  0
VERTEX
  8
0
  6
CONTINUOUS
 10
7.619040
 20
1.330120
  0
VERTEX
  8
0
  6
CONTINUOUS
 10
7.003480
 20
0.961840
  0
VERTEX
  8
0
  6
CONTINUOUS
 10
7.011840
 20
0.990440
  0
SEQEND
  8
0
  0
SOLID
  8
0
 62
    15
 10
7.003480
 20
0.961840
 11
7.619040
 21
1.330120
 12
6.992480
 22
0.936320
 13
7.608040
 23
1.305040
  0
POLYLINE
  8
0
  6
CONTINUOUS
 66
     1
 40
0.000000
 41
0.000000
  0
VERTEX
  8
0
  6
CONTINUOUS
 10
7.003480
 20
0.961840
  0
VERTEX
  8
0
  6
CONTINUOUS
 10
7.619040
 20
1.330120
  0
VERTEX
  8
0
  6
CONTINUOUS
 10
7.608040
 20
1.305040
  0
VERTEX
  8
0
  6
CONTINUOUS
 10
6.992480
 20
0.936320
  0
VERTEX
  8
0
  6
CONTINUOUS
 10
7.003480
 20
0.961840
  0
SEQEND
  8
0
  0
SOLID
  8
0
 62
    15
 10
6.789640
 20
0.808280
 11
7.405640
 21
1.176560
 12
6.789640
 22
0.720280
 13
7.405640
 23
1.088560
  0
POLYLINE
  8
0
  6
CONTINUOUS
 66
     1
 40
0.000000
 41
0.000000
  0
VERTEX
  8
0
  6
CONTINUOUS
 10
6.789640
 20
0.808280
  0
VERTEX
  8
0
  6
CONTINUOUS
 10
7.405640
 20
1.176560
  0
VERTEX
  8
0
  6
CONTINUOUS
 10
7.405640
 20
1.088560
  0
VERTEX
  8
0
  6
CONTINUOUS
 10
6.789640
 20
0.720280
  0
VERTEX
  8
0
  6
CONTINUOUS
 10
6.789640
 20
0.808280
  0
SEQEND
  8
0
  0
SOLID
  8
0
 62
    15
 10
6.979280
 20
0.914320
 11
7.594840
 21
1.283040
 12
6.964320
 22
0.895400
 13
7.579880
 23
1.263680
  0
POLYLINE
  8
0
  6
CONTINUOUS
 66
     1
 40
0.000000
 41
0.000000
  0
VERTEX
  8
0
  6
CONTINUOUS
 10
6.979280
 20
0.914320
  0
VERTEX
  8
0
  6
CONTINUOUS
 10
7.594840
 20
1.283040
  0
VERTEX
  8
0
  6
CONTINUOUS
 10
7.579880
 20
1.263680
  0
VERTEX
  8
0
  6
CONTINUOUS
 10
6.964320
 20
0.895400
  0
VERTEX
  8
0
  6
CONTINUOUS
 10
6.979280
 20
0.914320
  0
SEQEND
  8
0
  0
SOLID
  8
0
 62
    15
 10
6.964320
 20
0.895400
 11
7.579880
 21
1.263680
 12
6.930440
 22
0.864600
 13
7.546000
 23
1.232880
  0
POLYLINE
  8
0
  6
CONTINUOUS
 66
     1
 40
0.000000
 41
0.000000
  0
VERTEX
  8
0
  6
CONTINUOUS
 10
6.964320
 20
0.895400
  0
VERTEX
  8
0
  6
CONTINUOUS
 10
7.579880
 20
1.263680
  0
VERTEX
  8
0
  6
CONTINUOUS
 10
7.546000
 20
1.232880
  0
VERTEX
  8
0
  6
CONTINUOUS
 10
6.930440
 20
0.864600
  0
VERTEX
  8
0
  6
CONTINUOUS
 10
6.964320
 20
0.895400
  0
SEQEND
  8
0
  0
SOLID
  8
0
 62
    15
 10
6.992480
 20
0.936320
 11
7.608040
 21
1.305040
 12
6.979280
 22
0.914320
 13
7.594840
 23
1.283040
  0
POLYLINE
  8
0
  6
CONTINUOUS
 66
     1
 40
0.000000
 41
0.000000
  0
VERTEX
  8
0
  6
CONTINUOUS
 10
6.992480
 20
0.936320
  0
VERTEX
  8
0
  6
CONTINUOUS
 10
7.608040
 20
1.305040
  0
VERTEX
  8
0
  6
CONTINUOUS
 10
7.594840
 20
1.283040
  0
VERTEX
  8
0
  6
CONTINUOUS
 10
6.979280
 20
0.914320
  0
VERTEX
  8
0
  6
CONTINUOUS
 10
6.992480
 20
0.936320
  0
SEQEND
  8
0
  0
SOLID
  8
0
 62
    15
 10
6.317960
 20
1.617440
 11
6.933520
 21
1.986160
 12
6.453920
 22
1.617440
 13
7.069480
 23
1.986160
  0
POLYLINE
  8
0
  6
CONTINUOUS
 66
     1
 40
0.000000
 41
0.000000
  0
VERTEX
  8
0
  6
CONTINUOUS
 10
6.317960
 20
1.617440
  0
VERTEX
  8
0
  6
CONTINUOUS
 10
6.933520
 20
1.986160
  0
VERTEX
  8
0
  6
CONTINUOUS
 10
7.069480
 20
1.986160
  0
VERTEX
  8
0
  6
CONTINUOUS
 10
6.453920
 20
1.617440
  0
VERTEX
  8
0
  6
CONTINUOUS
 10
6.317960
 20
1.617440
  0
SEQEND
  8
0
  0
SOLID
  8
0
 62
    15
 10
6.453920
 20
1.617440
 11
7.069480
 21
1.986160
 12
6.456560
 22
1.614800
 13
7.072120
 23
1.983520
  0
POLYLINE
  8
0
  6
CONTINUOUS
 66
     1
 40
0.000000
 41
0.000000
  0
VERTEX
  8
0
  6
CONTINUOUS
 10
6.453920
 20
1.617440
  0
VERTEX
  8
0
  6
CONTINUOUS
 10
7.069480
 20
1.986160
  0
VERTEX
  8
0
  6
CONTINUOUS
 10
7.072120
 20
1.983520
  0
VERTEX
  8
0
  6
CONTINUOUS
 10
6.456560
 20
1.614800
  0
VERTEX
  8
0
  6
CONTINUOUS
 10
6.453920
 20
1.617440
  0
SEQEND
  8
0
  0
POLYLINE
  8
0
  6
CONTINUOUS
 66
     1
 40
0.000000
 41
0.000000
  0
VERTEX
  8
0
  6
CONTINUOUS
 10
6.456560
 20
1.614800
  0
VERTEX
  8
0
  6
CONTINUOUS
 10
6.473280
 20
1.576960
  0
VERTEX
  8
0
  6
CONTINUOUS
 10
6.490880
 20
1.542640
  0
VERTEX
  8
0
  6
CONTINUOUS
 10
6.528280
 20
1.484120
  0
VERTEX
  8
0
  6
CONTINUOUS
 10
6.568760
 20
1.436600
  0
VERTEX
  8
0
  6
CONTINUOUS
 10
6.611440
 20
1.398320
  0
VERTEX
  8
0
  6
CONTINUOUS
 10
6.655000
 20
1.368400
  0
VERTEX
  8
0
  6
CONTINUOUS
 10
6.699440
 20
1.344640
  0
VERTEX
  8
0
  6
CONTINUOUS
 10
6.787440
 20
1.308560
  0
VERTEX
  8
0
  6
CONTINUOUS
 10
6.808560
 20
1.300640
  0
VERTEX
  8
0
  6
CONTINUOUS
 10
6.829240
 20
1.292720
  0
VERTEX
  8
0
  6
CONTINUOUS
 10
6.869280
 20
1.275560
  0
VERTEX
  8
0
  6
CONTINUOUS
 10
6.905800
 20
1.256200
  0
VERTEX
  8
0
  6
CONTINUOUS
 10
6.939240
 20
1.232440
  0
VERTEX
  8
0
  6
CONTINUOUS
 10
6.967840
 20
1.202960
  0
VERTEX
  8
0
  6
CONTINUOUS
 10
6.991600
 20
1.165120
  0
VERTEX
  8
0
  6
CONTINUOUS
 10
7.009200
 20
1.117600
  0
VERTEX
  8
0
  6
CONTINUOUS
 10
7.015800
 20
1.089880
  0
VERTEX
  8
0
  6
CONTINUOUS
 10
7.020640
 20
1.059080
  0
VERTEX
  8
0
  6
CONTINUOUS
 10
7.018000
 20
1.022560
  0
VERTEX
  8
0
  6
CONTINUOUS
 10
7.011840
 20
0.990440
  0
VERTEX
  8
0
  6
CONTINUOUS
 10
7.003480
 20
0.961840
  0
VERTEX
  8
0
  6
CONTINUOUS
 10
6.992480
 20
0.936320
  0
VERTEX
  8
0
  6
CONTINUOUS
 10
6.979280
 20
0.914320
  0
VERTEX
  8
0
  6
CONTINUOUS
 10
6.964320
 20
0.895400
  0
VERTEX
  8
0
  6
CONTINUOUS
 10
6.930440
 20
0.864600
  0
VERTEX
  8
0
  6
CONTINUOUS
 10
6.893480
 20
0.842600
  0
VERTEX
  8
0
  6
CONTINUOUS
 10
6.856080
 20
0.827200
  0
VERTEX
  8
0
  6
CONTINUOUS
 10
6.820880
 20
0.816640
  0
VERTEX
  8
0
  6
CONTINUOUS
 10
6.790960
 20
0.808280
  0
VERTEX
  8
0
  6
CONTINUOUS
 10
6.789640
 20
0.808280
  0
VERTEX
  8
0
  6
CONTINUOUS
 10
6.789640
 20
0.720280
  0
VERTEX
  8
0
  6
CONTINUOUS
 10
6.317960
 20
0.720280
  0
VERTEX
  8
0
  6
CONTINUOUS
 10
6.317960
 20
1.617440
  0
VERTEX
  8
0
  6
CONTINUOUS
 10
6.453920
 20
1.617440
  0
VERTEX
  8
0
  6
CONTINUOUS
 10
6.456560
 20
1.614800
  0
SEQEND
  8
0
  0
TEXT
  8
0
 10
6.725840
 20
0.498520
 40
0.138125
  1
BA  14
 41
1.000000
  7
SN0
 71
     0
 72
     5
 11
7.224173
 21
0.498520
  0
TEXT
  8
0
 10
6.505400
 20
0.307120
 40
0.138125
  1
3/4" x 15/16"
 41
1.000000
  7
SN0
 71
     0
 72
     5
 11
7.444149
 21
0.307120
  0
TEXT
  8
0
 10
7.442600
 20
3.209360
 40
0.138125
  1
base cap
 41
1.000000
  7
SN0
 71
     0
 72
     5
 11
8.116387
 21
3.209360
  0
TEXT
  8
0
 10
7.686800
 20
3.017960
 40
0.138125
  1
14
 41
1.000000
  7
SN0
 71
     0
 72
     5
 11
7.871700
 21
3.017960
  0
ENDSEC
  0
EOF
