  0
SECTION
  2
HEADER
  9
$ACADVER
  1
AC1006
  9
$EXTMIN
 10
2.840640
 20
4.538160
  9
$EXTMAX
 10
5.658840
 20
6.461400
  9
$LTSCALE
 40
0.044000
  9
$PDMODE
 70
    35
  9
$PDSIZE
 40
0.035200
  0
ENDSEC
  0
SECTION
  2
TABLES
  0
TABLE
  2
LTYPE
 70
     9
  0
LTYPE
  2
CONTINUOUS
 70
    64
  3
Solid line
 72
    65
 73
     0
 40
0.000000
  0
LTYPE
  2
DASHED
 70
    64
  3
__ __ __ __ __ __ __ __ __ __ __ __ __ __ __
 72
    65
 73
     2
 40
0.000330
 49
0.000220
 49
-0.000110
  0
LTYPE
  2
HIDDEN
 70
    64
  3
 _ _ _ _ _ _ _ _ _ _ _ _ _ _ _ _ _ _ _ _ _ _
 72
    65
 73
     2
 40
0.000165
 49
0.000110
 49
-0.000055
  0
LTYPE
  2
CENTER
 70
    64
  3
____ _ ____ _ ____ _ ____ _ ____ _ ____ _ ____
 72
    65
 73
     4
 40
0.000880
 49
0.000550
 49
-0.000110
 49
0.000110
 49
-0.000110
  0
LTYPE
  2
PHANTOM
 70
    64
  3
_____ _ _ _____ _ _ _____ _ _ _____ _ _ ____
 72
    65
 73
     6
 40
0.001100
 49
0.000550
 49
-0.000110
 49
0.000110
 49
-0.000110
 49
0.000110
 49
-0.000110
  0
LTYPE
  2
DOT
 70
    64
  3
...............................................
 72
    65
 73
     2
 40
0.000110
 49
0.000000
 49
-0.000110
  0
LTYPE
  2
DASHDOT
 70
    64
  3
__ . __ . __ . __ . __ . __ . __ . __ . __ . __
 72
    65
 73
     4
 40
0.000440
 49
0.000220
 49
-0.000110
 49
0.000000
 49
-0.000110
  0
LTYPE
  2
BORDER
 70
    64
  3
__ __ . __ __ . __ __ . __ __ . __ __ . __ __
 72
    65
 73
     6
 40
0.000770
 49
0.000220
 49
-0.000110
 49
0.000220
 49
-0.000110
 49
0.000000
 49
-0.000110
  0
LTYPE
  2
DIVIDE
 70
    64
  3
__ . . __ . . __ . . __ . . __ . . __ . . __
 72
    65
 73
     6
 40
0.000550
 49
0.000220
 49
-0.000110
 49
0.000000
 49
-0.000110
 49
0.000000
 49
-0.000110
  0
LTYPE
  2
DOTDOT
 70
    64
  3
 . .  . .  . .  . .  . .  . . 
 72
    65
 73
     5
 40
0.000242
 49
-0.000110
 49
0.000000
 49
-0.000110
 49
0.000000
 49
-0.000110
  0
ENDTAB
  0
TABLE
  2
STYLE
 70
     2
  0
STYLE
 70
     0
  2
SN0
 40
0.000000
 41
0.000440
 50
0.000000
 71
     0
 42
0.000000
  3
ROMAND
  0
STYLE
 70
    68
  2
SV0
 40
0.000000
 41
0.000440
 50
0.000000
 71
     0
 42
0.000000
  3
ROMAND
  0
ENDTAB
  0
TABLE
  2
LAYER
 70
     3
  0
LAYER
  2
FOREGROUND
 70
    64
 62
     7
  6
CONTINUOUS
  0
LAYER
  2
BACKGROUND
 70
    65
 62
    -7
  6
CONTINUOUS
  0
LAYER
  2
0
 70
    64
 62
     7
  6
CONTINUOUS
  0
ENDTAB
  0
ENDSEC
  0
SECTION
  2
ENTITIES
  0
POLYLINE
  8
FOREGROUND
  6
CONTINUOUS
 66
     1
 40
0.000000
 41
0.000000
  0
VERTEX
  8
FOREGROUND
  6
CONTINUOUS
 10
0.000000
 20
10.999560
  0
VERTEX
  8
FOREGROUND
  6
CONTINUOUS
 10
8.499920
 20
10.999560
  0
VERTEX
  8
FOREGROUND
  6
CONTINUOUS
 10
8.499920
 20
-0.000440
  0
VERTEX
  8
FOREGROUND
  6
CONTINUOUS
 10
0.000000
 20
-0.000440
  0
VERTEX
  8
FOREGROUND
  6
CONTINUOUS
 10
0.000000
 20
10.999560
  0
SEQEND
  8
0
  0
POLYLINE
  8
FOREGROUND
  6
CONTINUOUS
 66
     1
 40
0.000000
 41
0.000000
  0
VERTEX
  8
FOREGROUND
  6
CONTINUOUS
 10
0.000000
 20
10.999560
  0
VERTEX
  8
FOREGROUND
  6
CONTINUOUS
 10
8.499920
 20
10.999560
  0
VERTEX
  8
FOREGROUND
  6
CONTINUOUS
 10
8.499920
 20
-0.000440
  0
VERTEX
  8
FOREGROUND
  6
CONTINUOUS
 10
0.000000
 20
-0.000440
  0
VERTEX
  8
FOREGROUND
  6
CONTINUOUS
 10
0.000000
 20
10.999560
  0
SEQEND
  8
0
  0
TEXT
  8
0
 10
3.067240
 20
4.772680
 40
0.138085
  1
BA  12 & 13
 41
1.000000
  7
SN0
 71
     0
 72
     5
 11
3.951309
 21
4.772680
  0
TEXT
  8
0
 10
3.201880
 20
4.581280
 40
0.138085
  1
3/4" x 1" 
 41
1.000000
  7
SN0
 71
     0
 72
     5
 11
3.862043
 21
4.581280
  0
SOLID
  8
0
 62
     7
 10
3.579400
 20
5.688760
 11
4.213000
 21
6.058360
 12
3.576760
 22
5.625840
 13
4.210360
 23
5.995440
  0
POLYLINE
  8
0
  6
CONTINUOUS
 66
     1
 40
0.000000
 41
0.000000
  0
VERTEX
  8
0
  6
CONTINUOUS
 10
3.579400
 20
5.688760
  0
VERTEX
  8
0
  6
CONTINUOUS
 10
4.213000
 20
6.058360
  0
VERTEX
  8
0
  6
CONTINUOUS
 10
4.210360
 20
5.995440
  0
VERTEX
  8
0
  6
CONTINUOUS
 10
3.576760
 20
5.625840
  0
VERTEX
  8
0
  6
CONTINUOUS
 10
3.579400
 20
5.688760
  0
SEQEND
  8
0
  0
SOLID
  8
0
 62
    15
 10
3.227840
 20
6.054840
 11
3.861440
 21
6.424880
 12
3.267880
 22
6.050000
 13
3.901480
 23
6.420040
  0
POLYLINE
  8
0
  6
CONTINUOUS
 66
     1
 40
0.000000
 41
0.000000
  0
VERTEX
  8
0
  6
CONTINUOUS
 10
3.227840
 20
6.054840
  0
VERTEX
  8
0
  6
CONTINUOUS
 10
3.861440
 20
6.424880
  0
VERTEX
  8
0
  6
CONTINUOUS
 10
3.901480
 20
6.420040
  0
VERTEX
  8
0
  6
CONTINUOUS
 10
3.267880
 20
6.050000
  0
VERTEX
  8
0
  6
CONTINUOUS
 10
3.227840
 20
6.054840
  0
SEQEND
  8
0
  0
SOLID
  8
0
 62
    15
 10
3.267880
 20
6.050000
 11
3.901480
 21
6.420040
 12
3.305720
 22
6.042520
 13
3.938880
 23
6.412120
  0
POLYLINE
  8
0
  6
CONTINUOUS
 66
     1
 40
0.000000
 41
0.000000
  0
VERTEX
  8
0
  6
CONTINUOUS
 10
3.267880
 20
6.050000
  0
VERTEX
  8
0
  6
CONTINUOUS
 10
3.901480
 20
6.420040
  0
VERTEX
  8
0
  6
CONTINUOUS
 10
3.938880
 20
6.412120
  0
VERTEX
  8
0
  6
CONTINUOUS
 10
3.305720
 20
6.042520
  0
VERTEX
  8
0
  6
CONTINUOUS
 10
3.267880
 20
6.050000
  0
SEQEND
  8
0
  0
SOLID
  8
0
 62
    15
 10
3.305720
 20
6.042520
 11
3.938880
 21
6.412120
 12
3.340480
 22
6.031960
 13
3.974080
 23
6.401560
  0
POLYLINE
  8
0
  6
CONTINUOUS
 66
     1
 40
0.000000
 41
0.000000
  0
VERTEX
  8
0
  6
CONTINUOUS
 10
3.305720
 20
6.042520
  0
VERTEX
  8
0
  6
CONTINUOUS
 10
3.938880
 20
6.412120
  0
VERTEX
  8
0
  6
CONTINUOUS
 10
3.974080
 20
6.401560
  0
VERTEX
  8
0
  6
CONTINUOUS
 10
3.340480
 20
6.031960
  0
VERTEX
  8
0
  6
CONTINUOUS
 10
3.305720
 20
6.042520
  0
SEQEND
  8
0
  0
SOLID
  8
0
 62
    15
 10
3.340480
 20
6.031960
 11
3.974080
 21
6.401560
 12
3.403400
 22
6.002920
 13
4.036560
 23
6.372960
  0
POLYLINE
  8
0
  6
CONTINUOUS
 66
     1
 40
0.000000
 41
0.000000
  0
VERTEX
  8
0
  6
CONTINUOUS
 10
3.340480
 20
6.031960
  0
VERTEX
  8
0
  6
CONTINUOUS
 10
3.974080
 20
6.401560
  0
VERTEX
  8
0
  6
CONTINUOUS
 10
4.036560
 20
6.372960
  0
VERTEX
  8
0
  6
CONTINUOUS
 10
3.403400
 20
6.002920
  0
VERTEX
  8
0
  6
CONTINUOUS
 10
3.340480
 20
6.031960
  0
SEQEND
  8
0
  0
SOLID
  8
0
 62
    15
 10
3.403400
 20
6.002920
 11
4.036560
 21
6.372960
 12
3.456200
 22
5.965080
 13
4.089800
 23
6.335120
  0
POLYLINE
  8
0
  6
CONTINUOUS
 66
     1
 40
0.000000
 41
0.000000
  0
VERTEX
  8
0
  6
CONTINUOUS
 10
3.403400
 20
6.002920
  0
VERTEX
  8
0
  6
CONTINUOUS
 10
4.036560
 20
6.372960
  0
VERTEX
  8
0
  6
CONTINUOUS
 10
4.089800
 20
6.335120
  0
VERTEX
  8
0
  6
CONTINUOUS
 10
3.456200
 20
5.965080
  0
VERTEX
  8
0
  6
CONTINUOUS
 10
3.403400
 20
6.002920
  0
SEQEND
  8
0
  0
SOLID
  8
0
 62
     7
 10
3.456200
 20
5.965080
 11
4.089800
 21
6.335120
 12
3.499760
 22
5.919760
 13
4.132920
 23
6.289360
  0
POLYLINE
  8
0
  6
CONTINUOUS
 66
     1
 40
0.000000
 41
0.000000
  0
VERTEX
  8
0
  6
CONTINUOUS
 10
3.456200
 20
5.965080
  0
VERTEX
  8
0
  6
CONTINUOUS
 10
4.089800
 20
6.335120
  0
VERTEX
  8
0
  6
CONTINUOUS
 10
4.132920
 20
6.289360
  0
VERTEX
  8
0
  6
CONTINUOUS
 10
3.499760
 20
5.919760
  0
VERTEX
  8
0
  6
CONTINUOUS
 10
3.456200
 20
5.965080
  0
SEQEND
  8
0
  0
SOLID
  8
0
 62
     7
 10
3.499760
 20
5.919760
 11
4.132920
 21
6.289360
 12
3.533640
 22
5.867840
 13
4.166800
 23
6.237440
  0
POLYLINE
  8
0
  6
CONTINUOUS
 66
     1
 40
0.000000
 41
0.000000
  0
VERTEX
  8
0
  6
CONTINUOUS
 10
3.499760
 20
5.919760
  0
VERTEX
  8
0
  6
CONTINUOUS
 10
4.132920
 20
6.289360
  0
VERTEX
  8
0
  6
CONTINUOUS
 10
4.166800
 20
6.237440
  0
VERTEX
  8
0
  6
CONTINUOUS
 10
3.533640
 20
5.867840
  0
VERTEX
  8
0
  6
CONTINUOUS
 10
3.499760
 20
5.919760
  0
SEQEND
  8
0
  0
SOLID
  8
0
 62
     7
 10
3.533640
 20
5.867840
 11
4.166800
 21
6.237440
 12
3.557840
 22
5.811080
 13
4.191440
 23
6.180680
  0
POLYLINE
  8
0
  6
CONTINUOUS
 66
     1
 40
0.000000
 41
0.000000
  0
VERTEX
  8
0
  6
CONTINUOUS
 10
3.533640
 20
5.867840
  0
VERTEX
  8
0
  6
CONTINUOUS
 10
4.166800
 20
6.237440
  0
VERTEX
  8
0
  6
CONTINUOUS
 10
4.191440
 20
6.180680
  0
VERTEX
  8
0
  6
CONTINUOUS
 10
3.557840
 20
5.811080
  0
VERTEX
  8
0
  6
CONTINUOUS
 10
3.533640
 20
5.867840
  0
SEQEND
  8
0
  0
SOLID
  8
0
 62
     7
 10
3.557840
 20
5.811080
 11
4.191440
 21
6.180680
 12
3.573240
 22
5.750800
 13
4.206840
 23
6.120400
  0
POLYLINE
  8
0
  6
CONTINUOUS
 66
     1
 40
0.000000
 41
0.000000
  0
VERTEX
  8
0
  6
CONTINUOUS
 10
3.557840
 20
5.811080
  0
VERTEX
  8
0
  6
CONTINUOUS
 10
4.191440
 20
6.180680
  0
VERTEX
  8
0
  6
CONTINUOUS
 10
4.206840
 20
6.120400
  0
VERTEX
  8
0
  6
CONTINUOUS
 10
3.573240
 20
5.750800
  0
VERTEX
  8
0
  6
CONTINUOUS
 10
3.557840
 20
5.811080
  0
SEQEND
  8
0
  0
SOLID
  8
0
 62
     7
 10
3.573240
 20
5.750800
 11
4.206840
 21
6.120400
 12
3.579400
 22
5.688760
 13
4.213000
 23
6.058360
  0
POLYLINE
  8
0
  6
CONTINUOUS
 66
     1
 40
0.000000
 41
0.000000
  0
VERTEX
  8
0
  6
CONTINUOUS
 10
3.573240
 20
5.750800
  0
VERTEX
  8
0
  6
CONTINUOUS
 10
4.206840
 20
6.120400
  0
VERTEX
  8
0
  6
CONTINUOUS
 10
4.213000
 20
6.058360
  0
VERTEX
  8
0
  6
CONTINUOUS
 10
3.579400
 20
5.688760
  0
VERTEX
  8
0
  6
CONTINUOUS
 10
3.573240
 20
5.750800
  0
SEQEND
  8
0
  0
SOLID
  8
0
 62
    15
 10
3.185160
 20
6.056600
 11
3.818760
 21
6.426200
 12
3.227840
 22
6.054840
 13
3.861440
 23
6.424880
  0
POLYLINE
  8
0
  6
CONTINUOUS
 66
     1
 40
0.000000
 41
0.000000
  0
VERTEX
  8
0
  6
CONTINUOUS
 10
3.185160
 20
6.056600
  0
VERTEX
  8
0
  6
CONTINUOUS
 10
3.818760
 20
6.426200
  0
VERTEX
  8
0
  6
CONTINUOUS
 10
3.861440
 20
6.424880
  0
VERTEX
  8
0
  6
CONTINUOUS
 10
3.227840
 20
6.054840
  0
VERTEX
  8
0
  6
CONTINUOUS
 10
3.185160
 20
6.056600
  0
SEQEND
  8
0
  0
SOLID
  8
0
 62
     7
 10
3.576760
 20
5.625840
 11
4.210360
 21
5.995440
 12
3.565320
 22
5.563800
 13
4.198920
 23
5.933400
  0
POLYLINE
  8
0
  6
CONTINUOUS
 66
     1
 40
0.000000
 41
0.000000
  0
VERTEX
  8
0
  6
CONTINUOUS
 10
3.576760
 20
5.625840
  0
VERTEX
  8
0
  6
CONTINUOUS
 10
4.210360
 20
5.995440
  0
VERTEX
  8
0
  6
CONTINUOUS
 10
4.198920
 20
5.933400
  0
VERTEX
  8
0
  6
CONTINUOUS
 10
3.565320
 20
5.563800
  0
VERTEX
  8
0
  6
CONTINUOUS
 10
3.576760
 20
5.625840
  0
SEQEND
  8
0
  0
SOLID
  8
0
 62
    15
 10
3.565320
 20
5.563800
 11
4.198920
 21
5.933400
 12
3.545520
 22
5.503520
 13
4.178680
 23
5.873560
  0
POLYLINE
  8
0
  6
CONTINUOUS
 66
     1
 40
0.000000
 41
0.000000
  0
VERTEX
  8
0
  6
CONTINUOUS
 10
3.565320
 20
5.563800
  0
VERTEX
  8
0
  6
CONTINUOUS
 10
4.198920
 20
5.933400
  0
VERTEX
  8
0
  6
CONTINUOUS
 10
4.178680
 20
5.873560
  0
VERTEX
  8
0
  6
CONTINUOUS
 10
3.545520
 20
5.503520
  0
VERTEX
  8
0
  6
CONTINUOUS
 10
3.565320
 20
5.563800
  0
SEQEND
  8
0
  0
SOLID
  8
0
 62
    15
 10
3.545520
 20
5.503520
 11
4.178680
 21
5.873560
 12
3.516920
 22
5.447200
 13
4.150080
 23
5.817240
  0
POLYLINE
  8
0
  6
CONTINUOUS
 66
     1
 40
0.000000
 41
0.000000
  0
VERTEX
  8
0
  6
CONTINUOUS
 10
3.545520
 20
5.503520
  0
VERTEX
  8
0
  6
CONTINUOUS
 10
4.178680
 20
5.873560
  0
VERTEX
  8
0
  6
CONTINUOUS
 10
4.150080
 20
5.817240
  0
VERTEX
  8
0
  6
CONTINUOUS
 10
3.516920
 20
5.447200
  0
VERTEX
  8
0
  6
CONTINUOUS
 10
3.545520
 20
5.503520
  0
SEQEND
  8
0
  0
SOLID
  8
0
 62
    15
 10
3.516920
 20
5.447200
 11
4.150080
 21
5.817240
 12
3.479960
 22
5.396160
 13
4.113120
 23
5.765760
  0
POLYLINE
  8
0
  6
CONTINUOUS
 66
     1
 40
0.000000
 41
0.000000
  0
VERTEX
  8
0
  6
CONTINUOUS
 10
3.516920
 20
5.447200
  0
VERTEX
  8
0
  6
CONTINUOUS
 10
4.150080
 20
5.817240
  0
VERTEX
  8
0
  6
CONTINUOUS
 10
4.113120
 20
5.765760
  0
VERTEX
  8
0
  6
CONTINUOUS
 10
3.479960
 20
5.396160
  0
VERTEX
  8
0
  6
CONTINUOUS
 10
3.516920
 20
5.447200
  0
SEQEND
  8
0
  0
SOLID
  8
0
 62
    15
 10
3.479960
 20
5.396160
 11
4.113120
 21
5.765760
 12
3.434640
 22
5.351280
 13
4.067800
 23
5.720880
  0
POLYLINE
  8
0
  6
CONTINUOUS
 66
     1
 40
0.000000
 41
0.000000
  0
VERTEX
  8
0
  6
CONTINUOUS
 10
3.479960
 20
5.396160
  0
VERTEX
  8
0
  6
CONTINUOUS
 10
4.113120
 20
5.765760
  0
VERTEX
  8
0
  6
CONTINUOUS
 10
4.067800
 20
5.720880
  0
VERTEX
  8
0
  6
CONTINUOUS
 10
3.434640
 20
5.351280
  0
VERTEX
  8
0
  6
CONTINUOUS
 10
3.479960
 20
5.396160
  0
SEQEND
  8
0
  0
SOLID
  8
0
 62
     7
 10
3.378760
 20
5.313880
 11
4.011920
 21
5.683920
 12
3.378760
 22
5.280440
 13
4.011920
 23
5.650480
  0
POLYLINE
  8
0
  6
CONTINUOUS
 66
     1
 40
0.000000
 41
0.000000
  0
VERTEX
  8
0
  6
CONTINUOUS
 10
3.378760
 20
5.313880
  0
VERTEX
  8
0
  6
CONTINUOUS
 10
4.011920
 20
5.683920
  0
VERTEX
  8
0
  6
CONTINUOUS
 10
4.011920
 20
5.650480
  0
VERTEX
  8
0
  6
CONTINUOUS
 10
3.378760
 20
5.280440
  0
VERTEX
  8
0
  6
CONTINUOUS
 10
3.378760
 20
5.313880
  0
SEQEND
  8
0
  0
SOLID
  8
0
 62
    15
 10
3.434640
 20
5.351280
 11
4.067800
 21
5.720880
 12
3.381400
 22
5.313880
 13
4.014560
 23
5.683920
  0
POLYLINE
  8
0
  6
CONTINUOUS
 66
     1
 40
0.000000
 41
0.000000
  0
VERTEX
  8
0
  6
CONTINUOUS
 10
3.434640
 20
5.351280
  0
VERTEX
  8
0
  6
CONTINUOUS
 10
4.067800
 20
5.720880
  0
VERTEX
  8
0
  6
CONTINUOUS
 10
4.014560
 20
5.683920
  0
VERTEX
  8
0
  6
CONTINUOUS
 10
3.381400
 20
5.313880
  0
VERTEX
  8
0
  6
CONTINUOUS
 10
3.434640
 20
5.351280
  0
SEQEND
  8
0
  0
SOLID
  8
0
 62
    15
 10
3.378760
 20
5.280440
 11
4.011920
 21
5.650480
 12
3.598760
 22
5.260640
 13
4.231920
 23
5.630240
  0
POLYLINE
  8
0
  6
CONTINUOUS
 66
     1
 40
0.000000
 41
0.000000
  0
VERTEX
  8
0
  6
CONTINUOUS
 10
3.378760
 20
5.280440
  0
VERTEX
  8
0
  6
CONTINUOUS
 10
4.011920
 20
5.650480
  0
VERTEX
  8
0
  6
CONTINUOUS
 10
4.231920
 20
5.630240
  0
VERTEX
  8
0
  6
CONTINUOUS
 10
3.598760
 20
5.260640
  0
VERTEX
  8
0
  6
CONTINUOUS
 10
3.378760
 20
5.280440
  0
SEQEND
  8
0
  0
SOLID
  8
0
 62
     7
 10
3.598760
 20
5.260640
 11
4.231920
 21
5.630240
 12
3.598760
 22
5.041960
 13
4.231920
 23
5.411560
  0
POLYLINE
  8
0
  6
CONTINUOUS
 66
     1
 40
0.000000
 41
0.000000
  0
VERTEX
  8
0
  6
CONTINUOUS
 10
3.598760
 20
5.260640
  0
VERTEX
  8
0
  6
CONTINUOUS
 10
4.231920
 20
5.630240
  0
VERTEX
  8
0
  6
CONTINUOUS
 10
4.231920
 20
5.411560
  0
VERTEX
  8
0
  6
CONTINUOUS
 10
3.598760
 20
5.041960
  0
VERTEX
  8
0
  6
CONTINUOUS
 10
3.598760
 20
5.260640
  0
SEQEND
  8
0
  0
SOLID
  8
0
 62
    15
 10
2.842840
 20
6.056600
 11
3.476000
 21
6.426200
 12
3.179880
 22
6.056600
 13
3.813480
 23
6.426200
  0
POLYLINE
  8
0
  6
CONTINUOUS
 66
     1
 40
0.000000
 41
0.000000
  0
VERTEX
  8
0
  6
CONTINUOUS
 10
2.842840
 20
6.056600
  0
VERTEX
  8
0
  6
CONTINUOUS
 10
3.476000
 20
6.426200
  0
VERTEX
  8
0
  6
CONTINUOUS
 10
3.813480
 20
6.426200
  0
VERTEX
  8
0
  6
CONTINUOUS
 10
3.179880
 20
6.056600
  0
VERTEX
  8
0
  6
CONTINUOUS
 10
2.842840
 20
6.056600
  0
SEQEND
  8
0
  0
SOLID
  8
0
 62
    15
 10
3.179880
 20
6.056600
 11
3.813480
 21
6.426200
 12
3.185160
 22
6.056600
 13
3.818760
 23
6.426200
  0
POLYLINE
  8
0
  6
CONTINUOUS
 66
     1
 40
0.000000
 41
0.000000
  0
VERTEX
  8
0
  6
CONTINUOUS
 10
3.179880
 20
6.056600
  0
VERTEX
  8
0
  6
CONTINUOUS
 10
3.813480
 20
6.426200
  0
VERTEX
  8
0
  6
CONTINUOUS
 10
3.818760
 20
6.426200
  0
VERTEX
  8
0
  6
CONTINUOUS
 10
3.185160
 20
6.056600
  0
VERTEX
  8
0
  6
CONTINUOUS
 10
3.179880
 20
6.056600
  0
SEQEND
  8
0
  0
POLYLINE
  8
0
  6
CONTINUOUS
 66
     1
 40
0.000000
 41
0.000000
  0
VERTEX
  8
0
  6
CONTINUOUS
 10
3.185160
 20
6.056600
  0
VERTEX
  8
0
  6
CONTINUOUS
 10
3.227840
 20
6.054840
  0
VERTEX
  8
0
  6
CONTINUOUS
 10
3.267880
 20
6.050000
  0
VERTEX
  8
0
  6
CONTINUOUS
 10
3.305720
 20
6.042520
  0
VERTEX
  8
0
  6
CONTINUOUS
 10
3.340480
 20
6.031960
  0
VERTEX
  8
0
  6
CONTINUOUS
 10
3.403400
 20
6.002920
  0
VERTEX
  8
0
  6
CONTINUOUS
 10
3.456200
 20
5.965080
  0
VERTEX
  8
0
  6
CONTINUOUS
 10
3.499760
 20
5.919760
  0
VERTEX
  8
0
  6
CONTINUOUS
 10
3.533640
 20
5.867840
  0
VERTEX
  8
0
  6
CONTINUOUS
 10
3.557840
 20
5.811080
  0
VERTEX
  8
0
  6
CONTINUOUS
 10
3.573240
 20
5.750800
  0
VERTEX
  8
0
  6
CONTINUOUS
 10
3.579400
 20
5.688760
  0
VERTEX
  8
0
  6
CONTINUOUS
 10
3.576760
 20
5.625840
  0
VERTEX
  8
0
  6
CONTINUOUS
 10
3.565320
 20
5.563800
  0
VERTEX
  8
0
  6
CONTINUOUS
 10
3.545520
 20
5.503520
  0
VERTEX
  8
0
  6
CONTINUOUS
 10
3.516920
 20
5.447200
  0
VERTEX
  8
0
  6
CONTINUOUS
 10
3.479960
 20
5.396160
  0
VERTEX
  8
0
  6
CONTINUOUS
 10
3.434640
 20
5.351280
  0
VERTEX
  8
0
  6
CONTINUOUS
 10
3.381400
 20
5.313880
  0
VERTEX
  8
0
  6
CONTINUOUS
 10
3.378760
 20
5.313880
  0
VERTEX
  8
0
  6
CONTINUOUS
 10
3.378760
 20
5.280440
  0
VERTEX
  8
0
  6
CONTINUOUS
 10
3.598760
 20
5.260640
  0
VERTEX
  8
0
  6
CONTINUOUS
 10
3.598760
 20
5.041960
  0
VERTEX
  8
0
  6
CONTINUOUS
 10
2.841520
 20
5.041960
  0
VERTEX
  8
0
  6
CONTINUOUS
 10
2.841520
 20
5.044600
  0
VERTEX
  8
0
  6
CONTINUOUS
 10
2.842840
 20
5.047240
  0
VERTEX
  8
0
  6
CONTINUOUS
 10
2.842840
 20
6.056600
  0
VERTEX
  8
0
  6
CONTINUOUS
 10
3.179880
 20
6.056600
  0
VERTEX
  8
0
  6
CONTINUOUS
 10
3.185160
 20
6.056600
  0
SEQEND
  8
0
  0
POLYLINE
  8
0
  6
CONTINUOUS
 66
     1
 40
0.014080
 41
0.014080
  0
VERTEX
  8
0
  6
CONTINUOUS
 10
5.161640
 20
6.453920
  0
VERTEX
  8
0
  6
CONTINUOUS
 10
5.204320
 20
6.452160
  0
VERTEX
  8
0
  6
CONTINUOUS
 10
5.244360
 20
6.447320
  0
VERTEX
  8
0
  6
CONTINUOUS
 10
5.281760
 20
6.439840
  0
VERTEX
  8
0
  6
CONTINUOUS
 10
5.316960
 20
6.429280
  0
VERTEX
  8
0
  6
CONTINUOUS
 10
5.364920
 20
6.408600
  0
VERTEX
  8
0
  6
CONTINUOUS
 10
5.407600
 20
6.382640
  0
VERTEX
  8
0
  6
CONTINUOUS
 10
5.444560
 20
6.351840
  0
VERTEX
  8
0
  6
CONTINUOUS
 10
5.476240
 20
6.316640
  0
VERTEX
  8
0
  6
CONTINUOUS
 10
5.494280
 20
6.291560
  0
VERTEX
  8
0
  6
CONTINUOUS
 10
5.517160
 20
6.251080
  0
VERTEX
  8
0
  6
CONTINUOUS
 10
5.534320
 20
6.208400
  0
VERTEX
  8
0
  6
CONTINUOUS
 10
5.543120
 20
6.178480
  0
VERTEX
  8
0
  6
CONTINUOUS
 10
5.549720
 20
6.148120
  0
VERTEX
  8
0
  6
CONTINUOUS
 10
5.554120
 20
6.117320
  0
VERTEX
  8
0
  6
CONTINUOUS
 10
5.555880
 20
6.085640
  0
VERTEX
  8
0
  6
CONTINUOUS
 10
5.555880
 20
6.054400
  0
VERTEX
  8
0
  6
CONTINUOUS
 10
5.553240
 20
6.023160
  0
VERTEX
  8
0
  6
CONTINUOUS
 10
5.548840
 20
5.991920
  0
VERTEX
  8
0
  6
CONTINUOUS
 10
5.541800
 20
5.960680
  0
VERTEX
  8
0
  6
CONTINUOUS
 10
5.533000
 20
5.930760
  0
VERTEX
  8
0
  6
CONTINUOUS
 10
5.522000
 20
5.900840
  0
VERTEX
  8
0
  6
CONTINUOUS
 10
5.508800
 20
5.872240
  0
VERTEX
  8
0
  6
CONTINUOUS
 10
5.493400
 20
5.844520
  0
VERTEX
  8
0
  6
CONTINUOUS
 10
5.466120
 20
5.805360
  0
VERTEX
  8
0
  6
CONTINUOUS
 10
5.434880
 20
5.769720
  0
VERTEX
  8
0
  6
CONTINUOUS
 10
5.398360
 20
5.738040
  0
VERTEX
  8
0
  6
CONTINUOUS
 10
5.357880
 20
5.711200
  0
VERTEX
  8
0
  6
CONTINUOUS
 10
5.355240
 20
5.711200
  0
VERTEX
  8
0
  6
CONTINUOUS
 10
5.355240
 20
5.677760
  0
VERTEX
  8
0
  6
CONTINUOUS
 10
5.575240
 20
5.657960
  0
VERTEX
  8
0
  6
CONTINUOUS
 10
5.575240
 20
5.439280
  0
VERTEX
  8
0
  6
CONTINUOUS
 10
4.818000
 20
5.439280
  0
VERTEX
  8
0
  6
CONTINUOUS
 10
4.818000
 20
5.441920
  0
VERTEX
  8
0
  6
CONTINUOUS
 10
4.819320
 20
5.444560
  0
VERTEX
  8
0
  6
CONTINUOUS
 10
4.819320
 20
6.453920
  0
VERTEX
  8
0
  6
CONTINUOUS
 10
5.161640
 20
6.453920
  0
SEQEND
  8
0
  0
TEXT
  8
0
 10
4.718560
 20
5.132600
 40
0.138085
  1
BA  12 & 13
 41
1.000000
  7
SN0
 71
     0
 72
     5
 11
5.602629
 21
5.132600
  0
TEXT
  8
0
 10
4.853200
 20
4.941200
 40
0.138085
  1
3/4" x 1" 
 41
1.000000
  7
SN0
 71
     0
 72
     5
 11
5.513363
 21
4.941200
  0
ENDSEC
  0
EOF
