  0
SECTION
  2
HEADER
  9
$ACADVER
  1
AC1006
  9
$EXTMIN
 10
3.139840
 20
4.451040
  9
$EXTMAX
 10
5.360080
 20
6.548520
  9
$LTSCALE
 40
0.044000
  9
$PDMODE
 70
    35
  9
$PDSIZE
 40
0.035200
  0
ENDSEC
  0
SECTION
  2
TABLES
  0
TABLE
  2
LTYPE
 70
     9
  0
LTYPE
  2
CONTINUOUS
 70
    64
  3
Solid line
 72
    65
 73
     0
 40
0.000000
  0
LTYPE
  2
DASHED
 70
    64
  3
__ __ __ __ __ __ __ __ __ __ __ __ __ __ __
 72
    65
 73
     2
 40
0.000330
 49
0.000220
 49
-0.000110
  0
LTYPE
  2
HIDDEN
 70
    64
  3
 _ _ _ _ _ _ _ _ _ _ _ _ _ _ _ _ _ _ _ _ _ _
 72
    65
 73
     2
 40
0.000165
 49
0.000110
 49
-0.000055
  0
LTYPE
  2
CENTER
 70
    64
  3
____ _ ____ _ ____ _ ____ _ ____ _ ____ _ ____
 72
    65
 73
     4
 40
0.000880
 49
0.000550
 49
-0.000110
 49
0.000110
 49
-0.000110
  0
LTYPE
  2
PHANTOM
 70
    64
  3
_____ _ _ _____ _ _ _____ _ _ _____ _ _ ____
 72
    65
 73
     6
 40
0.001100
 49
0.000550
 49
-0.000110
 49
0.000110
 49
-0.000110
 49
0.000110
 49
-0.000110
  0
LTYPE
  2
DOT
 70
    64
  3
...............................................
 72
    65
 73
     2
 40
0.000110
 49
0.000000
 49
-0.000110
  0
LTYPE
  2
DASHDOT
 70
    64
  3
__ . __ . __ . __ . __ . __ . __ . __ . __ . __
 72
    65
 73
     4
 40
0.000440
 49
0.000220
 49
-0.000110
 49
0.000000
 49
-0.000110
  0
LTYPE
  2
BORDER
 70
    64
  3
__ __ . __ __ . __ __ . __ __ . __ __ . __ __
 72
    65
 73
     6
 40
0.000770
 49
0.000220
 49
-0.000110
 49
0.000220
 49
-0.000110
 49
0.000000
 49
-0.000110
  0
LTYPE
  2
DIVIDE
 70
    64
  3
__ . . __ . . __ . . __ . . __ . . __ . . __
 72
    65
 73
     6
 40
0.000550
 49
0.000220
 49
-0.000110
 49
0.000000
 49
-0.000110
 49
0.000000
 49
-0.000110
  0
LTYPE
  2
DOTDOT
 70
    64
  3
 . .  . .  . .  . .  . .  . . 
 72
    65
 73
     5
 40
0.000242
 49
-0.000110
 49
0.000000
 49
-0.000110
 49
0.000000
 49
-0.000110
  0
ENDTAB
  0
TABLE
  2
STYLE
 70
     2
  0
STYLE
 70
     0
  2
SN0
 40
0.000000
 41
0.000440
 50
0.000000
 71
     0
 42
0.000000
  3
ROMAND
  0
STYLE
 70
    68
  2
SV0
 40
0.000000
 41
0.000440
 50
0.000000
 71
     0
 42
0.000000
  3
ROMAND
  0
ENDTAB
  0
TABLE
  2
LAYER
 70
     3
  0
LAYER
  2
FOREGROUND
 70
    64
 62
     7
  6
CONTINUOUS
  0
LAYER
  2
BACKGROUND
 70
    65
 62
    -7
  6
CONTINUOUS
  0
LAYER
  2
0
 70
    64
 62
     7
  6
CONTINUOUS
  0
ENDTAB
  0
ENDSEC
  0
SECTION
  2
ENTITIES
  0
POLYLINE
  8
FOREGROUND
  6
CONTINUOUS
 66
     1
 40
0.000000
 41
0.000000
  0
VERTEX
  8
FOREGROUND
  6
CONTINUOUS
 10
0.000000
 20
10.999560
  0
VERTEX
  8
FOREGROUND
  6
CONTINUOUS
 10
8.499920
 20
10.999560
  0
VERTEX
  8
FOREGROUND
  6
CONTINUOUS
 10
8.499920
 20
-0.000440
  0
VERTEX
  8
FOREGROUND
  6
CONTINUOUS
 10
0.000000
 20
-0.000440
  0
VERTEX
  8
FOREGROUND
  6
CONTINUOUS
 10
0.000000
 20
10.999560
  0
SEQEND
  8
0
  0
POLYLINE
  8
FOREGROUND
  6
CONTINUOUS
 66
     1
 40
0.000000
 41
0.000000
  0
VERTEX
  8
FOREGROUND
  6
CONTINUOUS
 10
0.000000
 20
10.999560
  0
VERTEX
  8
FOREGROUND
  6
CONTINUOUS
 10
8.499920
 20
10.999560
  0
VERTEX
  8
FOREGROUND
  6
CONTINUOUS
 10
8.499920
 20
-0.000440
  0
VERTEX
  8
FOREGROUND
  6
CONTINUOUS
 10
0.000000
 20
-0.000440
  0
VERTEX
  8
FOREGROUND
  6
CONTINUOUS
 10
0.000000
 20
10.999560
  0
SEQEND
  8
0
  0
TEXT
  8
0
 10
3.694240
 20
4.686440
 40
0.138095
  1
BA  11
 41
1.000000
  7
SN0
 71
     0
 72
     5
 11
4.192129
 21
4.686440
  0
TEXT
  8
0
 10
3.444320
 20
4.495040
 40
0.138095
  1
1/2" x 15"/16"
 41
1.000000
  7
SN0
 71
     0
 72
     5
 11
4.440653
 21
4.495040
  0
SOLID
  8
0
 62
     7
 10
4.083200
 20
5.327520
 11
4.730440
 21
5.679520
 12
4.092880
 22
5.295840
 13
4.740560
 23
5.647840
  0
POLYLINE
  8
0
  6
CONTINUOUS
 66
     1
 40
0.000000
 41
0.000000
  0
VERTEX
  8
0
  6
CONTINUOUS
 10
4.083200
 20
5.327520
  0
VERTEX
  8
0
  6
CONTINUOUS
 10
4.730440
 20
5.679520
  0
VERTEX
  8
0
  6
CONTINUOUS
 10
4.740560
 20
5.647840
  0
VERTEX
  8
0
  6
CONTINUOUS
 10
4.092880
 20
5.295840
  0
VERTEX
  8
0
  6
CONTINUOUS
 10
4.083200
 20
5.327520
  0
SEQEND
  8
0
  0
SOLID
  8
0
 62
    15
 10
3.140280
 20
5.430480
 11
3.787520
 21
5.782480
 12
3.927880
 22
5.430480
 13
4.575560
 23
5.782480
  0
POLYLINE
  8
0
  6
CONTINUOUS
 66
     1
 40
0.000000
 41
0.000000
  0
VERTEX
  8
0
  6
CONTINUOUS
 10
3.140280
 20
5.430480
  0
VERTEX
  8
0
  6
CONTINUOUS
 10
3.787520
 20
5.782480
  0
VERTEX
  8
0
  6
CONTINUOUS
 10
4.575560
 20
5.782480
  0
VERTEX
  8
0
  6
CONTINUOUS
 10
3.927880
 20
5.430480
  0
VERTEX
  8
0
  6
CONTINUOUS
 10
3.140280
 20
5.430480
  0
SEQEND
  8
0
  0
SOLID
  8
0
 62
     7
 10
3.927880
 20
5.430480
 11
4.575560
 21
5.782480
 12
3.961760
 22
5.426960
 13
4.609440
 23
5.778960
  0
POLYLINE
  8
0
  6
CONTINUOUS
 66
     1
 40
0.000000
 41
0.000000
  0
VERTEX
  8
0
  6
CONTINUOUS
 10
3.927880
 20
5.430480
  0
VERTEX
  8
0
  6
CONTINUOUS
 10
4.575560
 20
5.782480
  0
VERTEX
  8
0
  6
CONTINUOUS
 10
4.609440
 20
5.778960
  0
VERTEX
  8
0
  6
CONTINUOUS
 10
3.961760
 20
5.426960
  0
VERTEX
  8
0
  6
CONTINUOUS
 10
3.927880
 20
5.430480
  0
SEQEND
  8
0
  0
SOLID
  8
0
 62
     7
 10
3.961760
 20
5.426960
 11
4.609440
 21
5.778960
 12
3.993440
 22
5.417280
 13
4.641120
 23
5.769280
  0
POLYLINE
  8
0
  6
CONTINUOUS
 66
     1
 40
0.000000
 41
0.000000
  0
VERTEX
  8
0
  6
CONTINUOUS
 10
3.961760
 20
5.426960
  0
VERTEX
  8
0
  6
CONTINUOUS
 10
4.609440
 20
5.778960
  0
VERTEX
  8
0
  6
CONTINUOUS
 10
4.641120
 20
5.769280
  0
VERTEX
  8
0
  6
CONTINUOUS
 10
3.993440
 20
5.417280
  0
VERTEX
  8
0
  6
CONTINUOUS
 10
3.961760
 20
5.426960
  0
SEQEND
  8
0
  0
SOLID
  8
0
 62
     7
 10
3.993440
 20
5.417280
 11
4.641120
 21
5.769280
 12
4.022040
 22
5.401440
 13
4.669720
 23
5.753440
  0
POLYLINE
  8
0
  6
CONTINUOUS
 66
     1
 40
0.000000
 41
0.000000
  0
VERTEX
  8
0
  6
CONTINUOUS
 10
3.993440
 20
5.417280
  0
VERTEX
  8
0
  6
CONTINUOUS
 10
4.641120
 20
5.769280
  0
VERTEX
  8
0
  6
CONTINUOUS
 10
4.669720
 20
5.753440
  0
VERTEX
  8
0
  6
CONTINUOUS
 10
4.022040
 20
5.401440
  0
VERTEX
  8
0
  6
CONTINUOUS
 10
3.993440
 20
5.417280
  0
SEQEND
  8
0
  0
SOLID
  8
0
 62
     7
 10
4.022040
 20
5.401440
 11
4.669720
 21
5.753440
 12
4.047120
 22
5.380760
 13
4.694360
 23
5.733200
  0
POLYLINE
  8
0
  6
CONTINUOUS
 66
     1
 40
0.000000
 41
0.000000
  0
VERTEX
  8
0
  6
CONTINUOUS
 10
4.022040
 20
5.401440
  0
VERTEX
  8
0
  6
CONTINUOUS
 10
4.669720
 20
5.753440
  0
VERTEX
  8
0
  6
CONTINUOUS
 10
4.694360
 20
5.733200
  0
VERTEX
  8
0
  6
CONTINUOUS
 10
4.047120
 20
5.380760
  0
VERTEX
  8
0
  6
CONTINUOUS
 10
4.022040
 20
5.401440
  0
SEQEND
  8
0
  0
SOLID
  8
0
 62
     7
 10
4.047120
 20
5.380760
 11
4.694360
 21
5.733200
 12
4.067800
 22
5.356120
 13
4.715040
 23
5.708120
  0
POLYLINE
  8
0
  6
CONTINUOUS
 66
     1
 40
0.000000
 41
0.000000
  0
VERTEX
  8
0
  6
CONTINUOUS
 10
4.047120
 20
5.380760
  0
VERTEX
  8
0
  6
CONTINUOUS
 10
4.694360
 20
5.733200
  0
VERTEX
  8
0
  6
CONTINUOUS
 10
4.715040
 20
5.708120
  0
VERTEX
  8
0
  6
CONTINUOUS
 10
4.067800
 20
5.356120
  0
VERTEX
  8
0
  6
CONTINUOUS
 10
4.047120
 20
5.380760
  0
SEQEND
  8
0
  0
SOLID
  8
0
 62
     7
 10
4.067800
 20
5.356120
 11
4.715040
 21
5.708120
 12
4.083200
 22
5.327520
 13
4.730440
 23
5.679520
  0
POLYLINE
  8
0
  6
CONTINUOUS
 66
     1
 40
0.000000
 41
0.000000
  0
VERTEX
  8
0
  6
CONTINUOUS
 10
4.067800
 20
5.356120
  0
VERTEX
  8
0
  6
CONTINUOUS
 10
4.715040
 20
5.708120
  0
VERTEX
  8
0
  6
CONTINUOUS
 10
4.730440
 20
5.679520
  0
VERTEX
  8
0
  6
CONTINUOUS
 10
4.083200
 20
5.327520
  0
VERTEX
  8
0
  6
CONTINUOUS
 10
4.067800
 20
5.356120
  0
SEQEND
  8
0
  0
SOLID
  8
0
 62
    15
 10
3.875960
 20
5.093000
 11
4.523640
 21
5.445000
 12
3.875960
 22
4.922720
 13
4.523640
 23
5.274720
  0
POLYLINE
  8
0
  6
CONTINUOUS
 66
     1
 40
0.000000
 41
0.000000
  0
VERTEX
  8
0
  6
CONTINUOUS
 10
3.875960
 20
5.093000
  0
VERTEX
  8
0
  6
CONTINUOUS
 10
4.523640
 20
5.445000
  0
VERTEX
  8
0
  6
CONTINUOUS
 10
4.523640
 20
5.274720
  0
VERTEX
  8
0
  6
CONTINUOUS
 10
3.875960
 20
4.922720
  0
VERTEX
  8
0
  6
CONTINUOUS
 10
3.875960
 20
5.093000
  0
SEQEND
  8
0
  0
SOLID
  8
0
 62
    15
 10
4.092880
 20
5.295840
 11
4.740560
 21
5.647840
 12
4.096400
 22
5.261960
 13
4.743640
 23
5.613960
  0
POLYLINE
  8
0
  6
CONTINUOUS
 66
     1
 40
0.000000
 41
0.000000
  0
VERTEX
  8
0
  6
CONTINUOUS
 10
4.092880
 20
5.295840
  0
VERTEX
  8
0
  6
CONTINUOUS
 10
4.740560
 20
5.647840
  0
VERTEX
  8
0
  6
CONTINUOUS
 10
4.743640
 20
5.613960
  0
VERTEX
  8
0
  6
CONTINUOUS
 10
4.096400
 20
5.261960
  0
VERTEX
  8
0
  6
CONTINUOUS
 10
4.092880
 20
5.295840
  0
SEQEND
  8
0
  0
SOLID
  8
0
 62
    15
 10
4.096400
 20
5.261960
 11
4.743640
 21
5.613960
 12
4.092880
 22
5.227640
 13
4.740560
 23
5.580080
  0
POLYLINE
  8
0
  6
CONTINUOUS
 66
     1
 40
0.000000
 41
0.000000
  0
VERTEX
  8
0
  6
CONTINUOUS
 10
4.096400
 20
5.261960
  0
VERTEX
  8
0
  6
CONTINUOUS
 10
4.743640
 20
5.613960
  0
VERTEX
  8
0
  6
CONTINUOUS
 10
4.740560
 20
5.580080
  0
VERTEX
  8
0
  6
CONTINUOUS
 10
4.092880
 20
5.227640
  0
VERTEX
  8
0
  6
CONTINUOUS
 10
4.096400
 20
5.261960
  0
SEQEND
  8
0
  0
SOLID
  8
0
 62
    15
 10
4.092880
 20
5.227640
 11
4.740560
 21
5.580080
 12
4.083200
 22
5.196400
 13
4.730440
 23
5.548400
  0
POLYLINE
  8
0
  6
CONTINUOUS
 66
     1
 40
0.000000
 41
0.000000
  0
VERTEX
  8
0
  6
CONTINUOUS
 10
4.092880
 20
5.227640
  0
VERTEX
  8
0
  6
CONTINUOUS
 10
4.740560
 20
5.580080
  0
VERTEX
  8
0
  6
CONTINUOUS
 10
4.730440
 20
5.548400
  0
VERTEX
  8
0
  6
CONTINUOUS
 10
4.083200
 20
5.196400
  0
VERTEX
  8
0
  6
CONTINUOUS
 10
4.092880
 20
5.227640
  0
SEQEND
  8
0
  0
SOLID
  8
0
 62
    15
 10
3.927880
 20
5.093440
 11
4.575560
 21
5.445440
 12
3.927880
 22
5.093000
 13
4.575560
 23
5.445000
  0
POLYLINE
  8
0
  6
CONTINUOUS
 66
     1
 40
0.000000
 41
0.000000
  0
VERTEX
  8
0
  6
CONTINUOUS
 10
3.927880
 20
5.093440
  0
VERTEX
  8
0
  6
CONTINUOUS
 10
4.575560
 20
5.445440
  0
VERTEX
  8
0
  6
CONTINUOUS
 10
4.575560
 20
5.445000
  0
VERTEX
  8
0
  6
CONTINUOUS
 10
3.927880
 20
5.093000
  0
VERTEX
  8
0
  6
CONTINUOUS
 10
3.927880
 20
5.093440
  0
SEQEND
  8
0
  0
SOLID
  8
0
 62
    15
 10
4.067800
 20
5.167800
 11
4.715040
 21
5.519800
 12
4.047120
 22
5.142720
 13
4.694360
 23
5.494720
  0
POLYLINE
  8
0
  6
CONTINUOUS
 66
     1
 40
0.000000
 41
0.000000
  0
VERTEX
  8
0
  6
CONTINUOUS
 10
4.067800
 20
5.167800
  0
VERTEX
  8
0
  6
CONTINUOUS
 10
4.715040
 20
5.519800
  0
VERTEX
  8
0
  6
CONTINUOUS
 10
4.694360
 20
5.494720
  0
VERTEX
  8
0
  6
CONTINUOUS
 10
4.047120
 20
5.142720
  0
VERTEX
  8
0
  6
CONTINUOUS
 10
4.067800
 20
5.167800
  0
SEQEND
  8
0
  0
SOLID
  8
0
 62
    15
 10
4.047120
 20
5.142720
 11
4.694360
 21
5.494720
 12
4.022040
 22
5.122040
 13
4.669720
 23
5.474040
  0
POLYLINE
  8
0
  6
CONTINUOUS
 66
     1
 40
0.000000
 41
0.000000
  0
VERTEX
  8
0
  6
CONTINUOUS
 10
4.047120
 20
5.142720
  0
VERTEX
  8
0
  6
CONTINUOUS
 10
4.694360
 20
5.494720
  0
VERTEX
  8
0
  6
CONTINUOUS
 10
4.669720
 20
5.474040
  0
VERTEX
  8
0
  6
CONTINUOUS
 10
4.022040
 20
5.122040
  0
VERTEX
  8
0
  6
CONTINUOUS
 10
4.047120
 20
5.142720
  0
SEQEND
  8
0
  0
SOLID
  8
0
 62
    15
 10
4.083200
 20
5.196400
 11
4.730440
 21
5.548400
 12
4.067800
 22
5.167800
 13
4.715040
 23
5.519800
  0
POLYLINE
  8
0
  6
CONTINUOUS
 66
     1
 40
0.000000
 41
0.000000
  0
VERTEX
  8
0
  6
CONTINUOUS
 10
4.083200
 20
5.196400
  0
VERTEX
  8
0
  6
CONTINUOUS
 10
4.730440
 20
5.548400
  0
VERTEX
  8
0
  6
CONTINUOUS
 10
4.715040
 20
5.519800
  0
VERTEX
  8
0
  6
CONTINUOUS
 10
4.067800
 20
5.167800
  0
VERTEX
  8
0
  6
CONTINUOUS
 10
4.083200
 20
5.196400
  0
SEQEND
  8
0
  0
POLYLINE
  8
0
  6
CONTINUOUS
 66
     1
 40
0.000000
 41
0.000000
  0
VERTEX
  8
0
  6
CONTINUOUS
 10
3.927880
 20
5.093000
  0
VERTEX
  8
0
  6
CONTINUOUS
 10
3.875960
 20
5.093000
  0
VERTEX
  8
0
  6
CONTINUOUS
 10
3.875960
 20
4.922720
  0
VERTEX
  8
0
  6
CONTINUOUS
 10
3.140280
 20
4.922720
  0
VERTEX
  8
0
  6
CONTINUOUS
 10
3.140280
 20
5.430480
  0
VERTEX
  8
0
  6
CONTINUOUS
 10
3.927880
 20
5.430480
  0
VERTEX
  8
0
  6
CONTINUOUS
 10
3.961760
 20
5.426960
  0
VERTEX
  8
0
  6
CONTINUOUS
 10
3.993440
 20
5.417280
  0
VERTEX
  8
0
  6
CONTINUOUS
 10
4.022040
 20
5.401440
  0
VERTEX
  8
0
  6
CONTINUOUS
 10
4.047120
 20
5.380760
  0
VERTEX
  8
0
  6
CONTINUOUS
 10
4.067800
 20
5.356120
  0
VERTEX
  8
0
  6
CONTINUOUS
 10
4.083200
 20
5.327520
  0
VERTEX
  8
0
  6
CONTINUOUS
 10
4.092880
 20
5.295840
  0
VERTEX
  8
0
  6
CONTINUOUS
 10
4.096400
 20
5.261960
  0
VERTEX
  8
0
  6
CONTINUOUS
 10
4.092880
 20
5.227640
  0
VERTEX
  8
0
  6
CONTINUOUS
 10
4.083200
 20
5.196400
  0
VERTEX
  8
0
  6
CONTINUOUS
 10
4.067800
 20
5.167800
  0
VERTEX
  8
0
  6
CONTINUOUS
 10
4.047120
 20
5.142720
  0
VERTEX
  8
0
  6
CONTINUOUS
 10
4.022040
 20
5.122040
  0
VERTEX
  8
0
  6
CONTINUOUS
 10
3.993440
 20
5.106640
  0
VERTEX
  8
0
  6
CONTINUOUS
 10
3.961760
 20
5.096520
  0
VERTEX
  8
0
  6
CONTINUOUS
 10
3.927880
 20
5.093440
  0
VERTEX
  8
0
  6
CONTINUOUS
 10
3.927880
 20
5.093000
  0
SEQEND
  8
0
  0
POLYLINE
  8
0
  6
CONTINUOUS
 66
     1
 40
0.013200
 41
0.013200
  0
VERTEX
  8
0
  6
CONTINUOUS
 10
3.933600
 20
6.210600
  0
VERTEX
  8
0
  6
CONTINUOUS
 10
3.878600
 20
6.210600
  0
VERTEX
  8
0
  6
CONTINUOUS
 10
3.878600
 20
6.041200
  0
VERTEX
  8
0
  6
CONTINUOUS
 10
3.878600
 20
6.039880
  0
VERTEX
  8
0
  6
CONTINUOUS
 10
3.778720
 20
6.039880
  0
VERTEX
  8
0
  6
CONTINUOUS
 10
3.778720
 20
6.041200
  0
VERTEX
  8
0
  6
CONTINUOUS
 10
3.778720
 20
6.548080
  0
VERTEX
  8
0
  6
CONTINUOUS
 10
3.936240
 20
6.548080
  0
VERTEX
  8
0
  6
CONTINUOUS
 10
3.938880
 20
6.548080
  0
VERTEX
  8
0
  6
CONTINUOUS
 10
3.956040
 20
6.547200
  0
VERTEX
  8
0
  6
CONTINUOUS
 10
3.972320
 20
6.544560
  0
VERTEX
  8
0
  6
CONTINUOUS
 10
3.988160
 20
6.540600
  0
VERTEX
  8
0
  6
CONTINUOUS
 10
4.003120
 20
6.535320
  0
VERTEX
  8
0
  6
CONTINUOUS
 10
4.017200
 20
6.528280
  0
VERTEX
  8
0
  6
CONTINUOUS
 10
4.030400
 20
6.519920
  0
VERTEX
  8
0
  6
CONTINUOUS
 10
4.042720
 20
6.510240
  0
VERTEX
  8
0
  6
CONTINUOUS
 10
4.053720
 20
6.499680
  0
VERTEX
  8
0
  6
CONTINUOUS
 10
4.063840
 20
6.487800
  0
VERTEX
  8
0
  6
CONTINUOUS
 10
4.072640
 20
6.475040
  0
VERTEX
  8
0
  6
CONTINUOUS
 10
4.080560
 20
6.461400
  0
VERTEX
  8
0
  6
CONTINUOUS
 10
4.086720
 20
6.446880
  0
VERTEX
  8
0
  6
CONTINUOUS
 10
4.092000
 20
6.431480
  0
VERTEX
  8
0
  6
CONTINUOUS
 10
4.095520
 20
6.415200
  0
VERTEX
  8
0
  6
CONTINUOUS
 10
4.097720
 20
6.398480
  0
VERTEX
  8
0
  6
CONTINUOUS
 10
4.098600
 20
6.381320
  0
VERTEX
  8
0
  6
CONTINUOUS
 10
4.097720
 20
6.364160
  0
VERTEX
  8
0
  6
CONTINUOUS
 10
4.095080
 20
6.347000
  0
VERTEX
  8
0
  6
CONTINUOUS
 10
4.090680
 20
6.330720
  0
VERTEX
  8
0
  6
CONTINUOUS
 10
4.084960
 20
6.315320
  0
VERTEX
  8
0
  6
CONTINUOUS
 10
4.077920
 20
6.300360
  0
VERTEX
  8
0
  6
CONTINUOUS
 10
4.069120
 20
6.286280
  0
VERTEX
  8
0
  6
CONTINUOUS
 10
4.059440
 20
6.273080
  0
VERTEX
  8
0
  6
CONTINUOUS
 10
4.048440
 20
6.260760
  0
VERTEX
  8
0
  6
CONTINUOUS
 10
4.036120
 20
6.249760
  0
VERTEX
  8
0
  6
CONTINUOUS
 10
4.023360
 20
6.240080
  0
VERTEX
  8
0
  6
CONTINUOUS
 10
4.009280
 20
6.231280
  0
VERTEX
  8
0
  6
CONTINUOUS
 10
3.994320
 20
6.224240
  0
VERTEX
  8
0
  6
CONTINUOUS
 10
3.978480
 20
6.218520
  0
VERTEX
  8
0
  6
CONTINUOUS
 10
3.962200
 20
6.214120
  0
VERTEX
  8
0
  6
CONTINUOUS
 10
3.945480
 20
6.211480
  0
VERTEX
  8
0
  6
CONTINUOUS
 10
3.928320
 20
6.210600
  0
VERTEX
  8
0
  6
CONTINUOUS
 10
3.933600
 20
6.210600
  0
SEQEND
  8
0
  0
TEXT
  8
0
 10
4.506920
 20
6.336000
 40
0.138095
  1
BA  11
 41
1.000000
  7
SN0
 71
     0
 72
     5
 11
5.004809
 21
6.336000
  0
TEXT
  8
0
 10
4.257000
 20
6.144160
 40
0.138095
  1
1/2" x 15"/16"
 41
1.000000
  7
SN0
 71
     0
 72
     5
 11
5.253333
 21
6.144160
  0
ENDSEC
  0
EOF
