  0
SECTION
  2
HEADER
  9
$ACADVER
  1
AC1006
  9
$EXTMIN
 10
2.603040
 20
3.959560
  9
$EXTMAX
 10
5.896440
 20
7.040000
  9
$LTSCALE
 40
0.044000
  9
$PDMODE
 70
    35
  9
$PDSIZE
 40
0.035200
  0
ENDSEC
  0
SECTION
  2
TABLES
  0
TABLE
  2
LTYPE
 70
     9
  0
LTYPE
  2
CONTINUOUS
 70
    64
  3
Solid line
 72
    65
 73
     0
 40
0.000000
  0
LTYPE
  2
DASHED
 70
    64
  3
__ __ __ __ __ __ __ __ __ __ __ __ __ __ __
 72
    65
 73
     2
 40
0.000330
 49
0.000220
 49
-0.000110
  0
LTYPE
  2
HIDDEN
 70
    64
  3
 _ _ _ _ _ _ _ _ _ _ _ _ _ _ _ _ _ _ _ _ _ _
 72
    65
 73
     2
 40
0.000165
 49
0.000110
 49
-0.000055
  0
LTYPE
  2
CENTER
 70
    64
  3
____ _ ____ _ ____ _ ____ _ ____ _ ____ _ ____
 72
    65
 73
     4
 40
0.000880
 49
0.000550
 49
-0.000110
 49
0.000110
 49
-0.000110
  0
LTYPE
  2
PHANTOM
 70
    64
  3
_____ _ _ _____ _ _ _____ _ _ _____ _ _ ____
 72
    65
 73
     6
 40
0.001100
 49
0.000550
 49
-0.000110
 49
0.000110
 49
-0.000110
 49
0.000110
 49
-0.000110
  0
LTYPE
  2
DOT
 70
    64
  3
...............................................
 72
    65
 73
     2
 40
0.000110
 49
0.000000
 49
-0.000110
  0
LTYPE
  2
DASHDOT
 70
    64
  3
__ . __ . __ . __ . __ . __ . __ . __ . __ . __
 72
    65
 73
     4
 40
0.000440
 49
0.000220
 49
-0.000110
 49
0.000000
 49
-0.000110
  0
LTYPE
  2
BORDER
 70
    64
  3
__ __ . __ __ . __ __ . __ __ . __ __ . __ __
 72
    65
 73
     6
 40
0.000770
 49
0.000220
 49
-0.000110
 49
0.000220
 49
-0.000110
 49
0.000000
 49
-0.000110
  0
LTYPE
  2
DIVIDE
 70
    64
  3
__ . . __ . . __ . . __ . . __ . . __ . . __
 72
    65
 73
     6
 40
0.000550
 49
0.000220
 49
-0.000110
 49
0.000000
 49
-0.000110
 49
0.000000
 49
-0.000110
  0
LTYPE
  2
DOTDOT
 70
    64
  3
 . .  . .  . .  . .  . .  . . 
 72
    65
 73
     5
 40
0.000242
 49
-0.000110
 49
0.000000
 49
-0.000110
 49
0.000000
 49
-0.000110
  0
ENDTAB
  0
TABLE
  2
STYLE
 70
     2
  0
STYLE
 70
     0
  2
SN0
 40
0.000000
 41
0.000440
 50
0.000000
 71
     0
 42
0.000000
  3
ROMAND
  0
STYLE
 70
    68
  2
SV0
 40
0.000000
 41
0.000440
 50
0.000000
 71
     0
 42
0.000000
  3
ROMAND
  0
ENDTAB
  0
TABLE
  2
LAYER
 70
     3
  0
LAYER
  2
FOREGROUND
 70
    64
 62
     7
  6
CONTINUOUS
  0
LAYER
  2
BACKGROUND
 70
    65
 62
    -7
  6
CONTINUOUS
  0
LAYER
  2
0
 70
    64
 62
     7
  6
CONTINUOUS
  0
ENDTAB
  0
ENDSEC
  0
SECTION
  2
ENTITIES
  0
POLYLINE
  8
FOREGROUND
  6
CONTINUOUS
 66
     1
 40
0.000000
 41
0.000000
  0
VERTEX
  8
FOREGROUND
  6
CONTINUOUS
 10
0.000000
 20
10.999560
  0
VERTEX
  8
FOREGROUND
  6
CONTINUOUS
 10
8.499920
 20
10.999560
  0
VERTEX
  8
FOREGROUND
  6
CONTINUOUS
 10
8.499920
 20
-0.000440
  0
VERTEX
  8
FOREGROUND
  6
CONTINUOUS
 10
0.000000
 20
-0.000440
  0
VERTEX
  8
FOREGROUND
  6
CONTINUOUS
 10
0.000000
 20
10.999560
  0
SEQEND
  8
0
  0
POLYLINE
  8
FOREGROUND
  6
CONTINUOUS
 66
     1
 40
0.000000
 41
0.000000
  0
VERTEX
  8
FOREGROUND
  6
CONTINUOUS
 10
0.000000
 20
10.999560
  0
VERTEX
  8
FOREGROUND
  6
CONTINUOUS
 10
8.499920
 20
10.999560
  0
VERTEX
  8
FOREGROUND
  6
CONTINUOUS
 10
8.499920
 20
-0.000440
  0
VERTEX
  8
FOREGROUND
  6
CONTINUOUS
 10
0.000000
 20
-0.000440
  0
VERTEX
  8
FOREGROUND
  6
CONTINUOUS
 10
0.000000
 20
10.999560
  0
SEQEND
  8
0
  0
TEXT
  8
0
 10
3.915120
 20
4.194960
 40
0.138122
  1
BA  10
 41
1.000000
  7
SN0
 71
     0
 72
     5
 11
4.413082
 21
4.194960
  0
TEXT
  8
0
 10
3.713160
 20
4.003560
 40
0.138122
  1
3/4" x 3-1/8"
 41
1.000000
  7
SN0
 71
     0
 72
     5
 11
4.614070
 21
4.003560
  0
SOLID
  8
0
 62
    15
 10
4.003120
 20
5.029200
 11
4.002240
 21
5.765760
 12
4.022920
 22
5.029200
 13
4.022480
 23
5.765760
  0
POLYLINE
  8
0
  6
CONTINUOUS
 66
     1
 40
0.000000
 41
0.000000
  0
VERTEX
  8
0
  6
CONTINUOUS
 10
4.003120
 20
5.029200
  0
VERTEX
  8
0
  6
CONTINUOUS
 10
4.002240
 20
5.765760
  0
VERTEX
  8
0
  6
CONTINUOUS
 10
4.022480
 20
5.765760
  0
VERTEX
  8
0
  6
CONTINUOUS
 10
4.022920
 20
5.029200
  0
VERTEX
  8
0
  6
CONTINUOUS
 10
4.003120
 20
5.029200
  0
SEQEND
  8
0
  0
SOLID
  8
0
 62
    15
 10
2.604360
 20
4.450600
 11
2.603920
 21
5.187160
 12
2.604360
 22
4.727800
 13
2.603920
 23
5.464360
  0
POLYLINE
  8
0
  6
CONTINUOUS
 66
     1
 40
0.000000
 41
0.000000
  0
VERTEX
  8
0
  6
CONTINUOUS
 10
2.604360
 20
4.450600
  0
VERTEX
  8
0
  6
CONTINUOUS
 10
2.603920
 20
5.187160
  0
VERTEX
  8
0
  6
CONTINUOUS
 10
2.603920
 20
5.464360
  0
VERTEX
  8
0
  6
CONTINUOUS
 10
2.604360
 20
4.727800
  0
VERTEX
  8
0
  6
CONTINUOUS
 10
2.604360
 20
4.450600
  0
SEQEND
  8
0
  0
SOLID
  8
0
 62
    15
 10
2.766720
 20
4.749360
 11
2.766280
 21
5.485920
 12
2.772440
 22
4.752000
 13
2.772000
 23
5.488560
  0
POLYLINE
  8
0
  6
CONTINUOUS
 66
     1
 40
0.000000
 41
0.000000
  0
VERTEX
  8
0
  6
CONTINUOUS
 10
2.766720
 20
4.749360
  0
VERTEX
  8
0
  6
CONTINUOUS
 10
2.766280
 20
5.485920
  0
VERTEX
  8
0
  6
CONTINUOUS
 10
2.772000
 20
5.488560
  0
VERTEX
  8
0
  6
CONTINUOUS
 10
2.772440
 20
4.752000
  0
VERTEX
  8
0
  6
CONTINUOUS
 10
2.766720
 20
4.749360
  0
SEQEND
  8
0
  0
SOLID
  8
0
 62
    15
 10
2.772440
 20
4.752000
 11
2.772000
 21
5.488560
 12
2.803680
 22
4.756840
 13
2.803240
 23
5.493400
  0
POLYLINE
  8
0
  6
CONTINUOUS
 66
     1
 40
0.000000
 41
0.000000
  0
VERTEX
  8
0
  6
CONTINUOUS
 10
2.772440
 20
4.752000
  0
VERTEX
  8
0
  6
CONTINUOUS
 10
2.772000
 20
5.488560
  0
VERTEX
  8
0
  6
CONTINUOUS
 10
2.803240
 20
5.493400
  0
VERTEX
  8
0
  6
CONTINUOUS
 10
2.803680
 20
4.756840
  0
VERTEX
  8
0
  6
CONTINUOUS
 10
2.772440
 20
4.752000
  0
SEQEND
  8
0
  0
SOLID
  8
0
 62
    15
 10
2.803680
 20
4.756840
 11
2.803240
 21
5.493400
 12
2.829200
 22
4.765640
 13
2.828760
 23
5.502200
  0
POLYLINE
  8
0
  6
CONTINUOUS
 66
     1
 40
0.000000
 41
0.000000
  0
VERTEX
  8
0
  6
CONTINUOUS
 10
2.803680
 20
4.756840
  0
VERTEX
  8
0
  6
CONTINUOUS
 10
2.803240
 20
5.493400
  0
VERTEX
  8
0
  6
CONTINUOUS
 10
2.828760
 20
5.502200
  0
VERTEX
  8
0
  6
CONTINUOUS
 10
2.829200
 20
4.765640
  0
VERTEX
  8
0
  6
CONTINUOUS
 10
2.803680
 20
4.756840
  0
SEQEND
  8
0
  0
SOLID
  8
0
 62
    15
 10
2.829200
 20
4.765640
 11
2.828760
 21
5.502200
 12
2.849440
 22
4.777520
 13
2.849000
 23
5.514080
  0
POLYLINE
  8
0
  6
CONTINUOUS
 66
     1
 40
0.000000
 41
0.000000
  0
VERTEX
  8
0
  6
CONTINUOUS
 10
2.829200
 20
4.765640
  0
VERTEX
  8
0
  6
CONTINUOUS
 10
2.828760
 20
5.502200
  0
VERTEX
  8
0
  6
CONTINUOUS
 10
2.849000
 20
5.514080
  0
VERTEX
  8
0
  6
CONTINUOUS
 10
2.849440
 20
4.777520
  0
VERTEX
  8
0
  6
CONTINUOUS
 10
2.829200
 20
4.765640
  0
SEQEND
  8
0
  0
SOLID
  8
0
 62
    15
 10
2.849440
 20
4.777520
 11
2.849000
 21
5.514080
 12
2.864400
 22
4.791600
 13
2.863960
 23
5.528160
  0
POLYLINE
  8
0
  6
CONTINUOUS
 66
     1
 40
0.000000
 41
0.000000
  0
VERTEX
  8
0
  6
CONTINUOUS
 10
2.849440
 20
4.777520
  0
VERTEX
  8
0
  6
CONTINUOUS
 10
2.849000
 20
5.514080
  0
VERTEX
  8
0
  6
CONTINUOUS
 10
2.863960
 20
5.528160
  0
VERTEX
  8
0
  6
CONTINUOUS
 10
2.864400
 20
4.791600
  0
VERTEX
  8
0
  6
CONTINUOUS
 10
2.849440
 20
4.777520
  0
SEQEND
  8
0
  0
SOLID
  8
0
 62
    15
 10
2.864400
 20
4.791600
 11
2.863960
 21
5.528160
 12
2.874520
 22
4.807880
 13
2.874080
 23
5.544440
  0
POLYLINE
  8
0
  6
CONTINUOUS
 66
     1
 40
0.000000
 41
0.000000
  0
VERTEX
  8
0
  6
CONTINUOUS
 10
2.864400
 20
4.791600
  0
VERTEX
  8
0
  6
CONTINUOUS
 10
2.863960
 20
5.528160
  0
VERTEX
  8
0
  6
CONTINUOUS
 10
2.874080
 20
5.544440
  0
VERTEX
  8
0
  6
CONTINUOUS
 10
2.874520
 20
4.807880
  0
VERTEX
  8
0
  6
CONTINUOUS
 10
2.864400
 20
4.791600
  0
SEQEND
  8
0
  0
SOLID
  8
0
 62
    15
 10
2.874520
 20
4.807880
 11
2.874080
 21
5.544440
 12
2.880680
 22
4.825920
 13
2.880240
 23
5.562480
  0
POLYLINE
  8
0
  6
CONTINUOUS
 66
     1
 40
0.000000
 41
0.000000
  0
VERTEX
  8
0
  6
CONTINUOUS
 10
2.874520
 20
4.807880
  0
VERTEX
  8
0
  6
CONTINUOUS
 10
2.874080
 20
5.544440
  0
VERTEX
  8
0
  6
CONTINUOUS
 10
2.880240
 20
5.562480
  0
VERTEX
  8
0
  6
CONTINUOUS
 10
2.880680
 20
4.825920
  0
VERTEX
  8
0
  6
CONTINUOUS
 10
2.874520
 20
4.807880
  0
SEQEND
  8
0
  0
SOLID
  8
0
 62
    15
 10
2.880680
 20
4.825920
 11
2.880240
 21
5.562480
 12
2.882000
 22
4.844400
 13
2.881560
 23
5.580960
  0
POLYLINE
  8
0
  6
CONTINUOUS
 66
     1
 40
0.000000
 41
0.000000
  0
VERTEX
  8
0
  6
CONTINUOUS
 10
2.880680
 20
4.825920
  0
VERTEX
  8
0
  6
CONTINUOUS
 10
2.880240
 20
5.562480
  0
VERTEX
  8
0
  6
CONTINUOUS
 10
2.881560
 20
5.580960
  0
VERTEX
  8
0
  6
CONTINUOUS
 10
2.882000
 20
4.844400
  0
VERTEX
  8
0
  6
CONTINUOUS
 10
2.880680
 20
4.825920
  0
SEQEND
  8
0
  0
SOLID
  8
0
 62
    15
 10
2.604360
 20
4.727800
 11
2.603920
 21
5.464360
 12
2.766720
 22
4.749360
 13
2.766280
 23
5.485920
  0
POLYLINE
  8
0
  6
CONTINUOUS
 66
     1
 40
0.000000
 41
0.000000
  0
VERTEX
  8
0
  6
CONTINUOUS
 10
2.604360
 20
4.727800
  0
VERTEX
  8
0
  6
CONTINUOUS
 10
2.603920
 20
5.464360
  0
VERTEX
  8
0
  6
CONTINUOUS
 10
2.766280
 20
5.485920
  0
VERTEX
  8
0
  6
CONTINUOUS
 10
2.766720
 20
4.749360
  0
VERTEX
  8
0
  6
CONTINUOUS
 10
2.604360
 20
4.727800
  0
SEQEND
  8
0
  0
SOLID
  8
0
 62
    15
 10
2.604360
 20
4.977280
 11
2.603920
 21
5.713840
 12
2.604360
 22
5.062640
 13
2.603920
 23
5.799200
  0
POLYLINE
  8
0
  6
CONTINUOUS
 66
     1
 40
0.000000
 41
0.000000
  0
VERTEX
  8
0
  6
CONTINUOUS
 10
2.604360
 20
4.977280
  0
VERTEX
  8
0
  6
CONTINUOUS
 10
2.603920
 20
5.713840
  0
VERTEX
  8
0
  6
CONTINUOUS
 10
2.603920
 20
5.799200
  0
VERTEX
  8
0
  6
CONTINUOUS
 10
2.604360
 20
5.062640
  0
VERTEX
  8
0
  6
CONTINUOUS
 10
2.604360
 20
4.977280
  0
SEQEND
  8
0
  0
SOLID
  8
0
 62
    15
 10
2.607000
 20
5.067920
 11
2.606560
 21
5.804480
 12
2.720080
 22
5.189360
 13
2.719640
 23
5.925920
  0
POLYLINE
  8
0
  6
CONTINUOUS
 66
     1
 40
0.000000
 41
0.000000
  0
VERTEX
  8
0
  6
CONTINUOUS
 10
2.607000
 20
5.067920
  0
VERTEX
  8
0
  6
CONTINUOUS
 10
2.606560
 20
5.804480
  0
VERTEX
  8
0
  6
CONTINUOUS
 10
2.719640
 20
5.925920
  0
VERTEX
  8
0
  6
CONTINUOUS
 10
2.720080
 20
5.189360
  0
VERTEX
  8
0
  6
CONTINUOUS
 10
2.607000
 20
5.067920
  0
SEQEND
  8
0
  0
SOLID
  8
0
 62
    15
 10
2.720080
 20
5.189360
 11
2.719640
 21
5.925920
 12
3.608440
 22
5.189360
 13
3.608000
 23
5.925920
  0
POLYLINE
  8
0
  6
CONTINUOUS
 66
     1
 40
0.000000
 41
0.000000
  0
VERTEX
  8
0
  6
CONTINUOUS
 10
2.720080
 20
5.189360
  0
VERTEX
  8
0
  6
CONTINUOUS
 10
2.719640
 20
5.925920
  0
VERTEX
  8
0
  6
CONTINUOUS
 10
3.608000
 20
5.925920
  0
VERTEX
  8
0
  6
CONTINUOUS
 10
3.608440
 20
5.189360
  0
VERTEX
  8
0
  6
CONTINUOUS
 10
2.720080
 20
5.189360
  0
SEQEND
  8
0
  0
SOLID
  8
0
 62
    15
 10
3.608440
 20
5.189360
 11
3.608000
 21
5.925920
 12
3.756280
 22
5.030520
 13
3.755840
 23
5.767080
  0
POLYLINE
  8
0
  6
CONTINUOUS
 66
     1
 40
0.000000
 41
0.000000
  0
VERTEX
  8
0
  6
CONTINUOUS
 10
3.608440
 20
5.189360
  0
VERTEX
  8
0
  6
CONTINUOUS
 10
3.608000
 20
5.925920
  0
VERTEX
  8
0
  6
CONTINUOUS
 10
3.755840
 20
5.767080
  0
VERTEX
  8
0
  6
CONTINUOUS
 10
3.756280
 20
5.030520
  0
VERTEX
  8
0
  6
CONTINUOUS
 10
3.608440
 20
5.189360
  0
SEQEND
  8
0
  0
SOLID
  8
0
 62
    15
 10
3.756280
 20
5.030520
 11
3.755840
 21
5.767080
 12
3.772120
 22
5.030520
 13
3.771680
 23
5.767080
  0
POLYLINE
  8
0
  6
CONTINUOUS
 66
     1
 40
0.000000
 41
0.000000
  0
VERTEX
  8
0
  6
CONTINUOUS
 10
3.756280
 20
5.030520
  0
VERTEX
  8
0
  6
CONTINUOUS
 10
3.755840
 20
5.767080
  0
VERTEX
  8
0
  6
CONTINUOUS
 10
3.771680
 20
5.767080
  0
VERTEX
  8
0
  6
CONTINUOUS
 10
3.772120
 20
5.030520
  0
VERTEX
  8
0
  6
CONTINUOUS
 10
3.756280
 20
5.030520
  0
SEQEND
  8
0
  0
SOLID
  8
0
 62
    15
 10
3.772120
 20
5.030520
 11
3.771680
 21
5.767080
 12
3.772120
 22
5.067920
 13
3.771680
 23
5.804480
  0
POLYLINE
  8
0
  6
CONTINUOUS
 66
     1
 40
0.000000
 41
0.000000
  0
VERTEX
  8
0
  6
CONTINUOUS
 10
3.772120
 20
5.030520
  0
VERTEX
  8
0
  6
CONTINUOUS
 10
3.771680
 20
5.767080
  0
VERTEX
  8
0
  6
CONTINUOUS
 10
3.771680
 20
5.804480
  0
VERTEX
  8
0
  6
CONTINUOUS
 10
3.772120
 20
5.067920
  0
VERTEX
  8
0
  6
CONTINUOUS
 10
3.772120
 20
5.030520
  0
SEQEND
  8
0
  0
SOLID
  8
0
 62
    15
 10
3.772120
 20
5.067920
 11
3.771680
 21
5.804480
 12
3.774760
 22
5.091680
 13
3.774320
 23
5.828240
  0
POLYLINE
  8
0
  6
CONTINUOUS
 66
     1
 40
0.000000
 41
0.000000
  0
VERTEX
  8
0
  6
CONTINUOUS
 10
3.772120
 20
5.067920
  0
VERTEX
  8
0
  6
CONTINUOUS
 10
3.771680
 20
5.804480
  0
VERTEX
  8
0
  6
CONTINUOUS
 10
3.774320
 20
5.828240
  0
VERTEX
  8
0
  6
CONTINUOUS
 10
3.774760
 20
5.091680
  0
VERTEX
  8
0
  6
CONTINUOUS
 10
3.772120
 20
5.067920
  0
SEQEND
  8
0
  0
SOLID
  8
0
 62
    15
 10
3.774760
 20
5.091680
 11
3.774320
 21
5.828240
 12
3.781360
 22
5.113240
 13
3.780920
 23
5.849800
  0
POLYLINE
  8
0
  6
CONTINUOUS
 66
     1
 40
0.000000
 41
0.000000
  0
VERTEX
  8
0
  6
CONTINUOUS
 10
3.774760
 20
5.091680
  0
VERTEX
  8
0
  6
CONTINUOUS
 10
3.774320
 20
5.828240
  0
VERTEX
  8
0
  6
CONTINUOUS
 10
3.780920
 20
5.849800
  0
VERTEX
  8
0
  6
CONTINUOUS
 10
3.781360
 20
5.113240
  0
VERTEX
  8
0
  6
CONTINUOUS
 10
3.774760
 20
5.091680
  0
SEQEND
  8
0
  0
SOLID
  8
0
 62
    15
 10
3.781360
 20
5.113240
 11
3.780920
 21
5.849800
 12
3.791920
 22
5.133040
 13
3.791040
 23
5.869600
  0
POLYLINE
  8
0
  6
CONTINUOUS
 66
     1
 40
0.000000
 41
0.000000
  0
VERTEX
  8
0
  6
CONTINUOUS
 10
3.781360
 20
5.113240
  0
VERTEX
  8
0
  6
CONTINUOUS
 10
3.780920
 20
5.849800
  0
VERTEX
  8
0
  6
CONTINUOUS
 10
3.791040
 20
5.869600
  0
VERTEX
  8
0
  6
CONTINUOUS
 10
3.791920
 20
5.133040
  0
VERTEX
  8
0
  6
CONTINUOUS
 10
3.781360
 20
5.113240
  0
SEQEND
  8
0
  0
SOLID
  8
0
 62
    15
 10
3.791920
 20
5.133040
 11
3.791040
 21
5.869600
 12
3.806000
 22
5.149760
 13
3.805120
 23
5.886320
  0
POLYLINE
  8
0
  6
CONTINUOUS
 66
     1
 40
0.000000
 41
0.000000
  0
VERTEX
  8
0
  6
CONTINUOUS
 10
3.791920
 20
5.133040
  0
VERTEX
  8
0
  6
CONTINUOUS
 10
3.791040
 20
5.869600
  0
VERTEX
  8
0
  6
CONTINUOUS
 10
3.805120
 20
5.886320
  0
VERTEX
  8
0
  6
CONTINUOUS
 10
3.806000
 20
5.149760
  0
VERTEX
  8
0
  6
CONTINUOUS
 10
3.791920
 20
5.133040
  0
SEQEND
  8
0
  0
SOLID
  8
0
 62
    15
 10
3.806000
 20
5.149760
 11
3.805120
 21
5.886320
 12
3.822720
 22
5.163400
 13
3.822280
 23
5.899960
  0
POLYLINE
  8
0
  6
CONTINUOUS
 66
     1
 40
0.000000
 41
0.000000
  0
VERTEX
  8
0
  6
CONTINUOUS
 10
3.806000
 20
5.149760
  0
VERTEX
  8
0
  6
CONTINUOUS
 10
3.805120
 20
5.886320
  0
VERTEX
  8
0
  6
CONTINUOUS
 10
3.822280
 20
5.899960
  0
VERTEX
  8
0
  6
CONTINUOUS
 10
3.822720
 20
5.163400
  0
VERTEX
  8
0
  6
CONTINUOUS
 10
3.806000
 20
5.149760
  0
SEQEND
  8
0
  0
SOLID
  8
0
 62
    15
 10
3.822720
 20
5.163400
 11
3.822280
 21
5.899960
 12
3.842520
 22
5.173960
 13
3.842080
 23
5.910520
  0
POLYLINE
  8
0
  6
CONTINUOUS
 66
     1
 40
0.000000
 41
0.000000
  0
VERTEX
  8
0
  6
CONTINUOUS
 10
3.822720
 20
5.163400
  0
VERTEX
  8
0
  6
CONTINUOUS
 10
3.822280
 20
5.899960
  0
VERTEX
  8
0
  6
CONTINUOUS
 10
3.842080
 20
5.910520
  0
VERTEX
  8
0
  6
CONTINUOUS
 10
3.842520
 20
5.173960
  0
VERTEX
  8
0
  6
CONTINUOUS
 10
3.822720
 20
5.163400
  0
SEQEND
  8
0
  0
SOLID
  8
0
 62
    15
 10
3.842520
 20
5.173960
 11
3.842080
 21
5.910520
 12
3.864520
 22
5.180120
 13
3.864080
 23
5.916680
  0
POLYLINE
  8
0
  6
CONTINUOUS
 66
     1
 40
0.000000
 41
0.000000
  0
VERTEX
  8
0
  6
CONTINUOUS
 10
3.842520
 20
5.173960
  0
VERTEX
  8
0
  6
CONTINUOUS
 10
3.842080
 20
5.910520
  0
VERTEX
  8
0
  6
CONTINUOUS
 10
3.864080
 20
5.916680
  0
VERTEX
  8
0
  6
CONTINUOUS
 10
3.864520
 20
5.180120
  0
VERTEX
  8
0
  6
CONTINUOUS
 10
3.842520
 20
5.173960
  0
SEQEND
  8
0
  0
SOLID
  8
0
 62
    15
 10
3.864520
 20
5.180120
 11
3.864080
 21
5.916680
 12
3.888280
 22
5.182760
 13
3.887840
 23
5.919320
  0
POLYLINE
  8
0
  6
CONTINUOUS
 66
     1
 40
0.000000
 41
0.000000
  0
VERTEX
  8
0
  6
CONTINUOUS
 10
3.864520
 20
5.180120
  0
VERTEX
  8
0
  6
CONTINUOUS
 10
3.864080
 20
5.916680
  0
VERTEX
  8
0
  6
CONTINUOUS
 10
3.887840
 20
5.919320
  0
VERTEX
  8
0
  6
CONTINUOUS
 10
3.888280
 20
5.182760
  0
VERTEX
  8
0
  6
CONTINUOUS
 10
3.864520
 20
5.180120
  0
SEQEND
  8
0
  0
SOLID
  8
0
 62
    15
 10
3.888280
 20
5.182760
 11
3.887840
 21
5.919320
 12
3.912040
 22
5.180120
 13
3.911600
 23
5.916680
  0
POLYLINE
  8
0
  6
CONTINUOUS
 66
     1
 40
0.000000
 41
0.000000
  0
VERTEX
  8
0
  6
CONTINUOUS
 10
3.888280
 20
5.182760
  0
VERTEX
  8
0
  6
CONTINUOUS
 10
3.887840
 20
5.919320
  0
VERTEX
  8
0
  6
CONTINUOUS
 10
3.911600
 20
5.916680
  0
VERTEX
  8
0
  6
CONTINUOUS
 10
3.912040
 20
5.180120
  0
VERTEX
  8
0
  6
CONTINUOUS
 10
3.888280
 20
5.182760
  0
SEQEND
  8
0
  0
SOLID
  8
0
 62
    15
 10
3.912040
 20
5.180120
 11
3.911600
 21
5.916680
 12
3.933600
 22
5.173080
 13
3.933160
 23
5.909640
  0
POLYLINE
  8
0
  6
CONTINUOUS
 66
     1
 40
0.000000
 41
0.000000
  0
VERTEX
  8
0
  6
CONTINUOUS
 10
3.912040
 20
5.180120
  0
VERTEX
  8
0
  6
CONTINUOUS
 10
3.911600
 20
5.916680
  0
VERTEX
  8
0
  6
CONTINUOUS
 10
3.933160
 20
5.909640
  0
VERTEX
  8
0
  6
CONTINUOUS
 10
3.933600
 20
5.173080
  0
VERTEX
  8
0
  6
CONTINUOUS
 10
3.912040
 20
5.180120
  0
SEQEND
  8
0
  0
SOLID
  8
0
 62
    15
 10
3.933600
 20
5.173080
 11
3.933160
 21
5.909640
 12
3.953400
 22
5.161640
 13
3.952960
 23
5.898200
  0
POLYLINE
  8
0
  6
CONTINUOUS
 66
     1
 40
0.000000
 41
0.000000
  0
VERTEX
  8
0
  6
CONTINUOUS
 10
3.933600
 20
5.173080
  0
VERTEX
  8
0
  6
CONTINUOUS
 10
3.933160
 20
5.909640
  0
VERTEX
  8
0
  6
CONTINUOUS
 10
3.952960
 20
5.898200
  0
VERTEX
  8
0
  6
CONTINUOUS
 10
3.953400
 20
5.161640
  0
VERTEX
  8
0
  6
CONTINUOUS
 10
3.933600
 20
5.173080
  0
SEQEND
  8
0
  0
SOLID
  8
0
 62
    15
 10
3.953400
 20
5.161640
 11
3.952960
 21
5.898200
 12
3.970120
 22
5.147120
 13
3.969680
 23
5.883680
  0
POLYLINE
  8
0
  6
CONTINUOUS
 66
     1
 40
0.000000
 41
0.000000
  0
VERTEX
  8
0
  6
CONTINUOUS
 10
3.953400
 20
5.161640
  0
VERTEX
  8
0
  6
CONTINUOUS
 10
3.952960
 20
5.898200
  0
VERTEX
  8
0
  6
CONTINUOUS
 10
3.969680
 20
5.883680
  0
VERTEX
  8
0
  6
CONTINUOUS
 10
3.970120
 20
5.147120
  0
VERTEX
  8
0
  6
CONTINUOUS
 10
3.953400
 20
5.161640
  0
SEQEND
  8
0
  0
SOLID
  8
0
 62
    15
 10
3.970120
 20
5.147120
 11
3.969680
 21
5.883680
 12
3.983760
 22
5.129080
 13
3.983320
 23
5.865640
  0
POLYLINE
  8
0
  6
CONTINUOUS
 66
     1
 40
0.000000
 41
0.000000
  0
VERTEX
  8
0
  6
CONTINUOUS
 10
3.970120
 20
5.147120
  0
VERTEX
  8
0
  6
CONTINUOUS
 10
3.969680
 20
5.883680
  0
VERTEX
  8
0
  6
CONTINUOUS
 10
3.983320
 20
5.865640
  0
VERTEX
  8
0
  6
CONTINUOUS
 10
3.983760
 20
5.129080
  0
VERTEX
  8
0
  6
CONTINUOUS
 10
3.970120
 20
5.147120
  0
SEQEND
  8
0
  0
SOLID
  8
0
 62
    15
 10
3.983760
 20
5.129080
 11
3.983320
 21
5.865640
 12
3.994320
 22
5.108840
 13
3.993880
 23
5.845400
  0
POLYLINE
  8
0
  6
CONTINUOUS
 66
     1
 40
0.000000
 41
0.000000
  0
VERTEX
  8
0
  6
CONTINUOUS
 10
3.983760
 20
5.129080
  0
VERTEX
  8
0
  6
CONTINUOUS
 10
3.983320
 20
5.865640
  0
VERTEX
  8
0
  6
CONTINUOUS
 10
3.993880
 20
5.845400
  0
VERTEX
  8
0
  6
CONTINUOUS
 10
3.994320
 20
5.108840
  0
VERTEX
  8
0
  6
CONTINUOUS
 10
3.983760
 20
5.129080
  0
SEQEND
  8
0
  0
SOLID
  8
0
 62
    15
 10
3.994320
 20
5.108840
 11
3.993880
 21
5.845400
 12
4.000480
 22
5.086400
 13
4.000040
 23
5.822960
  0
POLYLINE
  8
0
  6
CONTINUOUS
 66
     1
 40
0.000000
 41
0.000000
  0
VERTEX
  8
0
  6
CONTINUOUS
 10
3.994320
 20
5.108840
  0
VERTEX
  8
0
  6
CONTINUOUS
 10
3.993880
 20
5.845400
  0
VERTEX
  8
0
  6
CONTINUOUS
 10
4.000040
 20
5.822960
  0
VERTEX
  8
0
  6
CONTINUOUS
 10
4.000480
 20
5.086400
  0
VERTEX
  8
0
  6
CONTINUOUS
 10
3.994320
 20
5.108840
  0
SEQEND
  8
0
  0
SOLID
  8
0
 62
    15
 10
2.604360
 20
5.062640
 11
2.603920
 21
5.799200
 12
2.607000
 22
5.067920
 13
2.606560
 23
5.804480
  0
POLYLINE
  8
0
  6
CONTINUOUS
 66
     1
 40
0.000000
 41
0.000000
  0
VERTEX
  8
0
  6
CONTINUOUS
 10
2.604360
 20
5.062640
  0
VERTEX
  8
0
  6
CONTINUOUS
 10
2.603920
 20
5.799200
  0
VERTEX
  8
0
  6
CONTINUOUS
 10
2.606560
 20
5.804480
  0
VERTEX
  8
0
  6
CONTINUOUS
 10
2.607000
 20
5.067920
  0
VERTEX
  8
0
  6
CONTINUOUS
 10
2.604360
 20
5.062640
  0
SEQEND
  8
0
  0
SOLID
  8
0
 62
    15
 10
4.000480
 20
5.086400
 11
4.000040
 21
5.822960
 12
4.003120
 22
5.062640
 13
4.002240
 23
5.799200
  0
POLYLINE
  8
0
  6
CONTINUOUS
 66
     1
 40
0.000000
 41
0.000000
  0
VERTEX
  8
0
  6
CONTINUOUS
 10
4.000480
 20
5.086400
  0
VERTEX
  8
0
  6
CONTINUOUS
 10
4.000040
 20
5.822960
  0
VERTEX
  8
0
  6
CONTINUOUS
 10
4.002240
 20
5.799200
  0
VERTEX
  8
0
  6
CONTINUOUS
 10
4.003120
 20
5.062640
  0
VERTEX
  8
0
  6
CONTINUOUS
 10
4.000480
 20
5.086400
  0
SEQEND
  8
0
  0
SOLID
  8
0
 62
    15
 10
4.022920
 20
5.029200
 11
4.022480
 21
5.765760
 12
4.025560
 22
5.030520
 13
4.025120
 23
5.767080
  0
POLYLINE
  8
0
  6
CONTINUOUS
 66
     1
 40
0.000000
 41
0.000000
  0
VERTEX
  8
0
  6
CONTINUOUS
 10
4.022920
 20
5.029200
  0
VERTEX
  8
0
  6
CONTINUOUS
 10
4.022480
 20
5.765760
  0
VERTEX
  8
0
  6
CONTINUOUS
 10
4.025120
 20
5.767080
  0
VERTEX
  8
0
  6
CONTINUOUS
 10
4.025560
 20
5.030520
  0
VERTEX
  8
0
  6
CONTINUOUS
 10
4.022920
 20
5.029200
  0
SEQEND
  8
0
  0
SOLID
  8
0
 62
    15
 10
4.025560
 20
5.030520
 11
4.025120
 21
5.767080
 12
4.165480
 22
5.189360
 13
4.165040
 23
5.925920
  0
POLYLINE
  8
0
  6
CONTINUOUS
 66
     1
 40
0.000000
 41
0.000000
  0
VERTEX
  8
0
  6
CONTINUOUS
 10
4.025560
 20
5.030520
  0
VERTEX
  8
0
  6
CONTINUOUS
 10
4.025120
 20
5.767080
  0
VERTEX
  8
0
  6
CONTINUOUS
 10
4.165040
 20
5.925920
  0
VERTEX
  8
0
  6
CONTINUOUS
 10
4.165480
 20
5.189360
  0
VERTEX
  8
0
  6
CONTINUOUS
 10
4.025560
 20
5.030520
  0
SEQEND
  8
0
  0
SOLID
  8
0
 62
    15
 10
4.165480
 20
5.189360
 11
4.165040
 21
5.925920
 12
5.015120
 22
5.189360
 13
5.014240
 23
5.925920
  0
POLYLINE
  8
0
  6
CONTINUOUS
 66
     1
 40
0.000000
 41
0.000000
  0
VERTEX
  8
0
  6
CONTINUOUS
 10
4.165480
 20
5.189360
  0
VERTEX
  8
0
  6
CONTINUOUS
 10
4.165040
 20
5.925920
  0
VERTEX
  8
0
  6
CONTINUOUS
 10
5.014240
 20
5.925920
  0
VERTEX
  8
0
  6
CONTINUOUS
 10
5.015120
 20
5.189360
  0
VERTEX
  8
0
  6
CONTINUOUS
 10
4.165480
 20
5.189360
  0
SEQEND
  8
0
  0
SOLID
  8
0
 62
    15
 10
5.015120
 20
5.189360
 11
5.014240
 21
5.925920
 12
5.185400
 22
5.016000
 13
5.184960
 23
5.752560
  0
POLYLINE
  8
0
  6
CONTINUOUS
 66
     1
 40
0.000000
 41
0.000000
  0
VERTEX
  8
0
  6
CONTINUOUS
 10
5.015120
 20
5.189360
  0
VERTEX
  8
0
  6
CONTINUOUS
 10
5.014240
 20
5.925920
  0
VERTEX
  8
0
  6
CONTINUOUS
 10
5.184960
 20
5.752560
  0
VERTEX
  8
0
  6
CONTINUOUS
 10
5.185400
 20
5.016000
  0
VERTEX
  8
0
  6
CONTINUOUS
 10
5.015120
 20
5.189360
  0
SEQEND
  8
0
  0
SOLID
  8
0
 62
    15
 10
5.185400
 20
5.016000
 11
5.184960
 21
5.752560
 12
5.208280
 22
5.016000
 13
5.207840
 23
5.752560
  0
POLYLINE
  8
0
  6
CONTINUOUS
 66
     1
 40
0.000000
 41
0.000000
  0
VERTEX
  8
0
  6
CONTINUOUS
 10
5.185400
 20
5.016000
  0
VERTEX
  8
0
  6
CONTINUOUS
 10
5.184960
 20
5.752560
  0
VERTEX
  8
0
  6
CONTINUOUS
 10
5.207840
 20
5.752560
  0
VERTEX
  8
0
  6
CONTINUOUS
 10
5.208280
 20
5.016000
  0
VERTEX
  8
0
  6
CONTINUOUS
 10
5.185400
 20
5.016000
  0
SEQEND
  8
0
  0
SOLID
  8
0
 62
    15
 10
5.208280
 20
5.016000
 11
5.207840
 21
5.752560
 12
5.208280
 22
5.039760
 13
5.207840
 23
5.776320
  0
POLYLINE
  8
0
  6
CONTINUOUS
 66
     1
 40
0.000000
 41
0.000000
  0
VERTEX
  8
0
  6
CONTINUOUS
 10
5.208280
 20
5.016000
  0
VERTEX
  8
0
  6
CONTINUOUS
 10
5.207840
 20
5.752560
  0
VERTEX
  8
0
  6
CONTINUOUS
 10
5.207840
 20
5.776320
  0
VERTEX
  8
0
  6
CONTINUOUS
 10
5.208280
 20
5.039760
  0
VERTEX
  8
0
  6
CONTINUOUS
 10
5.208280
 20
5.016000
  0
SEQEND
  8
0
  0
SOLID
  8
0
 62
    15
 10
5.208280
 20
5.039760
 11
5.207840
 21
5.776320
 12
5.210920
 22
5.064400
 13
5.210480
 23
5.800960
  0
POLYLINE
  8
0
  6
CONTINUOUS
 66
     1
 40
0.000000
 41
0.000000
  0
VERTEX
  8
0
  6
CONTINUOUS
 10
5.208280
 20
5.039760
  0
VERTEX
  8
0
  6
CONTINUOUS
 10
5.207840
 20
5.776320
  0
VERTEX
  8
0
  6
CONTINUOUS
 10
5.210480
 20
5.800960
  0
VERTEX
  8
0
  6
CONTINUOUS
 10
5.210920
 20
5.064400
  0
VERTEX
  8
0
  6
CONTINUOUS
 10
5.208280
 20
5.039760
  0
SEQEND
  8
0
  0
SOLID
  8
0
 62
    15
 10
5.210920
 20
5.064400
 11
5.210480
 21
5.800960
 12
5.217960
 22
5.086840
 13
5.217520
 23
5.823400
  0
POLYLINE
  8
0
  6
CONTINUOUS
 66
     1
 40
0.000000
 41
0.000000
  0
VERTEX
  8
0
  6
CONTINUOUS
 10
5.210920
 20
5.064400
  0
VERTEX
  8
0
  6
CONTINUOUS
 10
5.210480
 20
5.800960
  0
VERTEX
  8
0
  6
CONTINUOUS
 10
5.217520
 20
5.823400
  0
VERTEX
  8
0
  6
CONTINUOUS
 10
5.217960
 20
5.086840
  0
VERTEX
  8
0
  6
CONTINUOUS
 10
5.210920
 20
5.064400
  0
SEQEND
  8
0
  0
SOLID
  8
0
 62
    15
 10
5.217960
 20
5.086840
 11
5.217520
 21
5.823400
 12
5.228960
 22
5.107520
 13
5.228520
 23
5.844080
  0
POLYLINE
  8
0
  6
CONTINUOUS
 66
     1
 40
0.000000
 41
0.000000
  0
VERTEX
  8
0
  6
CONTINUOUS
 10
5.217960
 20
5.086840
  0
VERTEX
  8
0
  6
CONTINUOUS
 10
5.217520
 20
5.823400
  0
VERTEX
  8
0
  6
CONTINUOUS
 10
5.228520
 20
5.844080
  0
VERTEX
  8
0
  6
CONTINUOUS
 10
5.228960
 20
5.107520
  0
VERTEX
  8
0
  6
CONTINUOUS
 10
5.217960
 20
5.086840
  0
SEQEND
  8
0
  0
SOLID
  8
0
 62
    15
 10
5.228960
 20
5.107520
 11
5.228520
 21
5.844080
 12
5.243920
 22
5.125560
 13
5.243480
 23
5.862120
  0
POLYLINE
  8
0
  6
CONTINUOUS
 66
     1
 40
0.000000
 41
0.000000
  0
VERTEX
  8
0
  6
CONTINUOUS
 10
5.228960
 20
5.107520
  0
VERTEX
  8
0
  6
CONTINUOUS
 10
5.228520
 20
5.844080
  0
VERTEX
  8
0
  6
CONTINUOUS
 10
5.243480
 20
5.862120
  0
VERTEX
  8
0
  6
CONTINUOUS
 10
5.243920
 20
5.125560
  0
VERTEX
  8
0
  6
CONTINUOUS
 10
5.228960
 20
5.107520
  0
SEQEND
  8
0
  0
SOLID
  8
0
 62
    15
 10
5.243920
 20
5.125560
 11
5.243480
 21
5.862120
 12
5.261960
 22
5.140520
 13
5.261520
 23
5.877080
  0
POLYLINE
  8
0
  6
CONTINUOUS
 66
     1
 40
0.000000
 41
0.000000
  0
VERTEX
  8
0
  6
CONTINUOUS
 10
5.243920
 20
5.125560
  0
VERTEX
  8
0
  6
CONTINUOUS
 10
5.243480
 20
5.862120
  0
VERTEX
  8
0
  6
CONTINUOUS
 10
5.261520
 20
5.877080
  0
VERTEX
  8
0
  6
CONTINUOUS
 10
5.261960
 20
5.140520
  0
VERTEX
  8
0
  6
CONTINUOUS
 10
5.243920
 20
5.125560
  0
SEQEND
  8
0
  0
SOLID
  8
0
 62
    15
 10
5.261960
 20
5.140520
 11
5.261520
 21
5.877080
 12
5.282640
 22
5.151520
 13
5.282200
 23
5.888080
  0
POLYLINE
  8
0
  6
CONTINUOUS
 66
     1
 40
0.000000
 41
0.000000
  0
VERTEX
  8
0
  6
CONTINUOUS
 10
5.261960
 20
5.140520
  0
VERTEX
  8
0
  6
CONTINUOUS
 10
5.261520
 20
5.877080
  0
VERTEX
  8
0
  6
CONTINUOUS
 10
5.282200
 20
5.888080
  0
VERTEX
  8
0
  6
CONTINUOUS
 10
5.282640
 20
5.151520
  0
VERTEX
  8
0
  6
CONTINUOUS
 10
5.261960
 20
5.140520
  0
SEQEND
  8
0
  0
SOLID
  8
0
 62
    15
 10
5.282640
 20
5.151520
 11
5.282200
 21
5.888080
 12
5.305080
 22
5.158560
 13
5.304640
 23
5.895120
  0
POLYLINE
  8
0
  6
CONTINUOUS
 66
     1
 40
0.000000
 41
0.000000
  0
VERTEX
  8
0
  6
CONTINUOUS
 10
5.282640
 20
5.151520
  0
VERTEX
  8
0
  6
CONTINUOUS
 10
5.282200
 20
5.888080
  0
VERTEX
  8
0
  6
CONTINUOUS
 10
5.304640
 20
5.895120
  0
VERTEX
  8
0
  6
CONTINUOUS
 10
5.305080
 20
5.158560
  0
VERTEX
  8
0
  6
CONTINUOUS
 10
5.282640
 20
5.151520
  0
SEQEND
  8
0
  0
SOLID
  8
0
 62
    15
 10
5.305080
 20
5.158560
 11
5.304640
 21
5.895120
 12
5.329720
 22
5.161200
 13
5.329280
 23
5.897760
  0
POLYLINE
  8
0
  6
CONTINUOUS
 66
     1
 40
0.000000
 41
0.000000
  0
VERTEX
  8
0
  6
CONTINUOUS
 10
5.305080
 20
5.158560
  0
VERTEX
  8
0
  6
CONTINUOUS
 10
5.304640
 20
5.895120
  0
VERTEX
  8
0
  6
CONTINUOUS
 10
5.329280
 20
5.897760
  0
VERTEX
  8
0
  6
CONTINUOUS
 10
5.329720
 20
5.161200
  0
VERTEX
  8
0
  6
CONTINUOUS
 10
5.305080
 20
5.158560
  0
SEQEND
  8
0
  0
SOLID
  8
0
 62
    15
 10
5.329720
 20
5.161200
 11
5.329280
 21
5.897760
 12
5.353920
 22
5.158560
 13
5.353480
 23
5.895120
  0
POLYLINE
  8
0
  6
CONTINUOUS
 66
     1
 40
0.000000
 41
0.000000
  0
VERTEX
  8
0
  6
CONTINUOUS
 10
5.329720
 20
5.161200
  0
VERTEX
  8
0
  6
CONTINUOUS
 10
5.329280
 20
5.897760
  0
VERTEX
  8
0
  6
CONTINUOUS
 10
5.353480
 20
5.895120
  0
VERTEX
  8
0
  6
CONTINUOUS
 10
5.353920
 20
5.158560
  0
VERTEX
  8
0
  6
CONTINUOUS
 10
5.329720
 20
5.161200
  0
SEQEND
  8
0
  0
SOLID
  8
0
 62
    15
 10
5.353920
 20
5.158560
 11
5.353480
 21
5.895120
 12
5.377240
 22
5.151080
 13
5.376800
 23
5.887640
  0
POLYLINE
  8
0
  6
CONTINUOUS
 66
     1
 40
0.000000
 41
0.000000
  0
VERTEX
  8
0
  6
CONTINUOUS
 10
5.353920
 20
5.158560
  0
VERTEX
  8
0
  6
CONTINUOUS
 10
5.353480
 20
5.895120
  0
VERTEX
  8
0
  6
CONTINUOUS
 10
5.376800
 20
5.887640
  0
VERTEX
  8
0
  6
CONTINUOUS
 10
5.377240
 20
5.151080
  0
VERTEX
  8
0
  6
CONTINUOUS
 10
5.353920
 20
5.158560
  0
SEQEND
  8
0
  0
SOLID
  8
0
 62
    15
 10
5.377240
 20
5.151080
 11
5.376800
 21
5.887640
 12
5.397920
 22
5.139640
 13
5.397480
 23
5.876200
  0
POLYLINE
  8
0
  6
CONTINUOUS
 66
     1
 40
0.000000
 41
0.000000
  0
VERTEX
  8
0
  6
CONTINUOUS
 10
5.377240
 20
5.151080
  0
VERTEX
  8
0
  6
CONTINUOUS
 10
5.376800
 20
5.887640
  0
VERTEX
  8
0
  6
CONTINUOUS
 10
5.397480
 20
5.876200
  0
VERTEX
  8
0
  6
CONTINUOUS
 10
5.397920
 20
5.139640
  0
VERTEX
  8
0
  6
CONTINUOUS
 10
5.377240
 20
5.151080
  0
SEQEND
  8
0
  0
SOLID
  8
0
 62
    15
 10
5.397920
 20
5.139640
 11
5.397480
 21
5.876200
 12
5.416400
 22
5.124240
 13
5.415960
 23
5.860800
  0
POLYLINE
  8
0
  6
CONTINUOUS
 66
     1
 40
0.000000
 41
0.000000
  0
VERTEX
  8
0
  6
CONTINUOUS
 10
5.397920
 20
5.139640
  0
VERTEX
  8
0
  6
CONTINUOUS
 10
5.397480
 20
5.876200
  0
VERTEX
  8
0
  6
CONTINUOUS
 10
5.415960
 20
5.860800
  0
VERTEX
  8
0
  6
CONTINUOUS
 10
5.416400
 20
5.124240
  0
VERTEX
  8
0
  6
CONTINUOUS
 10
5.397920
 20
5.139640
  0
SEQEND
  8
0
  0
SOLID
  8
0
 62
    15
 10
5.416400
 20
5.124240
 11
5.415960
 21
5.860800
 12
5.431800
 22
5.105760
 13
5.431360
 23
5.842320
  0
POLYLINE
  8
0
  6
CONTINUOUS
 66
     1
 40
0.000000
 41
0.000000
  0
VERTEX
  8
0
  6
CONTINUOUS
 10
5.416400
 20
5.124240
  0
VERTEX
  8
0
  6
CONTINUOUS
 10
5.415960
 20
5.860800
  0
VERTEX
  8
0
  6
CONTINUOUS
 10
5.431360
 20
5.842320
  0
VERTEX
  8
0
  6
CONTINUOUS
 10
5.431800
 20
5.105760
  0
VERTEX
  8
0
  6
CONTINUOUS
 10
5.416400
 20
5.124240
  0
SEQEND
  8
0
  0
SOLID
  8
0
 62
    15
 10
5.431800
 20
5.105760
 11
5.431360
 21
5.842320
 12
5.443680
 22
5.084640
 13
5.443240
 23
5.821200
  0
POLYLINE
  8
0
  6
CONTINUOUS
 66
     1
 40
0.000000
 41
0.000000
  0
VERTEX
  8
0
  6
CONTINUOUS
 10
5.431800
 20
5.105760
  0
VERTEX
  8
0
  6
CONTINUOUS
 10
5.431360
 20
5.842320
  0
VERTEX
  8
0
  6
CONTINUOUS
 10
5.443240
 20
5.821200
  0
VERTEX
  8
0
  6
CONTINUOUS
 10
5.443680
 20
5.084640
  0
VERTEX
  8
0
  6
CONTINUOUS
 10
5.431800
 20
5.105760
  0
SEQEND
  8
0
  0
SOLID
  8
0
 62
    15
 10
5.453800
 20
4.974640
 11
5.453360
 21
5.711200
 12
5.617480
 22
4.953080
 13
5.617040
 23
5.689640
  0
POLYLINE
  8
0
  6
CONTINUOUS
 66
     1
 40
0.000000
 41
0.000000
  0
VERTEX
  8
0
  6
CONTINUOUS
 10
5.453800
 20
4.974640
  0
VERTEX
  8
0
  6
CONTINUOUS
 10
5.453360
 20
5.711200
  0
VERTEX
  8
0
  6
CONTINUOUS
 10
5.617040
 20
5.689640
  0
VERTEX
  8
0
  6
CONTINUOUS
 10
5.617480
 20
4.953080
  0
VERTEX
  8
0
  6
CONTINUOUS
 10
5.453800
 20
4.974640
  0
SEQEND
  8
0
  0
SOLID
  8
0
 62
    15
 10
5.451160
 20
5.061760
 11
5.450720
 21
5.798320
 12
5.453800
 22
5.037120
 13
5.452920
 23
5.773680
  0
POLYLINE
  8
0
  6
CONTINUOUS
 66
     1
 40
0.000000
 41
0.000000
  0
VERTEX
  8
0
  6
CONTINUOUS
 10
5.451160
 20
5.061760
  0
VERTEX
  8
0
  6
CONTINUOUS
 10
5.450720
 20
5.798320
  0
VERTEX
  8
0
  6
CONTINUOUS
 10
5.452920
 20
5.773680
  0
VERTEX
  8
0
  6
CONTINUOUS
 10
5.453800
 20
5.037120
  0
VERTEX
  8
0
  6
CONTINUOUS
 10
5.451160
 20
5.061760
  0
SEQEND
  8
0
  0
SOLID
  8
0
 62
    15
 10
5.443680
 20
5.084640
 11
5.443240
 21
5.821200
 12
5.451160
 22
5.061760
 13
5.450720
 23
5.798320
  0
POLYLINE
  8
0
  6
CONTINUOUS
 66
     1
 40
0.000000
 41
0.000000
  0
VERTEX
  8
0
  6
CONTINUOUS
 10
5.443680
 20
5.084640
  0
VERTEX
  8
0
  6
CONTINUOUS
 10
5.443240
 20
5.821200
  0
VERTEX
  8
0
  6
CONTINUOUS
 10
5.450720
 20
5.798320
  0
VERTEX
  8
0
  6
CONTINUOUS
 10
5.451160
 20
5.061760
  0
VERTEX
  8
0
  6
CONTINUOUS
 10
5.443680
 20
5.084640
  0
SEQEND
  8
0
  0
SOLID
  8
0
 62
    15
 10
5.617480
 20
4.953080
 11
5.617040
 21
5.689640
 12
5.617480
 22
4.954400
 13
5.617040
 23
5.690960
  0
POLYLINE
  8
0
  6
CONTINUOUS
 66
     1
 40
0.000000
 41
0.000000
  0
VERTEX
  8
0
  6
CONTINUOUS
 10
5.617480
 20
4.953080
  0
VERTEX
  8
0
  6
CONTINUOUS
 10
5.617040
 20
5.689640
  0
VERTEX
  8
0
  6
CONTINUOUS
 10
5.617040
 20
5.690960
  0
VERTEX
  8
0
  6
CONTINUOUS
 10
5.617480
 20
4.954400
  0
VERTEX
  8
0
  6
CONTINUOUS
 10
5.617480
 20
4.953080
  0
SEQEND
  8
0
  0
SOLID
  8
0
 62
    15
 10
5.617480
 20
4.954400
 11
5.617040
 21
5.690960
 12
5.637720
 22
4.950000
 13
5.637280
 23
5.686560
  0
POLYLINE
  8
0
  6
CONTINUOUS
 66
     1
 40
0.000000
 41
0.000000
  0
VERTEX
  8
0
  6
CONTINUOUS
 10
5.617480
 20
4.954400
  0
VERTEX
  8
0
  6
CONTINUOUS
 10
5.617040
 20
5.690960
  0
VERTEX
  8
0
  6
CONTINUOUS
 10
5.637280
 20
5.686560
  0
VERTEX
  8
0
  6
CONTINUOUS
 10
5.637720
 20
4.950000
  0
VERTEX
  8
0
  6
CONTINUOUS
 10
5.617480
 20
4.954400
  0
SEQEND
  8
0
  0
SOLID
  8
0
 62
    15
 10
5.637720
 20
4.950000
 11
5.637280
 21
5.686560
 12
5.656640
 22
4.942080
 13
5.656200
 23
5.678640
  0
POLYLINE
  8
0
  6
CONTINUOUS
 66
     1
 40
0.000000
 41
0.000000
  0
VERTEX
  8
0
  6
CONTINUOUS
 10
5.637720
 20
4.950000
  0
VERTEX
  8
0
  6
CONTINUOUS
 10
5.637280
 20
5.686560
  0
VERTEX
  8
0
  6
CONTINUOUS
 10
5.656200
 20
5.678640
  0
VERTEX
  8
0
  6
CONTINUOUS
 10
5.656640
 20
4.942080
  0
VERTEX
  8
0
  6
CONTINUOUS
 10
5.637720
 20
4.950000
  0
SEQEND
  8
0
  0
SOLID
  8
0
 62
    15
 10
5.656640
 20
4.942080
 11
5.656200
 21
5.678640
 12
5.690080
 22
4.918760
 13
5.689640
 23
5.655320
  0
POLYLINE
  8
0
  6
CONTINUOUS
 66
     1
 40
0.000000
 41
0.000000
  0
VERTEX
  8
0
  6
CONTINUOUS
 10
5.656640
 20
4.942080
  0
VERTEX
  8
0
  6
CONTINUOUS
 10
5.656200
 20
5.678640
  0
VERTEX
  8
0
  6
CONTINUOUS
 10
5.689640
 20
5.655320
  0
VERTEX
  8
0
  6
CONTINUOUS
 10
5.690080
 20
4.918760
  0
VERTEX
  8
0
  6
CONTINUOUS
 10
5.656640
 20
4.942080
  0
SEQEND
  8
0
  0
SOLID
  8
0
 62
    15
 10
5.690080
 20
4.918760
 11
5.689640
 21
5.655320
 12
5.713840
 22
4.887960
 13
5.713400
 23
5.624520
  0
POLYLINE
  8
0
  6
CONTINUOUS
 66
     1
 40
0.000000
 41
0.000000
  0
VERTEX
  8
0
  6
CONTINUOUS
 10
5.690080
 20
4.918760
  0
VERTEX
  8
0
  6
CONTINUOUS
 10
5.689640
 20
5.655320
  0
VERTEX
  8
0
  6
CONTINUOUS
 10
5.713400
 20
5.624520
  0
VERTEX
  8
0
  6
CONTINUOUS
 10
5.713840
 20
4.887960
  0
VERTEX
  8
0
  6
CONTINUOUS
 10
5.690080
 20
4.918760
  0
SEQEND
  8
0
  0
SOLID
  8
0
 62
    15
 10
5.725720
 20
4.854080
 11
5.725280
 21
5.590640
 12
5.726600
 22
4.836480
 13
5.726160
 23
5.573040
  0
POLYLINE
  8
0
  6
CONTINUOUS
 66
     1
 40
0.000000
 41
0.000000
  0
VERTEX
  8
0
  6
CONTINUOUS
 10
5.725720
 20
4.854080
  0
VERTEX
  8
0
  6
CONTINUOUS
 10
5.725280
 20
5.590640
  0
VERTEX
  8
0
  6
CONTINUOUS
 10
5.726160
 20
5.573040
  0
VERTEX
  8
0
  6
CONTINUOUS
 10
5.726600
 20
4.836480
  0
VERTEX
  8
0
  6
CONTINUOUS
 10
5.725720
 20
4.854080
  0
SEQEND
  8
0
  0
SOLID
  8
0
 62
    15
 10
5.713840
 20
4.887960
 11
5.713400
 21
5.624520
 12
5.725720
 22
4.854080
 13
5.725280
 23
5.590640
  0
POLYLINE
  8
0
  6
CONTINUOUS
 66
     1
 40
0.000000
 41
0.000000
  0
VERTEX
  8
0
  6
CONTINUOUS
 10
5.713840
 20
4.887960
  0
VERTEX
  8
0
  6
CONTINUOUS
 10
5.713400
 20
5.624520
  0
VERTEX
  8
0
  6
CONTINUOUS
 10
5.725280
 20
5.590640
  0
VERTEX
  8
0
  6
CONTINUOUS
 10
5.725720
 20
4.854080
  0
VERTEX
  8
0
  6
CONTINUOUS
 10
5.713840
 20
4.887960
  0
SEQEND
  8
0
  0
POLYLINE
  8
0
  6
CONTINUOUS
 66
     1
 40
0.000000
 41
0.000000
  0
VERTEX
  8
0
  6
CONTINUOUS
 10
5.451160
 20
4.451920
  0
VERTEX
  8
0
  6
CONTINUOUS
 10
2.605680
 20
4.451920
  0
VERTEX
  8
0
  6
CONTINUOUS
 10
2.604360
 20
4.450600
  0
VERTEX
  8
0
  6
CONTINUOUS
 10
2.604360
 20
4.727800
  0
VERTEX
  8
0
  6
CONTINUOUS
 10
2.766720
 20
4.749360
  0
VERTEX
  8
0
  6
CONTINUOUS
 10
2.772440
 20
4.752000
  0
VERTEX
  8
0
  6
CONTINUOUS
 10
2.803680
 20
4.756840
  0
VERTEX
  8
0
  6
CONTINUOUS
 10
2.829200
 20
4.765640
  0
VERTEX
  8
0
  6
CONTINUOUS
 10
2.849440
 20
4.777520
  0
VERTEX
  8
0
  6
CONTINUOUS
 10
2.864400
 20
4.791600
  0
VERTEX
  8
0
  6
CONTINUOUS
 10
2.874520
 20
4.807880
  0
VERTEX
  8
0
  6
CONTINUOUS
 10
2.880680
 20
4.825920
  0
VERTEX
  8
0
  6
CONTINUOUS
 10
2.882000
 20
4.844400
  0
VERTEX
  8
0
  6
CONTINUOUS
 10
2.879360
 20
4.863320
  0
VERTEX
  8
0
  6
CONTINUOUS
 10
2.873200
 20
4.881800
  0
VERTEX
  8
0
  6
CONTINUOUS
 10
2.863960
 20
4.899840
  0
VERTEX
  8
0
  6
CONTINUOUS
 10
2.835800
 20
4.930640
  0
VERTEX
  8
0
  6
CONTINUOUS
 10
2.817320
 20
4.942960
  0
VERTEX
  8
0
  6
CONTINUOUS
 10
2.797080
 20
4.951760
  0
VERTEX
  8
0
  6
CONTINUOUS
 10
2.775080
 20
4.957480
  0
VERTEX
  8
0
  6
CONTINUOUS
 10
2.748240
 20
4.958360
  0
VERTEX
  8
0
  6
CONTINUOUS
 10
2.604360
 20
4.977280
  0
VERTEX
  8
0
  6
CONTINUOUS
 10
2.604360
 20
5.062640
  0
VERTEX
  8
0
  6
CONTINUOUS
 10
2.607000
 20
5.067920
  0
VERTEX
  8
0
  6
CONTINUOUS
 10
2.720080
 20
5.189360
  0
VERTEX
  8
0
  6
CONTINUOUS
 10
3.608440
 20
5.189360
  0
VERTEX
  8
0
  6
CONTINUOUS
 10
3.756280
 20
5.030520
  0
VERTEX
  8
0
  6
CONTINUOUS
 10
3.772120
 20
5.030520
  0
VERTEX
  8
0
  6
CONTINUOUS
 10
3.772120
 20
5.067920
  0
VERTEX
  8
0
  6
CONTINUOUS
 10
3.774760
 20
5.091680
  0
VERTEX
  8
0
  6
CONTINUOUS
 10
3.781360
 20
5.113240
  0
VERTEX
  8
0
  6
CONTINUOUS
 10
3.791920
 20
5.133040
  0
VERTEX
  8
0
  6
CONTINUOUS
 10
3.806000
 20
5.149760
  0
VERTEX
  8
0
  6
CONTINUOUS
 10
3.822720
 20
5.163400
  0
VERTEX
  8
0
  6
CONTINUOUS
 10
3.842520
 20
5.173960
  0
VERTEX
  8
0
  6
CONTINUOUS
 10
3.864520
 20
5.180120
  0
VERTEX
  8
0
  6
CONTINUOUS
 10
3.888280
 20
5.182760
  0
VERTEX
  8
0
  6
CONTINUOUS
 10
3.912040
 20
5.180120
  0
VERTEX
  8
0
  6
CONTINUOUS
 10
3.933600
 20
5.173080
  0
VERTEX
  8
0
  6
CONTINUOUS
 10
3.953400
 20
5.161640
  0
VERTEX
  8
0
  6
CONTINUOUS
 10
3.970120
 20
5.147120
  0
VERTEX
  8
0
  6
CONTINUOUS
 10
3.983760
 20
5.129080
  0
VERTEX
  8
0
  6
CONTINUOUS
 10
3.994320
 20
5.108840
  0
VERTEX
  8
0
  6
CONTINUOUS
 10
4.000480
 20
5.086400
  0
VERTEX
  8
0
  6
CONTINUOUS
 10
4.003120
 20
5.062640
  0
VERTEX
  8
0
  6
CONTINUOUS
 10
4.003120
 20
5.029200
  0
VERTEX
  8
0
  6
CONTINUOUS
 10
4.022920
 20
5.029200
  0
VERTEX
  8
0
  6
CONTINUOUS
 10
4.025560
 20
5.030520
  0
VERTEX
  8
0
  6
CONTINUOUS
 10
4.165480
 20
5.189360
  0
VERTEX
  8
0
  6
CONTINUOUS
 10
5.015120
 20
5.189360
  0
VERTEX
  8
0
  6
CONTINUOUS
 10
5.185400
 20
5.016000
  0
VERTEX
  8
0
  6
CONTINUOUS
 10
5.208280
 20
5.016000
  0
VERTEX
  8
0
  6
CONTINUOUS
 10
5.208280
 20
5.039760
  0
VERTEX
  8
0
  6
CONTINUOUS
 10
5.210920
 20
5.064400
  0
VERTEX
  8
0
  6
CONTINUOUS
 10
5.217960
 20
5.086840
  0
VERTEX
  8
0
  6
CONTINUOUS
 10
5.228960
 20
5.107520
  0
VERTEX
  8
0
  6
CONTINUOUS
 10
5.243920
 20
5.125560
  0
VERTEX
  8
0
  6
CONTINUOUS
 10
5.261960
 20
5.140520
  0
VERTEX
  8
0
  6
CONTINUOUS
 10
5.282640
 20
5.151520
  0
VERTEX
  8
0
  6
CONTINUOUS
 10
5.305080
 20
5.158560
  0
VERTEX
  8
0
  6
CONTINUOUS
 10
5.329720
 20
5.161200
  0
VERTEX
  8
0
  6
CONTINUOUS
 10
5.353920
 20
5.158560
  0
VERTEX
  8
0
  6
CONTINUOUS
 10
5.377240
 20
5.151080
  0
VERTEX
  8
0
  6
CONTINUOUS
 10
5.397920
 20
5.139640
  0
VERTEX
  8
0
  6
CONTINUOUS
 10
5.416400
 20
5.124240
  0
VERTEX
  8
0
  6
CONTINUOUS
 10
5.431800
 20
5.105760
  0
VERTEX
  8
0
  6
CONTINUOUS
 10
5.443680
 20
5.084640
  0
VERTEX
  8
0
  6
CONTINUOUS
 10
5.451160
 20
5.061760
  0
VERTEX
  8
0
  6
CONTINUOUS
 10
5.453800
 20
5.037120
  0
VERTEX
  8
0
  6
CONTINUOUS
 10
5.453800
 20
4.974640
  0
VERTEX
  8
0
  6
CONTINUOUS
 10
5.617480
 20
4.953080
  0
VERTEX
  8
0
  6
CONTINUOUS
 10
5.617480
 20
4.954400
  0
VERTEX
  8
0
  6
CONTINUOUS
 10
5.637720
 20
4.950000
  0
VERTEX
  8
0
  6
CONTINUOUS
 10
5.656640
 20
4.942080
  0
VERTEX
  8
0
  6
CONTINUOUS
 10
5.690080
 20
4.918760
  0
VERTEX
  8
0
  6
CONTINUOUS
 10
5.713840
 20
4.887960
  0
VERTEX
  8
0
  6
CONTINUOUS
 10
5.725720
 20
4.854080
  0
VERTEX
  8
0
  6
CONTINUOUS
 10
5.726600
 20
4.836480
  0
VERTEX
  8
0
  6
CONTINUOUS
 10
5.723080
 20
4.819760
  0
VERTEX
  8
0
  6
CONTINUOUS
 10
5.715160
 20
4.803920
  0
VERTEX
  8
0
  6
CONTINUOUS
 10
5.702400
 20
4.789400
  0
VERTEX
  8
0
  6
CONTINUOUS
 10
5.684360
 20
4.776640
  0
VERTEX
  8
0
  6
CONTINUOUS
 10
5.661040
 20
4.765640
  0
VERTEX
  8
0
  6
CONTINUOUS
 10
5.631560
 20
4.758160
  0
VERTEX
  8
0
  6
CONTINUOUS
 10
5.591080
 20
4.753320
  0
VERTEX
  8
0
  6
CONTINUOUS
 10
5.453800
 20
4.733080
  0
VERTEX
  8
0
  6
CONTINUOUS
 10
5.453800
 20
4.451920
  0
VERTEX
  8
0
  6
CONTINUOUS
 10
5.451160
 20
4.451920
  0
SEQEND
  8
0
  0
POLYLINE
  8
0
  6
CONTINUOUS
 66
     1
 40
0.014080
 41
0.014080
  0
VERTEX
  8
0
  6
CONTINUOUS
 10
5.616160
 20
6.295080
  0
VERTEX
  8
0
  6
CONTINUOUS
 10
5.616160
 20
6.576240
  0
VERTEX
  8
0
  6
CONTINUOUS
 10
5.753440
 20
6.596040
  0
VERTEX
  8
0
  6
CONTINUOUS
 10
5.777640
 20
6.597800
  0
VERTEX
  8
0
  6
CONTINUOUS
 10
5.810200
 20
6.604400
  0
VERTEX
  8
0
  6
CONTINUOUS
 10
5.836160
 20
6.613640
  0
VERTEX
  8
0
  6
CONTINUOUS
 10
5.856840
 20
6.625520
  0
VERTEX
  8
0
  6
CONTINUOUS
 10
5.871800
 20
6.639160
  0
VERTEX
  8
0
  6
CONTINUOUS
 10
5.882360
 20
6.654560
  0
VERTEX
  8
0
  6
CONTINUOUS
 10
5.888080
 20
6.671280
  0
VERTEX
  8
0
  6
CONTINUOUS
 10
5.889400
 20
6.688440
  0
VERTEX
  8
0
  6
CONTINUOUS
 10
5.886760
 20
6.705600
  0
VERTEX
  8
0
  6
CONTINUOUS
 10
5.876640
 20
6.731120
  0
VERTEX
  8
0
  6
CONTINUOUS
 10
5.859480
 20
6.754440
  0
VERTEX
  8
0
  6
CONTINUOUS
 10
5.837040
 20
6.774680
  0
VERTEX
  8
0
  6
CONTINUOUS
 10
5.819440
 20
6.785240
  0
VERTEX
  8
0
  6
CONTINUOUS
 10
5.790400
 20
6.795800
  0
VERTEX
  8
0
  6
CONTINUOUS
 10
5.780280
 20
6.797560
  0
VERTEX
  8
0
  6
CONTINUOUS
 10
5.780280
 20
6.796240
  0
VERTEX
  8
0
  6
CONTINUOUS
 10
5.616160
 20
6.817360
  0
VERTEX
  8
0
  6
CONTINUOUS
 10
5.615720
 20
6.892600
  0
VERTEX
  8
0
  6
CONTINUOUS
 10
5.610440
 20
6.916360
  0
VERTEX
  8
0
  6
CONTINUOUS
 10
5.600760
 20
6.938360
  0
VERTEX
  8
0
  6
CONTINUOUS
 10
5.587120
 20
6.958160
  0
VERTEX
  8
0
  6
CONTINUOUS
 10
5.570400
 20
6.975320
  0
VERTEX
  8
0
  6
CONTINUOUS
 10
5.550600
 20
6.988960
  0
VERTEX
  8
0
  6
CONTINUOUS
 10
5.528160
 20
6.998640
  0
VERTEX
  8
0
  6
CONTINUOUS
 10
5.504400
 20
7.003480
  0
VERTEX
  8
0
  6
CONTINUOUS
 10
5.479760
 20
7.003920
  0
VERTEX
  8
0
  6
CONTINUOUS
 10
5.456440
 20
6.999080
  0
VERTEX
  8
0
  6
CONTINUOUS
 10
5.434440
 20
6.989840
  0
VERTEX
  8
0
  6
CONTINUOUS
 10
5.415080
 20
6.976640
  0
VERTEX
  8
0
  6
CONTINUOUS
 10
5.398800
 20
6.959920
  0
VERTEX
  8
0
  6
CONTINUOUS
 10
5.385600
 20
6.940560
  0
VERTEX
  8
0
  6
CONTINUOUS
 10
5.376360
 20
6.919000
  0
VERTEX
  8
0
  6
CONTINUOUS
 10
5.371520
 20
6.895240
  0
VERTEX
  8
0
  6
CONTINUOUS
 10
5.371080
 20
6.858720
  0
VERTEX
  8
0
  6
CONTINUOUS
 10
5.348200
 20
6.858720
  0
VERTEX
  8
0
  6
CONTINUOUS
 10
5.177480
 20
7.032080
  0
VERTEX
  8
0
  6
CONTINUOUS
 10
4.328280
 20
7.032080
  0
VERTEX
  8
0
  6
CONTINUOUS
 10
4.188360
 20
6.873680
  0
VERTEX
  8
0
  6
CONTINUOUS
 10
4.185720
 20
6.872360
  0
VERTEX
  8
0
  6
CONTINUOUS
 10
4.165480
 20
6.872360
  0
VERTEX
  8
0
  6
CONTINUOUS
 10
4.165040
 20
6.917680
  0
VERTEX
  8
0
  6
CONTINUOUS
 10
4.160640
 20
6.941000
  0
VERTEX
  8
0
  6
CONTINUOUS
 10
4.152280
 20
6.962560
  0
VERTEX
  8
0
  6
CONTINUOUS
 10
4.139960
 20
6.981480
  0
VERTEX
  8
0
  6
CONTINUOUS
 10
4.124560
 20
6.997760
  0
VERTEX
  8
0
  6
CONTINUOUS
 10
4.106520
 20
7.010960
  0
VERTEX
  8
0
  6
CONTINUOUS
 10
4.085840
 20
7.020200
  0
VERTEX
  8
0
  6
CONTINUOUS
 10
4.062960
 20
7.025040
  0
VERTEX
  8
0
  6
CONTINUOUS
 10
4.038760
 20
7.025040
  0
VERTEX
  8
0
  6
CONTINUOUS
 10
4.015880
 20
7.020640
  0
VERTEX
  8
0
  6
CONTINUOUS
 10
3.995200
 20
7.012280
  0
VERTEX
  8
0
  6
CONTINUOUS
 10
3.976720
 20
6.999960
  0
VERTEX
  8
0
  6
CONTINUOUS
 10
3.960880
 20
6.984560
  0
VERTEX
  8
0
  6
CONTINUOUS
 10
3.948560
 20
6.966520
  0
VERTEX
  8
0
  6
CONTINUOUS
 10
3.940200
 20
6.945840
  0
VERTEX
  8
0
  6
CONTINUOUS
 10
3.935360
 20
6.922960
  0
VERTEX
  8
0
  6
CONTINUOUS
 10
3.934920
 20
6.873680
  0
VERTEX
  8
0
  6
CONTINUOUS
 10
3.919080
 20
6.873680
  0
VERTEX
  8
0
  6
CONTINUOUS
 10
3.770800
 20
7.032080
  0
VERTEX
  8
0
  6
CONTINUOUS
 10
2.882880
 20
7.032080
  0
VERTEX
  8
0
  6
CONTINUOUS
 10
2.769800
 20
6.911080
  0
VERTEX
  8
0
  6
CONTINUOUS
 10
2.766720
 20
6.905800
  0
VERTEX
  8
0
  6
CONTINUOUS
 10
2.767160
 20
6.820440
  0
VERTEX
  8
0
  6
CONTINUOUS
 10
2.913680
 20
6.801520
  0
VERTEX
  8
0
  6
CONTINUOUS
 10
2.926000
 20
6.801520
  0
VERTEX
  8
0
  6
CONTINUOUS
 10
2.948880
 20
6.798000
  0
VERTEX
  8
0
  6
CONTINUOUS
 10
2.970440
 20
6.790520
  0
VERTEX
  8
0
  6
CONTINUOUS
 10
2.989800
 20
6.779960
  0
VERTEX
  8
0
  6
CONTINUOUS
 10
3.014000
 20
6.759280
  0
VERTEX
  8
0
  6
CONTINUOUS
 10
3.026320
 20
6.742560
  0
VERTEX
  8
0
  6
CONTINUOUS
 10
3.036000
 20
6.724960
  0
VERTEX
  8
0
  6
CONTINUOUS
 10
3.042160
 20
6.706040
  0
VERTEX
  8
0
  6
CONTINUOUS
 10
3.044800
 20
6.687120
  0
VERTEX
  8
0
  6
CONTINUOUS
 10
3.043040
 20
6.668640
  0
VERTEX
  8
0
  6
CONTINUOUS
 10
3.037320
 20
6.651040
  0
VERTEX
  8
0
  6
CONTINUOUS
 10
3.027200
 20
6.634760
  0
VERTEX
  8
0
  6
CONTINUOUS
 10
3.011800
 20
6.620240
  0
VERTEX
  8
0
  6
CONTINUOUS
 10
2.991560
 20
6.608360
  0
VERTEX
  8
0
  6
CONTINUOUS
 10
2.979680
 20
6.603520
  0
VERTEX
  8
0
  6
CONTINUOUS
 10
2.951080
 20
6.596920
  0
VERTEX
  8
0
  6
CONTINUOUS
 10
2.934800
 20
6.594720
  0
VERTEX
  8
0
  6
CONTINUOUS
 10
2.929520
 20
6.592080
  0
VERTEX
  8
0
  6
CONTINUOUS
 10
2.767160
 20
6.570960
  0
VERTEX
  8
0
  6
CONTINUOUS
 10
2.766720
 20
6.293760
  0
VERTEX
  8
0
  6
CONTINUOUS
 10
2.768480
 20
6.295080
  0
VERTEX
  8
0
  6
CONTINUOUS
 10
5.616160
 20
6.295080
  0
SEQEND
  8
0
  0
TEXT
  8
0
 10
3.915560
 20
6.651040
 40
0.138122
  1
BA  10
 41
1.000000
  7
SN0
 71
     0
 72
     5
 11
4.413522
 21
6.651040
  0
TEXT
  8
0
 10
3.713600
 20
6.459640
 40
0.138122
  1
3/4" x 3-1/8"
 41
1.000000
  7
SN0
 71
     0
 72
     5
 11
4.614510
 21
6.459640
  0
ENDSEC
  0
EOF
