  0
SECTION
  2
HEADER
  9
$ACADVER
  1
AC1006
  9
$EXTMIN
 10
4.979920
 20
0.342760
  9
$EXTMAX
 10
7.993040
 20
3.717560
  9
$LTSCALE
 40
0.044000
  9
$PDMODE
 70
    35
  9
$PDSIZE
 40
0.035200
  0
ENDSEC
  0
SECTION
  2
TABLES
  0
TABLE
  2
LTYPE
 70
     9
  0
LTYPE
  2
CONTINUOUS
 70
    64
  3
Solid line
 72
    65
 73
     0
 40
0.000000
  0
LTYPE
  2
DASHED
 70
    64
  3
__ __ __ __ __ __ __ __ __ __ __ __ __ __ __
 72
    65
 73
     2
 40
0.000330
 49
0.000220
 49
-0.000110
  0
LTYPE
  2
HIDDEN
 70
    64
  3
 _ _ _ _ _ _ _ _ _ _ _ _ _ _ _ _ _ _ _ _ _ _
 72
    65
 73
     2
 40
0.000165
 49
0.000110
 49
-0.000055
  0
LTYPE
  2
CENTER
 70
    64
  3
____ _ ____ _ ____ _ ____ _ ____ _ ____ _ ____
 72
    65
 73
     4
 40
0.000880
 49
0.000550
 49
-0.000110
 49
0.000110
 49
-0.000110
  0
LTYPE
  2
PHANTOM
 70
    64
  3
_____ _ _ _____ _ _ _____ _ _ _____ _ _ ____
 72
    65
 73
     6
 40
0.001100
 49
0.000550
 49
-0.000110
 49
0.000110
 49
-0.000110
 49
0.000110
 49
-0.000110
  0
LTYPE
  2
DOT
 70
    64
  3
...............................................
 72
    65
 73
     2
 40
0.000110
 49
0.000000
 49
-0.000110
  0
LTYPE
  2
DASHDOT
 70
    64
  3
__ . __ . __ . __ . __ . __ . __ . __ . __ . __
 72
    65
 73
     4
 40
0.000440
 49
0.000220
 49
-0.000110
 49
0.000000
 49
-0.000110
  0
LTYPE
  2
BORDER
 70
    64
  3
__ __ . __ __ . __ __ . __ __ . __ __ . __ __
 72
    65
 73
     6
 40
0.000770
 49
0.000220
 49
-0.000110
 49
0.000220
 49
-0.000110
 49
0.000000
 49
-0.000110
  0
LTYPE
  2
DIVIDE
 70
    64
  3
__ . . __ . . __ . . __ . . __ . . __ . . __
 72
    65
 73
     6
 40
0.000550
 49
0.000220
 49
-0.000110
 49
0.000000
 49
-0.000110
 49
0.000000
 49
-0.000110
  0
LTYPE
  2
DOTDOT
 70
    64
  3
 . .  . .  . .  . .  . .  . . 
 72
    65
 73
     5
 40
0.000242
 49
-0.000110
 49
0.000000
 49
-0.000110
 49
0.000000
 49
-0.000110
  0
ENDTAB
  0
TABLE
  2
STYLE
 70
     2
  0
STYLE
 70
     0
  2
SN0
 40
0.000000
 41
0.000440
 50
0.000000
 71
     0
 42
0.000000
  3
ROMAND
  0
STYLE
 70
    68
  2
SV0
 40
0.000000
 41
0.000440
 50
0.000000
 71
     0
 42
0.000000
  3
ROMAND
  0
ENDTAB
  0
TABLE
  2
LAYER
 70
     3
  0
LAYER
  2
FOREGROUND
 70
    64
 62
     7
  6
CONTINUOUS
  0
LAYER
  2
BACKGROUND
 70
    65
 62
    -7
  6
CONTINUOUS
  0
LAYER
  2
0
 70
    64
 62
     7
  6
CONTINUOUS
  0
ENDTAB
  0
ENDSEC
  0
SECTION
  2
ENTITIES
  0
POLYLINE
  8
FOREGROUND
  6
CONTINUOUS
 66
     1
 40
0.000000
 41
0.000000
  0
VERTEX
  8
FOREGROUND
  6
CONTINUOUS
 10
0.000000
 20
4.060320
  0
VERTEX
  8
FOREGROUND
  6
CONTINUOUS
 10
8.499920
 20
4.060320
  0
VERTEX
  8
FOREGROUND
  6
CONTINUOUS
 10
8.499920
 20
-6.939680
  0
VERTEX
  8
FOREGROUND
  6
CONTINUOUS
 10
0.000000
 20
-6.939680
  0
VERTEX
  8
FOREGROUND
  6
CONTINUOUS
 10
0.000000
 20
4.060320
  0
SEQEND
  8
0
  0
POLYLINE
  8
FOREGROUND
  6
CONTINUOUS
 66
     1
 40
0.000000
 41
0.000000
  0
VERTEX
  8
FOREGROUND
  6
CONTINUOUS
 10
0.000000
 20
4.060320
  0
VERTEX
  8
FOREGROUND
  6
CONTINUOUS
 10
8.499920
 20
4.060320
  0
VERTEX
  8
FOREGROUND
  6
CONTINUOUS
 10
8.499920
 20
-6.939680
  0
VERTEX
  8
FOREGROUND
  6
CONTINUOUS
 10
0.000000
 20
-6.939680
  0
VERTEX
  8
FOREGROUND
  6
CONTINUOUS
 10
0.000000
 20
4.060320
  0
SEQEND
  8
0
  0
POLYLINE
  8
0
  6
CONTINUOUS
 66
     1
 40
0.014080
 41
0.014080
  0
VERTEX
  8
0
  6
CONTINUOUS
 10
6.457000
 20
3.393280
  0
VERTEX
  8
0
  6
CONTINUOUS
 10
7.357240
 20
3.393280
  0
VERTEX
  8
0
  6
CONTINUOUS
 10
7.357240
 20
2.634720
  0
VERTEX
  8
0
  6
CONTINUOUS
 10
4.987840
 20
2.634720
  0
VERTEX
  8
0
  6
CONTINUOUS
 10
4.987840
 20
3.389320
  0
VERTEX
  8
0
  6
CONTINUOUS
 10
5.922400
 20
3.389320
  0
VERTEX
  8
0
  6
CONTINUOUS
 10
5.923720
 20
3.362040
  0
VERTEX
  8
0
  6
CONTINUOUS
 10
5.927680
 20
3.335640
  0
VERTEX
  8
0
  6
CONTINUOUS
 10
5.938680
 20
3.298240
  0
VERTEX
  8
0
  6
CONTINUOUS
 10
5.954520
 20
3.263040
  0
VERTEX
  8
0
  6
CONTINUOUS
 10
5.968160
 20
3.241040
  0
VERTEX
  8
0
  6
CONTINUOUS
 10
5.983560
 20
3.220360
  0
VERTEX
  8
0
  6
CONTINUOUS
 10
6.000720
 20
3.201880
  0
VERTEX
  8
0
  6
CONTINUOUS
 10
6.019640
 20
3.184720
  0
VERTEX
  8
0
  6
CONTINUOUS
 10
6.051320
 20
3.162280
  0
VERTEX
  8
0
  6
CONTINUOUS
 10
6.085640
 20
3.144680
  0
VERTEX
  8
0
  6
CONTINUOUS
 10
6.122600
 20
3.132360
  0
VERTEX
  8
0
  6
CONTINUOUS
 10
6.148560
 20
3.127080
  0
VERTEX
  8
0
  6
CONTINUOUS
 10
6.175400
 20
3.124440
  0
VERTEX
  8
0
  6
CONTINUOUS
 10
6.202680
 20
3.124440
  0
VERTEX
  8
0
  6
CONTINUOUS
 10
6.229520
 20
3.127080
  0
VERTEX
  8
0
  6
CONTINUOUS
 10
6.268240
 20
3.135880
  0
VERTEX
  8
0
  6
CONTINUOUS
 10
6.304760
 20
3.149960
  0
VERTEX
  8
0
  6
CONTINUOUS
 10
6.338200
 20
3.169320
  0
VERTEX
  8
0
  6
CONTINUOUS
 10
6.358880
 20
3.184720
  0
VERTEX
  8
0
  6
CONTINUOUS
 10
6.395400
 20
3.220360
  0
VERTEX
  8
0
  6
CONTINUOUS
 10
6.417840
 20
3.251600
  0
VERTEX
  8
0
  6
CONTINUOUS
 10
6.435880
 20
3.285920
  0
VERTEX
  8
0
  6
CONTINUOUS
 10
6.448640
 20
3.322880
  0
VERTEX
  8
0
  6
CONTINUOUS
 10
6.455680
 20
3.362040
  0
VERTEX
  8
0
  6
CONTINUOUS
 10
6.457000
 20
3.393280
  0
SEQEND
  8
0
  0
TEXT
  8
0
 10
7.643680
 20
3.566640
 40
0.138133
  1
case
 41
1.000000
  7
SN0
 71
     0
 72
     5
 11
7.993984
 21
3.566640
  0
TEXT
  8
0
 10
7.773040
 20
3.374800
 40
0.138133
  1
8
 41
1.000000
  7
SN0
 71
     0
 72
     5
 11
7.865510
 21
3.374800
  0
TEXT
  8
0
 10
5.976520
 20
0.577280
 40
0.138133
  1
BA  8
 41
1.000000
  7
SN0
 71
     0
 72
     5
 11
6.382171
 21
0.577280
  0
TEXT
  8
0
 10
5.728360
 20
0.385880
 40
0.138133
  1
3/4" x 2-3/8" 
 41
1.000000
  7
SN0
 71
     0
 72
     5
 11
6.674148
 21
0.385880
  0
SOLID
  8
0
 62
    15
 10
6.138440
 20
1.305920
 11
6.144600
 21
2.058320
 12
6.191680
 22
1.300640
 13
6.198280
 23
2.053040
  0
POLYLINE
  8
0
  6
CONTINUOUS
 66
     1
 40
0.000000
 41
0.000000
  0
VERTEX
  8
0
  6
CONTINUOUS
 10
6.138440
 20
1.305920
  0
VERTEX
  8
0
  6
CONTINUOUS
 10
6.144600
 20
2.058320
  0
VERTEX
  8
0
  6
CONTINUOUS
 10
6.198280
 20
2.053040
  0
VERTEX
  8
0
  6
CONTINUOUS
 10
6.191680
 20
1.300640
  0
VERTEX
  8
0
  6
CONTINUOUS
 10
6.138440
 20
1.305920
  0
SEQEND
  8
0
  0
SOLID
  8
0
 62
    15
 10
7.359880
 20
1.569920
 11
7.366480
 21
2.322320
 12
7.359880
 22
0.811360
 13
7.366480
 23
1.563760
  0
POLYLINE
  8
0
  6
CONTINUOUS
 66
     1
 40
0.000000
 41
0.000000
  0
VERTEX
  8
0
  6
CONTINUOUS
 10
7.359880
 20
1.569920
  0
VERTEX
  8
0
  6
CONTINUOUS
 10
7.366480
 20
2.322320
  0
VERTEX
  8
0
  6
CONTINUOUS
 10
7.366480
 20
1.563760
  0
VERTEX
  8
0
  6
CONTINUOUS
 10
7.359880
 20
0.811360
  0
VERTEX
  8
0
  6
CONTINUOUS
 10
7.359880
 20
1.569920
  0
SEQEND
  8
0
  0
SOLID
  8
0
 62
    15
 10
4.990480
 20
1.565960
 11
4.997080
 21
2.318360
 12
5.925040
 22
1.565960
 13
5.931640
 23
2.318360
  0
POLYLINE
  8
0
  6
CONTINUOUS
 66
     1
 40
0.000000
 41
0.000000
  0
VERTEX
  8
0
  6
CONTINUOUS
 10
4.990480
 20
1.565960
  0
VERTEX
  8
0
  6
CONTINUOUS
 10
4.997080
 20
2.318360
  0
VERTEX
  8
0
  6
CONTINUOUS
 10
5.931640
 20
2.318360
  0
VERTEX
  8
0
  6
CONTINUOUS
 10
5.925040
 20
1.565960
  0
VERTEX
  8
0
  6
CONTINUOUS
 10
4.990480
 20
1.565960
  0
SEQEND
  8
0
  0
SOLID
  8
0
 62
    15
 10
5.925040
 20
1.565960
 11
5.931640
 21
2.318360
 12
5.930760
 22
1.512280
 13
5.936920
 23
2.264680
  0
POLYLINE
  8
0
  6
CONTINUOUS
 66
     1
 40
0.000000
 41
0.000000
  0
VERTEX
  8
0
  6
CONTINUOUS
 10
5.925040
 20
1.565960
  0
VERTEX
  8
0
  6
CONTINUOUS
 10
5.931640
 20
2.318360
  0
VERTEX
  8
0
  6
CONTINUOUS
 10
5.936920
 20
2.264680
  0
VERTEX
  8
0
  6
CONTINUOUS
 10
5.930760
 20
1.512280
  0
VERTEX
  8
0
  6
CONTINUOUS
 10
5.925040
 20
1.565960
  0
SEQEND
  8
0
  0
SOLID
  8
0
 62
    15
 10
5.930760
 20
1.512280
 11
5.936920
 21
2.264680
 12
5.946160
 22
1.462560
 13
5.952760
 23
2.214960
  0
POLYLINE
  8
0
  6
CONTINUOUS
 66
     1
 40
0.000000
 41
0.000000
  0
VERTEX
  8
0
  6
CONTINUOUS
 10
5.930760
 20
1.512280
  0
VERTEX
  8
0
  6
CONTINUOUS
 10
5.936920
 20
2.264680
  0
VERTEX
  8
0
  6
CONTINUOUS
 10
5.952760
 20
2.214960
  0
VERTEX
  8
0
  6
CONTINUOUS
 10
5.946160
 20
1.462560
  0
VERTEX
  8
0
  6
CONTINUOUS
 10
5.930760
 20
1.512280
  0
SEQEND
  8
0
  0
SOLID
  8
0
 62
    15
 10
5.946160
 20
1.462560
 11
5.952760
 21
2.214960
 12
5.970800
 22
1.417240
 13
5.977400
 23
2.170080
  0
POLYLINE
  8
0
  6
CONTINUOUS
 66
     1
 40
0.000000
 41
0.000000
  0
VERTEX
  8
0
  6
CONTINUOUS
 10
5.946160
 20
1.462560
  0
VERTEX
  8
0
  6
CONTINUOUS
 10
5.952760
 20
2.214960
  0
VERTEX
  8
0
  6
CONTINUOUS
 10
5.977400
 20
2.170080
  0
VERTEX
  8
0
  6
CONTINUOUS
 10
5.970800
 20
1.417240
  0
VERTEX
  8
0
  6
CONTINUOUS
 10
5.946160
 20
1.462560
  0
SEQEND
  8
0
  0
SOLID
  8
0
 62
    15
 10
5.970800
 20
1.417240
 11
5.977400
 21
2.170080
 12
6.003360
 22
1.378080
 13
6.009960
 23
2.130480
  0
POLYLINE
  8
0
  6
CONTINUOUS
 66
     1
 40
0.000000
 41
0.000000
  0
VERTEX
  8
0
  6
CONTINUOUS
 10
5.970800
 20
1.417240
  0
VERTEX
  8
0
  6
CONTINUOUS
 10
5.977400
 20
2.170080
  0
VERTEX
  8
0
  6
CONTINUOUS
 10
6.009960
 20
2.130480
  0
VERTEX
  8
0
  6
CONTINUOUS
 10
6.003360
 20
1.378080
  0
VERTEX
  8
0
  6
CONTINUOUS
 10
5.970800
 20
1.417240
  0
SEQEND
  8
0
  0
SOLID
  8
0
 62
    15
 10
6.003360
 20
1.378080
 11
6.009960
 21
2.130480
 12
6.042960
 22
1.345960
 13
6.049560
 23
2.098360
  0
POLYLINE
  8
0
  6
CONTINUOUS
 66
     1
 40
0.000000
 41
0.000000
  0
VERTEX
  8
0
  6
CONTINUOUS
 10
6.003360
 20
1.378080
  0
VERTEX
  8
0
  6
CONTINUOUS
 10
6.009960
 20
2.130480
  0
VERTEX
  8
0
  6
CONTINUOUS
 10
6.049560
 20
2.098360
  0
VERTEX
  8
0
  6
CONTINUOUS
 10
6.042960
 20
1.345960
  0
VERTEX
  8
0
  6
CONTINUOUS
 10
6.003360
 20
1.378080
  0
SEQEND
  8
0
  0
SOLID
  8
0
 62
    15
 10
6.042960
 20
1.345960
 11
6.049560
 21
2.098360
 12
6.088280
 22
1.321320
 13
6.094880
 23
2.073720
  0
POLYLINE
  8
0
  6
CONTINUOUS
 66
     1
 40
0.000000
 41
0.000000
  0
VERTEX
  8
0
  6
CONTINUOUS
 10
6.042960
 20
1.345960
  0
VERTEX
  8
0
  6
CONTINUOUS
 10
6.049560
 20
2.098360
  0
VERTEX
  8
0
  6
CONTINUOUS
 10
6.094880
 20
2.073720
  0
VERTEX
  8
0
  6
CONTINUOUS
 10
6.088280
 20
1.321320
  0
VERTEX
  8
0
  6
CONTINUOUS
 10
6.042960
 20
1.345960
  0
SEQEND
  8
0
  0
SOLID
  8
0
 62
    15
 10
6.088280
 20
1.321320
 11
6.094880
 21
2.073720
 12
6.138440
 22
1.305920
 13
6.144600
 23
2.058320
  0
POLYLINE
  8
0
  6
CONTINUOUS
 66
     1
 40
0.000000
 41
0.000000
  0
VERTEX
  8
0
  6
CONTINUOUS
 10
6.088280
 20
1.321320
  0
VERTEX
  8
0
  6
CONTINUOUS
 10
6.094880
 20
2.073720
  0
VERTEX
  8
0
  6
CONTINUOUS
 10
6.144600
 20
2.058320
  0
VERTEX
  8
0
  6
CONTINUOUS
 10
6.138440
 20
1.305920
  0
VERTEX
  8
0
  6
CONTINUOUS
 10
6.088280
 20
1.321320
  0
SEQEND
  8
0
  0
SOLID
  8
0
 62
    15
 10
6.460080
 20
1.569920
 11
6.466240
 21
2.322320
 12
7.359880
 22
1.569920
 13
7.366480
 23
2.322320
  0
POLYLINE
  8
0
  6
CONTINUOUS
 66
     1
 40
0.000000
 41
0.000000
  0
VERTEX
  8
0
  6
CONTINUOUS
 10
6.460080
 20
1.569920
  0
VERTEX
  8
0
  6
CONTINUOUS
 10
6.466240
 20
2.322320
  0
VERTEX
  8
0
  6
CONTINUOUS
 10
7.366480
 20
2.322320
  0
VERTEX
  8
0
  6
CONTINUOUS
 10
7.359880
 20
1.569920
  0
VERTEX
  8
0
  6
CONTINUOUS
 10
6.460080
 20
1.569920
  0
SEQEND
  8
0
  0
SOLID
  8
0
 62
    15
 10
6.191680
 20
1.300640
 11
6.198280
 21
2.053040
 12
6.245360
 22
1.305920
 13
6.251960
 23
2.058320
  0
POLYLINE
  8
0
  6
CONTINUOUS
 66
     1
 40
0.000000
 41
0.000000
  0
VERTEX
  8
0
  6
CONTINUOUS
 10
6.191680
 20
1.300640
  0
VERTEX
  8
0
  6
CONTINUOUS
 10
6.198280
 20
2.053040
  0
VERTEX
  8
0
  6
CONTINUOUS
 10
6.251960
 20
2.058320
  0
VERTEX
  8
0
  6
CONTINUOUS
 10
6.245360
 20
1.305920
  0
VERTEX
  8
0
  6
CONTINUOUS
 10
6.191680
 20
1.300640
  0
SEQEND
  8
0
  0
SOLID
  8
0
 62
    15
 10
6.245360
 20
1.305920
 11
6.251960
 21
2.058320
 12
6.295520
 22
1.321320
 13
6.302120
 23
2.073720
  0
POLYLINE
  8
0
  6
CONTINUOUS
 66
     1
 40
0.000000
 41
0.000000
  0
VERTEX
  8
0
  6
CONTINUOUS
 10
6.245360
 20
1.305920
  0
VERTEX
  8
0
  6
CONTINUOUS
 10
6.251960
 20
2.058320
  0
VERTEX
  8
0
  6
CONTINUOUS
 10
6.302120
 20
2.073720
  0
VERTEX
  8
0
  6
CONTINUOUS
 10
6.295520
 20
1.321320
  0
VERTEX
  8
0
  6
CONTINUOUS
 10
6.245360
 20
1.305920
  0
SEQEND
  8
0
  0
SOLID
  8
0
 62
    15
 10
6.295520
 20
1.321320
 11
6.302120
 21
2.073720
 12
6.341280
 22
1.345960
 13
6.347440
 23
2.098360
  0
POLYLINE
  8
0
  6
CONTINUOUS
 66
     1
 40
0.000000
 41
0.000000
  0
VERTEX
  8
0
  6
CONTINUOUS
 10
6.295520
 20
1.321320
  0
VERTEX
  8
0
  6
CONTINUOUS
 10
6.302120
 20
2.073720
  0
VERTEX
  8
0
  6
CONTINUOUS
 10
6.347440
 20
2.098360
  0
VERTEX
  8
0
  6
CONTINUOUS
 10
6.341280
 20
1.345960
  0
VERTEX
  8
0
  6
CONTINUOUS
 10
6.295520
 20
1.321320
  0
SEQEND
  8
0
  0
SOLID
  8
0
 62
    15
 10
6.341280
 20
1.345960
 11
6.347440
 21
2.098360
 12
6.380880
 22
1.378080
 13
6.387480
 23
2.130480
  0
POLYLINE
  8
0
  6
CONTINUOUS
 66
     1
 40
0.000000
 41
0.000000
  0
VERTEX
  8
0
  6
CONTINUOUS
 10
6.341280
 20
1.345960
  0
VERTEX
  8
0
  6
CONTINUOUS
 10
6.347440
 20
2.098360
  0
VERTEX
  8
0
  6
CONTINUOUS
 10
6.387480
 20
2.130480
  0
VERTEX
  8
0
  6
CONTINUOUS
 10
6.380880
 20
1.378080
  0
VERTEX
  8
0
  6
CONTINUOUS
 10
6.341280
 20
1.345960
  0
SEQEND
  8
0
  0
SOLID
  8
0
 62
    15
 10
6.380880
 20
1.378080
 11
6.387480
 21
2.130480
 12
6.413880
 22
1.417240
 13
6.420040
 23
2.170080
  0
POLYLINE
  8
0
  6
CONTINUOUS
 66
     1
 40
0.000000
 41
0.000000
  0
VERTEX
  8
0
  6
CONTINUOUS
 10
6.380880
 20
1.378080
  0
VERTEX
  8
0
  6
CONTINUOUS
 10
6.387480
 20
2.130480
  0
VERTEX
  8
0
  6
CONTINUOUS
 10
6.420040
 20
2.170080
  0
VERTEX
  8
0
  6
CONTINUOUS
 10
6.413880
 20
1.417240
  0
VERTEX
  8
0
  6
CONTINUOUS
 10
6.380880
 20
1.378080
  0
SEQEND
  8
0
  0
SOLID
  8
0
 62
    15
 10
6.413880
 20
1.417240
 11
6.420040
 21
2.170080
 12
6.438520
 22
1.462560
 13
6.445120
 23
2.214960
  0
POLYLINE
  8
0
  6
CONTINUOUS
 66
     1
 40
0.000000
 41
0.000000
  0
VERTEX
  8
0
  6
CONTINUOUS
 10
6.413880
 20
1.417240
  0
VERTEX
  8
0
  6
CONTINUOUS
 10
6.420040
 20
2.170080
  0
VERTEX
  8
0
  6
CONTINUOUS
 10
6.445120
 20
2.214960
  0
VERTEX
  8
0
  6
CONTINUOUS
 10
6.438520
 20
1.462560
  0
VERTEX
  8
0
  6
CONTINUOUS
 10
6.413880
 20
1.417240
  0
SEQEND
  8
0
  0
SOLID
  8
0
 62
    15
 10
6.438520
 20
1.462560
 11
6.445120
 21
2.214960
 12
6.454360
 22
1.512280
 13
6.460960
 23
2.264680
  0
POLYLINE
  8
0
  6
CONTINUOUS
 66
     1
 40
0.000000
 41
0.000000
  0
VERTEX
  8
0
  6
CONTINUOUS
 10
6.438520
 20
1.462560
  0
VERTEX
  8
0
  6
CONTINUOUS
 10
6.445120
 20
2.214960
  0
VERTEX
  8
0
  6
CONTINUOUS
 10
6.460960
 20
2.264680
  0
VERTEX
  8
0
  6
CONTINUOUS
 10
6.454360
 20
1.512280
  0
VERTEX
  8
0
  6
CONTINUOUS
 10
6.438520
 20
1.462560
  0
SEQEND
  8
0
  0
SOLID
  8
0
 62
    15
 10
6.454360
 20
1.512280
 11
6.460960
 21
2.264680
 12
6.459640
 22
1.565960
 13
6.466240
 23
2.318360
  0
POLYLINE
  8
0
  6
CONTINUOUS
 66
     1
 40
0.000000
 41
0.000000
  0
VERTEX
  8
0
  6
CONTINUOUS
 10
6.454360
 20
1.512280
  0
VERTEX
  8
0
  6
CONTINUOUS
 10
6.460960
 20
2.264680
  0
VERTEX
  8
0
  6
CONTINUOUS
 10
6.466240
 20
2.318360
  0
VERTEX
  8
0
  6
CONTINUOUS
 10
6.459640
 20
1.565960
  0
VERTEX
  8
0
  6
CONTINUOUS
 10
6.454360
 20
1.512280
  0
SEQEND
  8
0
  0
SOLID
  8
0
 62
    15
 10
6.459640
 20
1.565960
 11
6.466240
 21
2.318360
 12
6.460080
 22
1.569920
 13
6.466240
 23
2.322320
  0
POLYLINE
  8
0
  6
CONTINUOUS
 66
     1
 40
0.000000
 41
0.000000
  0
VERTEX
  8
0
  6
CONTINUOUS
 10
6.459640
 20
1.565960
  0
VERTEX
  8
0
  6
CONTINUOUS
 10
6.466240
 20
2.318360
  0
VERTEX
  8
0
  6
CONTINUOUS
 10
6.466240
 20
2.322320
  0
VERTEX
  8
0
  6
CONTINUOUS
 10
6.460080
 20
1.569920
  0
VERTEX
  8
0
  6
CONTINUOUS
 10
6.459640
 20
1.565960
  0
SEQEND
  8
0
  0
POLYLINE
  8
0
  6
CONTINUOUS
 66
     1
 40
0.000000
 41
0.000000
  0
VERTEX
  8
0
  6
CONTINUOUS
 10
6.460080
 20
1.569920
  0
VERTEX
  8
0
  6
CONTINUOUS
 10
7.359880
 20
1.569920
  0
VERTEX
  8
0
  6
CONTINUOUS
 10
7.359880
 20
0.811360
  0
VERTEX
  8
0
  6
CONTINUOUS
 10
4.990480
 20
0.811360
  0
VERTEX
  8
0
  6
CONTINUOUS
 10
4.990480
 20
1.565960
  0
VERTEX
  8
0
  6
CONTINUOUS
 10
5.925040
 20
1.565960
  0
VERTEX
  8
0
  6
CONTINUOUS
 10
5.930760
 20
1.512280
  0
VERTEX
  8
0
  6
CONTINUOUS
 10
5.946160
 20
1.462560
  0
VERTEX
  8
0
  6
CONTINUOUS
 10
5.970800
 20
1.417240
  0
VERTEX
  8
0
  6
CONTINUOUS
 10
6.003360
 20
1.378080
  0
VERTEX
  8
0
  6
CONTINUOUS
 10
6.042960
 20
1.345960
  0
VERTEX
  8
0
  6
CONTINUOUS
 10
6.088280
 20
1.321320
  0
VERTEX
  8
0
  6
CONTINUOUS
 10
6.138440
 20
1.305920
  0
VERTEX
  8
0
  6
CONTINUOUS
 10
6.191680
 20
1.300640
  0
VERTEX
  8
0
  6
CONTINUOUS
 10
6.245360
 20
1.305920
  0
VERTEX
  8
0
  6
CONTINUOUS
 10
6.295520
 20
1.321320
  0
VERTEX
  8
0
  6
CONTINUOUS
 10
6.341280
 20
1.345960
  0
VERTEX
  8
0
  6
CONTINUOUS
 10
6.380880
 20
1.378080
  0
VERTEX
  8
0
  6
CONTINUOUS
 10
6.413880
 20
1.417240
  0
VERTEX
  8
0
  6
CONTINUOUS
 10
6.438520
 20
1.462560
  0
VERTEX
  8
0
  6
CONTINUOUS
 10
6.454360
 20
1.512280
  0
VERTEX
  8
0
  6
CONTINUOUS
 10
6.459640
 20
1.565960
  0
VERTEX
  8
0
  6
CONTINUOUS
 10
6.460080
 20
1.569920
  0
SEQEND
  8
0
  0
ENDSEC
  0
EOF
