  0
SECTION
  2
HEADER
  9
$ACADVER
  1
AC1006
  9
$EXTMIN
 10
1.487200
 20
0.396440
  9
$EXTMAX
 10
7.243720
 20
6.715720
  9
$LTSCALE
 40
0.044000
  9
$PDMODE
 70
    35
  9
$PDSIZE
 40
0.035200
  0
ENDSEC
  0
SECTION
  2
TABLES
  0
TABLE
  2
LTYPE
 70
     9
  0
LTYPE
  2
CONTINUOUS
 70
    64
  3
Solid line
 72
    65
 73
     0
 40
0.000000
  0
LTYPE
  2
DASHED
 70
    64
  3
__ __ __ __ __ __ __ __ __ __ __ __ __ __ __
 72
    65
 73
     2
 40
0.000330
 49
0.000220
 49
-0.000110
  0
LTYPE
  2
HIDDEN
 70
    64
  3
 _ _ _ _ _ _ _ _ _ _ _ _ _ _ _ _ _ _ _ _ _ _
 72
    65
 73
     2
 40
0.000165
 49
0.000110
 49
-0.000055
  0
LTYPE
  2
CENTER
 70
    64
  3
____ _ ____ _ ____ _ ____ _ ____ _ ____ _ ____
 72
    65
 73
     4
 40
0.000880
 49
0.000550
 49
-0.000110
 49
0.000110
 49
-0.000110
  0
LTYPE
  2
PHANTOM
 70
    64
  3
_____ _ _ _____ _ _ _____ _ _ _____ _ _ ____
 72
    65
 73
     6
 40
0.001100
 49
0.000550
 49
-0.000110
 49
0.000110
 49
-0.000110
 49
0.000110
 49
-0.000110
  0
LTYPE
  2
DOT
 70
    64
  3
...............................................
 72
    65
 73
     2
 40
0.000110
 49
0.000000
 49
-0.000110
  0
LTYPE
  2
DASHDOT
 70
    64
  3
__ . __ . __ . __ . __ . __ . __ . __ . __ . __
 72
    65
 73
     4
 40
0.000440
 49
0.000220
 49
-0.000110
 49
0.000000
 49
-0.000110
  0
LTYPE
  2
BORDER
 70
    64
  3
__ __ . __ __ . __ __ . __ __ . __ __ . __ __
 72
    65
 73
     6
 40
0.000770
 49
0.000220
 49
-0.000110
 49
0.000220
 49
-0.000110
 49
0.000000
 49
-0.000110
  0
LTYPE
  2
DIVIDE
 70
    64
  3
__ . . __ . . __ . . __ . . __ . . __ . . __
 72
    65
 73
     6
 40
0.000550
 49
0.000220
 49
-0.000110
 49
0.000000
 49
-0.000110
 49
0.000000
 49
-0.000110
  0
LTYPE
  2
DOTDOT
 70
    64
  3
 . .  . .  . .  . .  . .  . . 
 72
    65
 73
     5
 40
0.000242
 49
-0.000110
 49
0.000000
 49
-0.000110
 49
0.000000
 49
-0.000110
  0
ENDTAB
  0
TABLE
  2
STYLE
 70
     2
  0
STYLE
 70
     0
  2
SN0
 40
0.000000
 41
0.000440
 50
0.000000
 71
     0
 42
0.000000
  3
ROMAND
  0
STYLE
 70
    68
  2
SV0
 40
0.000000
 41
0.000440
 50
0.000000
 71
     0
 42
0.000000
  3
ROMAND
  0
ENDTAB
  0
TABLE
  2
LAYER
 70
     3
  0
LAYER
  2
FOREGROUND
 70
    64
 62
     7
  6
CONTINUOUS
  0
LAYER
  2
BACKGROUND
 70
    65
 62
    -7
  6
CONTINUOUS
  0
LAYER
  2
0
 70
    64
 62
     7
  6
CONTINUOUS
  0
ENDTAB
  0
ENDSEC
  0
SECTION
  2
ENTITIES
  0
POLYLINE
  8
FOREGROUND
  6
CONTINUOUS
 66
     1
 40
0.000000
 41
0.000000
  0
VERTEX
  8
FOREGROUND
  6
CONTINUOUS
 10
0.000000
 20
7.112160
  0
VERTEX
  8
FOREGROUND
  6
CONTINUOUS
 10
8.499920
 20
7.112160
  0
VERTEX
  8
FOREGROUND
  6
CONTINUOUS
 10
8.499920
 20
-3.887840
  0
VERTEX
  8
FOREGROUND
  6
CONTINUOUS
 10
0.000000
 20
-3.887840
  0
VERTEX
  8
FOREGROUND
  6
CONTINUOUS
 10
0.000000
 20
7.112160
  0
SEQEND
  8
0
  0
POLYLINE
  8
FOREGROUND
  6
CONTINUOUS
 66
     1
 40
0.000000
 41
0.000000
  0
VERTEX
  8
FOREGROUND
  6
CONTINUOUS
 10
0.000000
 20
7.112160
  0
VERTEX
  8
FOREGROUND
  6
CONTINUOUS
 10
8.499920
 20
7.112160
  0
VERTEX
  8
FOREGROUND
  6
CONTINUOUS
 10
8.499920
 20
-3.887840
  0
VERTEX
  8
FOREGROUND
  6
CONTINUOUS
 10
0.000000
 20
-3.887840
  0
VERTEX
  8
FOREGROUND
  6
CONTINUOUS
 10
0.000000
 20
7.112160
  0
SEQEND
  8
0
  0
SOLID
  8
0
 62
    15
 10
3.548600
 20
2.189440
 11
4.203320
 21
1.798720
 12
3.231360
 22
2.152480
 13
3.886520
 23
1.761760
  0
POLYLINE
  8
0
  6
CONTINUOUS
 66
     1
 40
0.000000
 41
0.000000
  0
VERTEX
  8
0
  6
CONTINUOUS
 10
3.548600
 20
2.189440
  0
VERTEX
  8
0
  6
CONTINUOUS
 10
4.203320
 20
1.798720
  0
VERTEX
  8
0
  6
CONTINUOUS
 10
3.886520
 20
1.761760
  0
VERTEX
  8
0
  6
CONTINUOUS
 10
3.231360
 20
2.152480
  0
VERTEX
  8
0
  6
CONTINUOUS
 10
3.548600
 20
2.189440
  0
SEQEND
  8
0
  0
SOLID
  8
0
 62
    15
 10
5.929000
 20
4.540800
 11
6.584160
 21
4.150080
 12
5.926360
 22
4.539920
 13
6.581080
 23
4.149200
  0
POLYLINE
  8
0
  6
CONTINUOUS
 66
     1
 40
0.000000
 41
0.000000
  0
VERTEX
  8
0
  6
CONTINUOUS
 10
5.929000
 20
4.540800
  0
VERTEX
  8
0
  6
CONTINUOUS
 10
6.584160
 20
4.150080
  0
VERTEX
  8
0
  6
CONTINUOUS
 10
6.581080
 20
4.149200
  0
VERTEX
  8
0
  6
CONTINUOUS
 10
5.926360
 20
4.539920
  0
VERTEX
  8
0
  6
CONTINUOUS
 10
5.929000
 20
4.540800
  0
SEQEND
  8
0
  0
SOLID
  8
0
 62
    15
 10
5.926360
 20
4.539920
 11
6.581080
 21
4.149200
 12
5.601200
 22
4.471280
 13
6.255920
 23
4.080560
  0
POLYLINE
  8
0
  6
CONTINUOUS
 66
     1
 40
0.000000
 41
0.000000
  0
VERTEX
  8
0
  6
CONTINUOUS
 10
5.926360
 20
4.539920
  0
VERTEX
  8
0
  6
CONTINUOUS
 10
6.581080
 20
4.149200
  0
VERTEX
  8
0
  6
CONTINUOUS
 10
6.255920
 20
4.080560
  0
VERTEX
  8
0
  6
CONTINUOUS
 10
5.601200
 20
4.471280
  0
VERTEX
  8
0
  6
CONTINUOUS
 10
5.926360
 20
4.539920
  0
SEQEND
  8
0
  0
SOLID
  8
0
 62
    15
 10
5.601200
 20
4.471280
 11
6.255920
 21
4.080560
 12
5.334120
 22
4.374480
 13
5.989280
 23
3.983760
  0
POLYLINE
  8
0
  6
CONTINUOUS
 66
     1
 40
0.000000
 41
0.000000
  0
VERTEX
  8
0
  6
CONTINUOUS
 10
5.601200
 20
4.471280
  0
VERTEX
  8
0
  6
CONTINUOUS
 10
6.255920
 20
4.080560
  0
VERTEX
  8
0
  6
CONTINUOUS
 10
5.989280
 20
3.983760
  0
VERTEX
  8
0
  6
CONTINUOUS
 10
5.334120
 20
4.374480
  0
VERTEX
  8
0
  6
CONTINUOUS
 10
5.601200
 20
4.471280
  0
SEQEND
  8
0
  0
SOLID
  8
0
 62
    15
 10
5.334120
 20
4.374480
 11
5.989280
 21
3.983760
 12
5.118960
 22
4.251280
 13
5.774120
 23
3.860560
  0
POLYLINE
  8
0
  6
CONTINUOUS
 66
     1
 40
0.000000
 41
0.000000
  0
VERTEX
  8
0
  6
CONTINUOUS
 10
5.334120
 20
4.374480
  0
VERTEX
  8
0
  6
CONTINUOUS
 10
5.989280
 20
3.983760
  0
VERTEX
  8
0
  6
CONTINUOUS
 10
5.774120
 20
3.860560
  0
VERTEX
  8
0
  6
CONTINUOUS
 10
5.118960
 20
4.251280
  0
VERTEX
  8
0
  6
CONTINUOUS
 10
5.334120
 20
4.374480
  0
SEQEND
  8
0
  0
SOLID
  8
0
 62
    15
 10
5.118960
 20
4.251280
 11
5.774120
 21
3.860560
 12
4.949120
 22
4.103880
 13
5.604280
 23
3.713160
  0
POLYLINE
  8
0
  6
CONTINUOUS
 66
     1
 40
0.000000
 41
0.000000
  0
VERTEX
  8
0
  6
CONTINUOUS
 10
5.118960
 20
4.251280
  0
VERTEX
  8
0
  6
CONTINUOUS
 10
5.774120
 20
3.860560
  0
VERTEX
  8
0
  6
CONTINUOUS
 10
5.604280
 20
3.713160
  0
VERTEX
  8
0
  6
CONTINUOUS
 10
4.949120
 20
4.103880
  0
VERTEX
  8
0
  6
CONTINUOUS
 10
5.118960
 20
4.251280
  0
SEQEND
  8
0
  0
SOLID
  8
0
 62
    15
 10
4.949120
 20
4.103880
 11
5.604280
 21
3.713160
 12
4.818000
 22
3.934040
 13
5.472720
 23
3.543320
  0
POLYLINE
  8
0
  6
CONTINUOUS
 66
     1
 40
0.000000
 41
0.000000
  0
VERTEX
  8
0
  6
CONTINUOUS
 10
4.949120
 20
4.103880
  0
VERTEX
  8
0
  6
CONTINUOUS
 10
5.604280
 20
3.713160
  0
VERTEX
  8
0
  6
CONTINUOUS
 10
5.472720
 20
3.543320
  0
VERTEX
  8
0
  6
CONTINUOUS
 10
4.818000
 20
3.934040
  0
VERTEX
  8
0
  6
CONTINUOUS
 10
4.949120
 20
4.103880
  0
SEQEND
  8
0
  0
SOLID
  8
0
 62
    15
 10
4.818000
 20
3.934040
 11
5.472720
 21
3.543320
 12
4.719000
 22
3.743960
 13
5.373720
 23
3.353240
  0
POLYLINE
  8
0
  6
CONTINUOUS
 66
     1
 40
0.000000
 41
0.000000
  0
VERTEX
  8
0
  6
CONTINUOUS
 10
4.818000
 20
3.934040
  0
VERTEX
  8
0
  6
CONTINUOUS
 10
5.472720
 20
3.543320
  0
VERTEX
  8
0
  6
CONTINUOUS
 10
5.373720
 20
3.353240
  0
VERTEX
  8
0
  6
CONTINUOUS
 10
4.719000
 20
3.743960
  0
VERTEX
  8
0
  6
CONTINUOUS
 10
4.818000
 20
3.934040
  0
SEQEND
  8
0
  0
SOLID
  8
0
 62
    15
 10
4.719000
 20
3.743960
 11
5.373720
 21
3.353240
 12
4.645520
 22
3.535840
 13
5.300240
 23
3.145120
  0
POLYLINE
  8
0
  6
CONTINUOUS
 66
     1
 40
0.000000
 41
0.000000
  0
VERTEX
  8
0
  6
CONTINUOUS
 10
4.719000
 20
3.743960
  0
VERTEX
  8
0
  6
CONTINUOUS
 10
5.373720
 20
3.353240
  0
VERTEX
  8
0
  6
CONTINUOUS
 10
5.300240
 20
3.145120
  0
VERTEX
  8
0
  6
CONTINUOUS
 10
4.645520
 20
3.535840
  0
VERTEX
  8
0
  6
CONTINUOUS
 10
4.719000
 20
3.743960
  0
SEQEND
  8
0
  0
SOLID
  8
0
 62
    15
 10
4.645520
 20
3.535840
 11
5.300240
 21
3.145120
 12
4.590960
 22
3.311000
 13
5.246120
 23
2.920280
  0
POLYLINE
  8
0
  6
CONTINUOUS
 66
     1
 40
0.000000
 41
0.000000
  0
VERTEX
  8
0
  6
CONTINUOUS
 10
4.645520
 20
3.535840
  0
VERTEX
  8
0
  6
CONTINUOUS
 10
5.300240
 20
3.145120
  0
VERTEX
  8
0
  6
CONTINUOUS
 10
5.246120
 20
2.920280
  0
VERTEX
  8
0
  6
CONTINUOUS
 10
4.590960
 20
3.311000
  0
VERTEX
  8
0
  6
CONTINUOUS
 10
4.645520
 20
3.535840
  0
SEQEND
  8
0
  0
SOLID
  8
0
 62
    15
 10
4.590960
 20
3.311000
 11
5.246120
 21
2.920280
 12
4.535960
 22
3.093640
 13
5.191120
 23
2.702920
  0
POLYLINE
  8
0
  6
CONTINUOUS
 66
     1
 40
0.000000
 41
0.000000
  0
VERTEX
  8
0
  6
CONTINUOUS
 10
4.590960
 20
3.311000
  0
VERTEX
  8
0
  6
CONTINUOUS
 10
5.246120
 20
2.920280
  0
VERTEX
  8
0
  6
CONTINUOUS
 10
5.191120
 20
2.702920
  0
VERTEX
  8
0
  6
CONTINUOUS
 10
4.535960
 20
3.093640
  0
VERTEX
  8
0
  6
CONTINUOUS
 10
4.590960
 20
3.311000
  0
SEQEND
  8
0
  0
SOLID
  8
0
 62
    15
 10
4.535960
 20
3.093640
 11
5.191120
 21
2.702920
 12
4.457640
 22
2.886840
 13
5.112360
 23
2.496120
  0
POLYLINE
  8
0
  6
CONTINUOUS
 66
     1
 40
0.000000
 41
0.000000
  0
VERTEX
  8
0
  6
CONTINUOUS
 10
4.535960
 20
3.093640
  0
VERTEX
  8
0
  6
CONTINUOUS
 10
5.191120
 20
2.702920
  0
VERTEX
  8
0
  6
CONTINUOUS
 10
5.112360
 20
2.496120
  0
VERTEX
  8
0
  6
CONTINUOUS
 10
4.457640
 20
2.886840
  0
VERTEX
  8
0
  6
CONTINUOUS
 10
4.535960
 20
3.093640
  0
SEQEND
  8
0
  0
SOLID
  8
0
 62
    15
 10
4.457640
 20
2.886840
 11
5.112360
 21
2.496120
 12
4.350720
 22
2.695880
 13
5.005440
 23
2.305160
  0
POLYLINE
  8
0
  6
CONTINUOUS
 66
     1
 40
0.000000
 41
0.000000
  0
VERTEX
  8
0
  6
CONTINUOUS
 10
4.457640
 20
2.886840
  0
VERTEX
  8
0
  6
CONTINUOUS
 10
5.112360
 20
2.496120
  0
VERTEX
  8
0
  6
CONTINUOUS
 10
5.005440
 20
2.305160
  0
VERTEX
  8
0
  6
CONTINUOUS
 10
4.350720
 20
2.695880
  0
VERTEX
  8
0
  6
CONTINUOUS
 10
4.457640
 20
2.886840
  0
SEQEND
  8
0
  0
SOLID
  8
0
 62
    15
 10
4.350720
 20
2.695880
 11
5.005440
 21
2.305160
 12
4.210800
 22
2.525600
 13
4.865960
 23
2.134880
  0
POLYLINE
  8
0
  6
CONTINUOUS
 66
     1
 40
0.000000
 41
0.000000
  0
VERTEX
  8
0
  6
CONTINUOUS
 10
4.350720
 20
2.695880
  0
VERTEX
  8
0
  6
CONTINUOUS
 10
5.005440
 20
2.305160
  0
VERTEX
  8
0
  6
CONTINUOUS
 10
4.865960
 20
2.134880
  0
VERTEX
  8
0
  6
CONTINUOUS
 10
4.210800
 20
2.525600
  0
VERTEX
  8
0
  6
CONTINUOUS
 10
4.350720
 20
2.695880
  0
SEQEND
  8
0
  0
SOLID
  8
0
 62
    15
 10
4.210800
 20
2.525600
 11
4.865960
 21
2.134880
 12
4.033480
 22
2.380840
 13
4.688640
 23
1.990120
  0
POLYLINE
  8
0
  6
CONTINUOUS
 66
     1
 40
0.000000
 41
0.000000
  0
VERTEX
  8
0
  6
CONTINUOUS
 10
4.210800
 20
2.525600
  0
VERTEX
  8
0
  6
CONTINUOUS
 10
4.865960
 20
2.134880
  0
VERTEX
  8
0
  6
CONTINUOUS
 10
4.688640
 20
1.990120
  0
VERTEX
  8
0
  6
CONTINUOUS
 10
4.033480
 20
2.380840
  0
VERTEX
  8
0
  6
CONTINUOUS
 10
4.210800
 20
2.525600
  0
SEQEND
  8
0
  0
SOLID
  8
0
 62
    15
 10
4.033480
 20
2.380840
 11
4.688640
 21
1.990120
 12
3.814360
 22
2.267320
 13
4.469520
 23
1.876600
  0
POLYLINE
  8
0
  6
CONTINUOUS
 66
     1
 40
0.000000
 41
0.000000
  0
VERTEX
  8
0
  6
CONTINUOUS
 10
4.033480
 20
2.380840
  0
VERTEX
  8
0
  6
CONTINUOUS
 10
4.688640
 20
1.990120
  0
VERTEX
  8
0
  6
CONTINUOUS
 10
4.469520
 20
1.876600
  0
VERTEX
  8
0
  6
CONTINUOUS
 10
3.814360
 20
2.267320
  0
VERTEX
  8
0
  6
CONTINUOUS
 10
4.033480
 20
2.380840
  0
SEQEND
  8
0
  0
SOLID
  8
0
 62
    15
 10
3.814360
 20
2.267320
 11
4.469520
 21
1.876600
 12
3.548600
 22
2.189440
 13
4.203320
 23
1.798720
  0
POLYLINE
  8
0
  6
CONTINUOUS
 66
     1
 40
0.000000
 41
0.000000
  0
VERTEX
  8
0
  6
CONTINUOUS
 10
3.814360
 20
2.267320
  0
VERTEX
  8
0
  6
CONTINUOUS
 10
4.469520
 20
1.876600
  0
VERTEX
  8
0
  6
CONTINUOUS
 10
4.203320
 20
1.798720
  0
VERTEX
  8
0
  6
CONTINUOUS
 10
3.548600
 20
2.189440
  0
VERTEX
  8
0
  6
CONTINUOUS
 10
3.814360
 20
2.267320
  0
SEQEND
  8
0
  0
SOLID
  8
0
 62
    15
 10
5.927680
 20
5.043280
 11
6.582840
 21
4.652560
 12
5.929000
 22
4.540800
 13
6.584160
 23
4.150080
  0
POLYLINE
  8
0
  6
CONTINUOUS
 66
     1
 40
0.000000
 41
0.000000
  0
VERTEX
  8
0
  6
CONTINUOUS
 10
5.927680
 20
5.043280
  0
VERTEX
  8
0
  6
CONTINUOUS
 10
6.582840
 20
4.652560
  0
VERTEX
  8
0
  6
CONTINUOUS
 10
6.584160
 20
4.150080
  0
VERTEX
  8
0
  6
CONTINUOUS
 10
5.929000
 20
4.540800
  0
VERTEX
  8
0
  6
CONTINUOUS
 10
5.927680
 20
5.043280
  0
SEQEND
  8
0
  0
SOLID
  8
0
 62
    15
 10
3.231360
 20
2.152480
 11
3.886520
 21
1.761760
 12
3.226080
 22
2.152480
 13
3.880800
 23
1.761760
  0
POLYLINE
  8
0
  6
CONTINUOUS
 66
     1
 40
0.000000
 41
0.000000
  0
VERTEX
  8
0
  6
CONTINUOUS
 10
3.231360
 20
2.152480
  0
VERTEX
  8
0
  6
CONTINUOUS
 10
3.886520
 20
1.761760
  0
VERTEX
  8
0
  6
CONTINUOUS
 10
3.880800
 20
1.761760
  0
VERTEX
  8
0
  6
CONTINUOUS
 10
3.226080
 20
2.152480
  0
VERTEX
  8
0
  6
CONTINUOUS
 10
3.231360
 20
2.152480
  0
SEQEND
  8
0
  0
SOLID
  8
0
 62
    15
 10
3.226080
 20
2.152480
 11
3.880800
 21
1.761760
 12
3.224320
 22
1.800040
 13
3.879480
 23
1.409320
  0
POLYLINE
  8
0
  6
CONTINUOUS
 66
     1
 40
0.000000
 41
0.000000
  0
VERTEX
  8
0
  6
CONTINUOUS
 10
3.226080
 20
2.152480
  0
VERTEX
  8
0
  6
CONTINUOUS
 10
3.880800
 20
1.761760
  0
VERTEX
  8
0
  6
CONTINUOUS
 10
3.879480
 20
1.409320
  0
VERTEX
  8
0
  6
CONTINUOUS
 10
3.224320
 20
1.800040
  0
VERTEX
  8
0
  6
CONTINUOUS
 10
3.226080
 20
2.152480
  0
SEQEND
  8
0
  0
SOLID
  8
0
 62
    15
 10
3.224320
 20
1.800040
 11
3.879480
 21
1.409320
 12
3.221680
 22
1.796960
 13
3.876400
 23
1.406240
  0
POLYLINE
  8
0
  6
CONTINUOUS
 66
     1
 40
0.000000
 41
0.000000
  0
VERTEX
  8
0
  6
CONTINUOUS
 10
3.224320
 20
1.800040
  0
VERTEX
  8
0
  6
CONTINUOUS
 10
3.879480
 20
1.409320
  0
VERTEX
  8
0
  6
CONTINUOUS
 10
3.876400
 20
1.406240
  0
VERTEX
  8
0
  6
CONTINUOUS
 10
3.221680
 20
1.796960
  0
VERTEX
  8
0
  6
CONTINUOUS
 10
3.224320
 20
1.800040
  0
SEQEND
  8
0
  0
SOLID
  8
0
 62
    15
 10
3.221680
 20
1.796960
 11
3.876400
 21
1.406240
 12
2.960760
 22
1.796520
 13
3.615480
 23
1.405800
  0
POLYLINE
  8
0
  6
CONTINUOUS
 66
     1
 40
0.000000
 41
0.000000
  0
VERTEX
  8
0
  6
CONTINUOUS
 10
3.221680
 20
1.796960
  0
VERTEX
  8
0
  6
CONTINUOUS
 10
3.876400
 20
1.406240
  0
VERTEX
  8
0
  6
CONTINUOUS
 10
3.615480
 20
1.405800
  0
VERTEX
  8
0
  6
CONTINUOUS
 10
2.960760
 20
1.796520
  0
VERTEX
  8
0
  6
CONTINUOUS
 10
3.221680
 20
1.796960
  0
SEQEND
  8
0
  0
SOLID
  8
0
 62
    15
 10
2.960760
 20
1.796520
 11
3.615480
 21
1.405800
 12
2.960760
 22
1.794760
 13
3.615480
 23
1.404040
  0
POLYLINE
  8
0
  6
CONTINUOUS
 66
     1
 40
0.000000
 41
0.000000
  0
VERTEX
  8
0
  6
CONTINUOUS
 10
2.960760
 20
1.796520
  0
VERTEX
  8
0
  6
CONTINUOUS
 10
3.615480
 20
1.405800
  0
VERTEX
  8
0
  6
CONTINUOUS
 10
3.615480
 20
1.404040
  0
VERTEX
  8
0
  6
CONTINUOUS
 10
2.960760
 20
1.794760
  0
VERTEX
  8
0
  6
CONTINUOUS
 10
2.960760
 20
1.796520
  0
SEQEND
  8
0
  0
SOLID
  8
0
 62
    15
 10
2.960760
 20
1.794760
 11
3.615480
 21
1.404040
 12
2.955920
 22
1.686080
 13
3.611080
 23
1.295360
  0
POLYLINE
  8
0
  6
CONTINUOUS
 66
     1
 40
0.000000
 41
0.000000
  0
VERTEX
  8
0
  6
CONTINUOUS
 10
2.960760
 20
1.794760
  0
VERTEX
  8
0
  6
CONTINUOUS
 10
3.615480
 20
1.404040
  0
VERTEX
  8
0
  6
CONTINUOUS
 10
3.611080
 20
1.295360
  0
VERTEX
  8
0
  6
CONTINUOUS
 10
2.955920
 20
1.686080
  0
VERTEX
  8
0
  6
CONTINUOUS
 10
2.960760
 20
1.794760
  0
SEQEND
  8
0
  0
SOLID
  8
0
 62
    15
 10
2.955920
 20
1.686080
 11
3.611080
 21
1.295360
 12
2.939640
 22
1.597200
 13
3.594360
 23
1.206480
  0
POLYLINE
  8
0
  6
CONTINUOUS
 66
     1
 40
0.000000
 41
0.000000
  0
VERTEX
  8
0
  6
CONTINUOUS
 10
2.955920
 20
1.686080
  0
VERTEX
  8
0
  6
CONTINUOUS
 10
3.611080
 20
1.295360
  0
VERTEX
  8
0
  6
CONTINUOUS
 10
3.594360
 20
1.206480
  0
VERTEX
  8
0
  6
CONTINUOUS
 10
2.939640
 20
1.597200
  0
VERTEX
  8
0
  6
CONTINUOUS
 10
2.955920
 20
1.686080
  0
SEQEND
  8
0
  0
SOLID
  8
0
 62
    15
 10
2.939640
 20
1.597200
 11
3.594360
 21
1.206480
 12
2.876720
 22
1.468280
 13
3.531880
 23
1.078000
  0
POLYLINE
  8
0
  6
CONTINUOUS
 66
     1
 40
0.000000
 41
0.000000
  0
VERTEX
  8
0
  6
CONTINUOUS
 10
2.939640
 20
1.597200
  0
VERTEX
  8
0
  6
CONTINUOUS
 10
3.594360
 20
1.206480
  0
VERTEX
  8
0
  6
CONTINUOUS
 10
3.531880
 20
1.078000
  0
VERTEX
  8
0
  6
CONTINUOUS
 10
2.876720
 20
1.468280
  0
VERTEX
  8
0
  6
CONTINUOUS
 10
2.939640
 20
1.597200
  0
SEQEND
  8
0
  0
SOLID
  8
0
 62
    15
 10
2.876720
 20
1.468280
 11
3.531880
 21
1.078000
 12
2.785640
 22
1.385560
 13
3.440360
 23
0.994840
  0
POLYLINE
  8
0
  6
CONTINUOUS
 66
     1
 40
0.000000
 41
0.000000
  0
VERTEX
  8
0
  6
CONTINUOUS
 10
2.876720
 20
1.468280
  0
VERTEX
  8
0
  6
CONTINUOUS
 10
3.531880
 20
1.078000
  0
VERTEX
  8
0
  6
CONTINUOUS
 10
3.440360
 20
0.994840
  0
VERTEX
  8
0
  6
CONTINUOUS
 10
2.785640
 20
1.385560
  0
VERTEX
  8
0
  6
CONTINUOUS
 10
2.876720
 20
1.468280
  0
SEQEND
  8
0
  0
SOLID
  8
0
 62
    15
 10
2.785640
 20
1.385560
 11
3.440360
 21
0.994840
 12
2.678280
 22
1.325720
 13
3.333440
 23
0.935000
  0
POLYLINE
  8
0
  6
CONTINUOUS
 66
     1
 40
0.000000
 41
0.000000
  0
VERTEX
  8
0
  6
CONTINUOUS
 10
2.785640
 20
1.385560
  0
VERTEX
  8
0
  6
CONTINUOUS
 10
3.440360
 20
0.994840
  0
VERTEX
  8
0
  6
CONTINUOUS
 10
3.333440
 20
0.935000
  0
VERTEX
  8
0
  6
CONTINUOUS
 10
2.678280
 20
1.325720
  0
VERTEX
  8
0
  6
CONTINUOUS
 10
2.785640
 20
1.385560
  0
SEQEND
  8
0
  0
SOLID
  8
0
 62
    15
 10
2.678280
 20
1.325720
 11
3.333440
 21
0.935000
 12
2.568720
 22
1.265880
 13
3.223440
 23
0.875160
  0
POLYLINE
  8
0
  6
CONTINUOUS
 66
     1
 40
0.000000
 41
0.000000
  0
VERTEX
  8
0
  6
CONTINUOUS
 10
2.678280
 20
1.325720
  0
VERTEX
  8
0
  6
CONTINUOUS
 10
3.333440
 20
0.935000
  0
VERTEX
  8
0
  6
CONTINUOUS
 10
3.223440
 20
0.875160
  0
VERTEX
  8
0
  6
CONTINUOUS
 10
2.568720
 20
1.265880
  0
VERTEX
  8
0
  6
CONTINUOUS
 10
2.678280
 20
1.325720
  0
SEQEND
  8
0
  0
SOLID
  8
0
 62
    15
 10
2.568720
 20
1.265880
 11
3.223440
 21
0.875160
 12
2.469280
 22
1.182720
 13
3.124440
 23
0.792440
  0
POLYLINE
  8
0
  6
CONTINUOUS
 66
     1
 40
0.000000
 41
0.000000
  0
VERTEX
  8
0
  6
CONTINUOUS
 10
2.568720
 20
1.265880
  0
VERTEX
  8
0
  6
CONTINUOUS
 10
3.223440
 20
0.875160
  0
VERTEX
  8
0
  6
CONTINUOUS
 10
3.124440
 20
0.792440
  0
VERTEX
  8
0
  6
CONTINUOUS
 10
2.469280
 20
1.182720
  0
VERTEX
  8
0
  6
CONTINUOUS
 10
2.568720
 20
1.265880
  0
SEQEND
  8
0
  0
SOLID
  8
0
 62
    15
 10
2.469280
 20
1.182720
 11
3.124440
 21
0.792440
 12
2.393600
 22
1.054240
 13
3.048320
 23
0.663520
  0
POLYLINE
  8
0
  6
CONTINUOUS
 66
     1
 40
0.000000
 41
0.000000
  0
VERTEX
  8
0
  6
CONTINUOUS
 10
2.469280
 20
1.182720
  0
VERTEX
  8
0
  6
CONTINUOUS
 10
3.124440
 20
0.792440
  0
VERTEX
  8
0
  6
CONTINUOUS
 10
3.048320
 20
0.663520
  0
VERTEX
  8
0
  6
CONTINUOUS
 10
2.393600
 20
1.054240
  0
VERTEX
  8
0
  6
CONTINUOUS
 10
2.469280
 20
1.182720
  0
SEQEND
  8
0
  0
SOLID
  8
0
 62
    15
 10
2.393600
 20
1.054240
 11
3.048320
 21
0.663520
 12
2.368520
 22
0.965360
 13
3.023680
 23
0.575080
  0
POLYLINE
  8
0
  6
CONTINUOUS
 66
     1
 40
0.000000
 41
0.000000
  0
VERTEX
  8
0
  6
CONTINUOUS
 10
2.393600
 20
1.054240
  0
VERTEX
  8
0
  6
CONTINUOUS
 10
3.048320
 20
0.663520
  0
VERTEX
  8
0
  6
CONTINUOUS
 10
3.023680
 20
0.575080
  0
VERTEX
  8
0
  6
CONTINUOUS
 10
2.368520
 20
0.965360
  0
VERTEX
  8
0
  6
CONTINUOUS
 10
2.393600
 20
1.054240
  0
SEQEND
  8
0
  0
SOLID
  8
0
 62
    15
 10
2.368520
 20
0.965360
 11
3.023680
 21
0.575080
 12
2.354440
 22
0.856680
 13
3.009160
 23
0.465960
  0
POLYLINE
  8
0
  6
CONTINUOUS
 66
     1
 40
0.000000
 41
0.000000
  0
VERTEX
  8
0
  6
CONTINUOUS
 10
2.368520
 20
0.965360
  0
VERTEX
  8
0
  6
CONTINUOUS
 10
3.023680
 20
0.575080
  0
VERTEX
  8
0
  6
CONTINUOUS
 10
3.009160
 20
0.465960
  0
VERTEX
  8
0
  6
CONTINUOUS
 10
2.354440
 20
0.856680
  0
VERTEX
  8
0
  6
CONTINUOUS
 10
2.368520
 20
0.965360
  0
SEQEND
  8
0
  0
SOLID
  8
0
 62
    15
 10
2.354440
 20
0.856680
 11
3.009160
 21
0.465960
 12
2.351800
 22
0.851840
 13
3.006520
 23
0.461120
  0
POLYLINE
  8
0
  6
CONTINUOUS
 66
     1
 40
0.000000
 41
0.000000
  0
VERTEX
  8
0
  6
CONTINUOUS
 10
2.354440
 20
0.856680
  0
VERTEX
  8
0
  6
CONTINUOUS
 10
3.009160
 20
0.465960
  0
VERTEX
  8
0
  6
CONTINUOUS
 10
3.006520
 20
0.461120
  0
VERTEX
  8
0
  6
CONTINUOUS
 10
2.351800
 20
0.851840
  0
VERTEX
  8
0
  6
CONTINUOUS
 10
2.354440
 20
0.856680
  0
SEQEND
  8
0
  0
SOLID
  8
0
 62
    15
 10
2.351800
 20
0.851840
 11
3.006520
 21
0.461120
 12
1.983960
 22
0.864160
 13
2.638680
 23
0.473880
  0
POLYLINE
  8
0
  6
CONTINUOUS
 66
     1
 40
0.000000
 41
0.000000
  0
VERTEX
  8
0
  6
CONTINUOUS
 10
2.351800
 20
0.851840
  0
VERTEX
  8
0
  6
CONTINUOUS
 10
3.006520
 20
0.461120
  0
VERTEX
  8
0
  6
CONTINUOUS
 10
2.638680
 20
0.473880
  0
VERTEX
  8
0
  6
CONTINUOUS
 10
1.983960
 20
0.864160
  0
VERTEX
  8
0
  6
CONTINUOUS
 10
2.351800
 20
0.851840
  0
SEQEND
  8
0
  0
POLYLINE
  8
0
  6
CONTINUOUS
 66
     1
 40
0.000000
 41
0.000000
  0
VERTEX
  8
0
  6
CONTINUOUS
 10
1.979120
 20
2.085160
  0
VERTEX
  8
0
  6
CONTINUOUS
 10
4.864200
 20
5.041520
  0
VERTEX
  8
0
  6
CONTINUOUS
 10
5.927680
 20
5.043280
  0
VERTEX
  8
0
  6
CONTINUOUS
 10
5.929000
 20
4.540800
  0
VERTEX
  8
0
  6
CONTINUOUS
 10
5.926360
 20
4.539920
  0
VERTEX
  8
0
  6
CONTINUOUS
 10
5.601200
 20
4.471280
  0
VERTEX
  8
0
  6
CONTINUOUS
 10
5.334120
 20
4.374480
  0
VERTEX
  8
0
  6
CONTINUOUS
 10
5.118960
 20
4.251280
  0
VERTEX
  8
0
  6
CONTINUOUS
 10
4.949120
 20
4.103880
  0
VERTEX
  8
0
  6
CONTINUOUS
 10
4.818000
 20
3.934040
  0
VERTEX
  8
0
  6
CONTINUOUS
 10
4.719000
 20
3.743960
  0
VERTEX
  8
0
  6
CONTINUOUS
 10
4.645520
 20
3.535840
  0
VERTEX
  8
0
  6
CONTINUOUS
 10
4.590960
 20
3.311000
  0
VERTEX
  8
0
  6
CONTINUOUS
 10
4.535960
 20
3.093640
  0
VERTEX
  8
0
  6
CONTINUOUS
 10
4.457640
 20
2.886840
  0
VERTEX
  8
0
  6
CONTINUOUS
 10
4.350720
 20
2.695880
  0
VERTEX
  8
0
  6
CONTINUOUS
 10
4.210800
 20
2.525600
  0
VERTEX
  8
0
  6
CONTINUOUS
 10
4.033480
 20
2.380840
  0
VERTEX
  8
0
  6
CONTINUOUS
 10
3.814360
 20
2.267320
  0
VERTEX
  8
0
  6
CONTINUOUS
 10
3.548600
 20
2.189440
  0
VERTEX
  8
0
  6
CONTINUOUS
 10
3.231360
 20
2.152480
  0
VERTEX
  8
0
  6
CONTINUOUS
 10
3.226080
 20
2.152480
  0
VERTEX
  8
0
  6
CONTINUOUS
 10
3.224320
 20
1.800040
  0
VERTEX
  8
0
  6
CONTINUOUS
 10
3.221680
 20
1.796960
  0
VERTEX
  8
0
  6
CONTINUOUS
 10
2.960760
 20
1.796520
  0
VERTEX
  8
0
  6
CONTINUOUS
 10
2.960760
 20
1.794760
  0
VERTEX
  8
0
  6
CONTINUOUS
 10
2.955920
 20
1.686080
  0
VERTEX
  8
0
  6
CONTINUOUS
 10
2.939640
 20
1.597200
  0
VERTEX
  8
0
  6
CONTINUOUS
 10
2.876720
 20
1.468280
  0
VERTEX
  8
0
  6
CONTINUOUS
 10
2.785640
 20
1.385560
  0
VERTEX
  8
0
  6
CONTINUOUS
 10
2.678280
 20
1.325720
  0
VERTEX
  8
0
  6
CONTINUOUS
 10
2.568720
 20
1.265880
  0
VERTEX
  8
0
  6
CONTINUOUS
 10
2.469280
 20
1.182720
  0
VERTEX
  8
0
  6
CONTINUOUS
 10
2.393600
 20
1.054240
  0
VERTEX
  8
0
  6
CONTINUOUS
 10
2.368520
 20
0.965360
  0
VERTEX
  8
0
  6
CONTINUOUS
 10
2.354440
 20
0.856680
  0
VERTEX
  8
0
  6
CONTINUOUS
 10
2.351800
 20
0.851840
  0
VERTEX
  8
0
  6
CONTINUOUS
 10
1.983960
 20
0.864160
  0
VERTEX
  8
0
  6
CONTINUOUS
 10
1.969000
 20
2.076800
  0
VERTEX
  8
0
  6
CONTINUOUS
 10
1.979120
 20
2.085160
  0
SEQEND
  8
0
  0
TEXT
  8
0
 10
3.820080
 20
0.630960
 40
0.138160
  1
BA  7
 41
1.000000
  7
SN0
 71
     0
 72
     5
 11
4.226094
 21
0.630960
  0
TEXT
  8
0
 10
3.451800
 20
0.439120
 40
0.138160
  1
1-3/16" x 5-3/4"
 41
1.000000
  7
SN0
 71
     0
 72
     5
 11
4.591798
 21
0.439120
  0
POLYLINE
  8
0
  6
CONTINUOUS
 66
     1
 40
0.014080
 41
0.014080
  0
VERTEX
  8
0
  6
CONTINUOUS
 10
6.367680
 20
5.418600
  0
VERTEX
  8
0
  6
CONTINUOUS
 10
2.236960
 20
5.418600
  0
VERTEX
  8
0
  6
CONTINUOUS
 10
1.492920
 20
6.178480
  0
VERTEX
  8
0
  6
CONTINUOUS
 10
1.851520
 20
6.530480
  0
VERTEX
  8
0
  6
CONTINUOUS
 10
1.960200
 20
6.452160
  0
VERTEX
  8
0
  6
CONTINUOUS
 10
2.063600
 20
6.384400
  0
VERTEX
  8
0
  6
CONTINUOUS
 10
2.163480
 20
6.325880
  0
VERTEX
  8
0
  6
CONTINUOUS
 10
2.260720
 20
6.275280
  0
VERTEX
  8
0
  6
CONTINUOUS
 10
2.324080
 20
6.246680
  0
VERTEX
  8
0
  6
CONTINUOUS
 10
2.416920
 20
6.209720
  0
VERTEX
  8
0
  6
CONTINUOUS
 10
2.507560
 20
6.180680
  0
VERTEX
  8
0
  6
CONTINUOUS
 10
2.595560
 20
6.158680
  0
VERTEX
  8
0
  6
CONTINUOUS
 10
2.653200
 20
6.148120
  0
VERTEX
  8
0
  6
CONTINUOUS
 10
2.738120
 20
6.138000
  0
VERTEX
  8
0
  6
CONTINUOUS
 10
2.794000
 20
6.134920
  0
VERTEX
  8
0
  6
CONTINUOUS
 10
2.848560
 20
6.134480
  0
VERTEX
  8
0
  6
CONTINUOUS
 10
2.903120
 20
6.136680
  0
VERTEX
  8
0
  6
CONTINUOUS
 10
2.983200
 20
6.145040
  0
VERTEX
  8
0
  6
CONTINUOUS
 10
3.061960
 20
6.159120
  0
VERTEX
  8
0
  6
CONTINUOUS
 10
3.113880
 20
6.171440
  0
VERTEX
  8
0
  6
CONTINUOUS
 10
3.165360
 20
6.185960
  0
VERTEX
  8
0
  6
CONTINUOUS
 10
3.216400
 20
6.202240
  0
VERTEX
  8
0
  6
CONTINUOUS
 10
3.317160
 20
6.241400
  0
VERTEX
  8
0
  6
CONTINUOUS
 10
3.417480
 20
6.288040
  0
VERTEX
  8
0
  6
CONTINUOUS
 10
3.516920
 20
6.341280
  0
VERTEX
  8
0
  6
CONTINUOUS
 10
3.616360
 20
6.400240
  0
VERTEX
  8
0
  6
CONTINUOUS
 10
3.713600
 20
6.461840
  0
VERTEX
  8
0
  6
CONTINUOUS
 10
3.810840
 20
6.518160
  0
VERTEX
  8
0
  6
CONTINUOUS
 10
3.860120
 20
6.544560
  0
VERTEX
  8
0
  6
CONTINUOUS
 10
3.960440
 20
6.592080
  0
VERTEX
  8
0
  6
CONTINUOUS
 10
4.011480
 20
6.613200
  0
VERTEX
  8
0
  6
CONTINUOUS
 10
4.063400
 20
6.632560
  0
VERTEX
  8
0
  6
CONTINUOUS
 10
4.115320
 20
6.649720
  0
VERTEX
  8
0
  6
CONTINUOUS
 10
4.167680
 20
6.665120
  0
VERTEX
  8
0
  6
CONTINUOUS
 10
4.220920
 20
6.678320
  0
VERTEX
  8
0
  6
CONTINUOUS
 10
4.301440
 20
6.694160
  0
VERTEX
  8
0
  6
CONTINUOUS
 10
4.383280
 20
6.703840
  0
VERTEX
  8
0
  6
CONTINUOUS
 10
4.438720
 20
6.707360
  0
VERTEX
  8
0
  6
CONTINUOUS
 10
4.494160
 20
6.708240
  0
VERTEX
  8
0
  6
CONTINUOUS
 10
4.550040
 20
6.706040
  0
VERTEX
  8
0
  6
CONTINUOUS
 10
4.606800
 20
6.701200
  0
VERTEX
  8
0
  6
CONTINUOUS
 10
4.692600
 20
6.688440
  0
VERTEX
  8
0
  6
CONTINUOUS
 10
4.779280
 20
6.668200
  0
VERTEX
  8
0
  6
CONTINUOUS
 10
4.837800
 20
6.650600
  0
VERTEX
  8
0
  6
CONTINUOUS
 10
4.926240
 20
6.617600
  0
VERTEX
  8
0
  6
CONTINUOUS
 10
5.015560
 20
6.576680
  0
VERTEX
  8
0
  6
CONTINUOUS
 10
5.075840
 20
6.544560
  0
VERTEX
  8
0
  6
CONTINUOUS
 10
5.136120
 20
6.508920
  0
VERTEX
  8
0
  6
CONTINUOUS
 10
5.197280
 20
6.468880
  0
VERTEX
  8
0
  6
CONTINUOUS
 10
5.289240
 20
6.401560
  0
VERTEX
  8
0
  6
CONTINUOUS
 10
5.382520
 20
6.324560
  0
VERTEX
  8
0
  6
CONTINUOUS
 10
5.448960
 20
6.263840
  0
VERTEX
  8
0
  6
CONTINUOUS
 10
5.702400
 20
6.508920
  0
VERTEX
  8
0
  6
CONTINUOUS
 10
5.706360
 20
6.508920
  0
VERTEX
  8
0
  6
CONTINUOUS
 10
5.888960
 20
6.322360
  0
VERTEX
  8
0
  6
CONTINUOUS
 10
5.931640
 20
6.363280
  0
VERTEX
  8
0
  6
CONTINUOUS
 10
5.971240
 20
6.396720
  0
VERTEX
  8
0
  6
CONTINUOUS
 10
6.009520
 20
6.424440
  0
VERTEX
  8
0
  6
CONTINUOUS
 10
6.064080
 20
6.456120
  0
VERTEX
  8
0
  6
CONTINUOUS
 10
6.099280
 20
6.471520
  0
VERTEX
  8
0
  6
CONTINUOUS
 10
6.133160
 20
6.482520
  0
VERTEX
  8
0
  6
CONTINUOUS
 10
6.166160
 20
6.489560
  0
VERTEX
  8
0
  6
CONTINUOUS
 10
6.214120
 20
6.493960
  0
VERTEX
  8
0
  6
CONTINUOUS
 10
6.244920
 20
6.493080
  0
VERTEX
  8
0
  6
CONTINUOUS
 10
6.275280
 20
6.489560
  0
VERTEX
  8
0
  6
CONTINUOUS
 10
6.305200
 20
6.484280
  0
VERTEX
  8
0
  6
CONTINUOUS
 10
6.335120
 20
6.477240
  0
VERTEX
  8
0
  6
CONTINUOUS
 10
6.512000
 20
6.420480
  0
VERTEX
  8
0
  6
CONTINUOUS
 10
6.542800
 20
6.412560
  0
VERTEX
  8
0
  6
CONTINUOUS
 10
6.605280
 20
6.401560
  0
VERTEX
  8
0
  6
CONTINUOUS
 10
6.654560
 20
6.398920
  0
VERTEX
  8
0
  6
CONTINUOUS
 10
6.688440
 20
6.400680
  0
VERTEX
  8
0
  6
CONTINUOUS
 10
6.741240
 20
6.409480
  0
VERTEX
  8
0
  6
CONTINUOUS
 10
6.778200
 20
6.420040
  0
VERTEX
  8
0
  6
CONTINUOUS
 10
6.816480
 20
6.435000
  0
VERTEX
  8
0
  6
CONTINUOUS
 10
6.876320
 20
6.466240
  0
VERTEX
  8
0
  6
CONTINUOUS
 10
6.918560
 20
6.493520
  0
VERTEX
  8
0
  6
CONTINUOUS
 10
6.985000
 20
6.545000
  0
VERTEX
  8
0
  6
CONTINUOUS
 10
6.990280
 20
6.546320
  0
VERTEX
  8
0
  6
CONTINUOUS
 10
7.238440
 20
6.274400
  0
VERTEX
  8
0
  6
CONTINUOUS
 10
6.380880
 20
5.417280
  0
VERTEX
  8
0
  6
CONTINUOUS
 10
6.367680
 20
5.418600
  0
SEQEND
  8
0
  0
TEXT
  8
0
 10
4.209480
 20
5.720880
 40
0.138160
  1
BA  7
 41
1.000000
  7
SN0
 71
     0
 72
     5
 11
4.615494
 21
5.720880
  0
TEXT
  8
0
 10
3.841200
 20
5.529480
 40
0.138160
  1
1-3/16" x 5-3/4"
 41
1.000000
  7
SN0
 71
     0
 72
     5
 11
4.981198
 21
5.529480
  0
ENDSEC
  0
EOF
